  0
SECTION
  2
HEADER
  9
$EXTMIN
 10
-210.0
 20
-148.5
  9
$EXTMAX
 10
210.0
 20
148.5
  9
$PDMODE
 70
    32
  9
$PDSIZE
 40
1.5
  9
$LTSCALE
 40
10.0
  0
ENDSEC
  0
SECTION
  2
TABLES
  0
TABLE
  2
LTYPE
 70
    15
  0
LTYPE
  2
CONTINUOUS
 70
    64
  3
実線
 72
    65
 73
     0
 40
0.0
  0
LTYPE
  2
DASHED
 70
    64
  3
破線A
 72
    65
 73
     2
 40
0.6
 49
0.4
 49
-0.2
  0
LTYPE
  2
DASHEDX2
 70
    64
  3
破線B
 72
    65
 73
     2
 40
1.3
 49
0.9
 49
-0.4
  0
LTYPE
  2
DASHDOT
 70
    64
  3
１点鎖線A
 72
    65
 73
     4
 40
0.5375
 49
0.375
 49
-0.05
 49
0.0625
 49
-0.05
  0
LTYPE
  2
DASHDOTX2
 70
    64
  3
１点鎖線B
 72
    65
 73
     4
 40
1.075
 49
0.75
 49
-0.1
 49
0.125
 49
-0.1
  0
LTYPE
  2
DIVIDE2
 70
    64
  3
２点鎖線A
 72
    65
 73
     6
 40
0.5125
 49
0.3
 49
-0.0375
 49
0.05
 49
-0.0375
 49
0.05
 49
-0.0375
  0
LTYPE
  2
DIVIDE
 70
    64
  3
２点鎖線B
 72
    65
 73
     6
 40
1.05
 49
0.55
 49
-0.1
 49
0.1
 49
-0.1
 49
0.1
 49
-0.1
  0
LTYPE
  2
DOT
 70
    64
  3
点線A
 72
    65
 73
     2
 40
0.1125
 49
0.0625
 49
-0.05
  0
LTYPE
  2
DOTX2
 70
    64
  3
点線B
 72
    65
 73
     2
 40
0.275
 49
0.15
 49
-0.125
  0
LTYPE
  2
CONTINUOUS
 70
    64
  3
実線
 72
    65
 73
     0
 40
0.0
  0
LTYPE
  2
CONTINUOUS
 70
    64
  3
実線
 72
    65
 73
     0
 40
0.0
  0
LTYPE
  2
CONTINUOUS
 70
    64
  3
実線
 72
    65
 73
     0
 40
0.0
  0
LTYPE
  2
CONTINUOUS
 70
    64
  3
実線
 72
    65
 73
     0
 40
0.0
  0
LTYPE
  2
CONTINUOUS
 70
    64
  3
実線
 72
    65
 73
     0
 40
0.0
  0
LTYPE
  2
CONTINUOUS
 70
    64
  3
実線
 72
    65
 73
     0
 40
0.0
  0
ENDTAB
  0
TABLE
  2
LAYER
 70
    49
  0
LAYER
  2
通り芯
 70
     0
 62
    15
  6
CONTINUOUS
  0
LAYER
  2
補助線
 70
     0
 62
    16
  6
DOT
  0
LAYER
  2
躯体
 70
     0
 62
    31
  6
CONTINUOUS
  0
LAYER
  2
型材
 70
     0
 62
    32
  6
CONTINUOUS
  0
LAYER
  2
型材断面
 70
     0
 62
    47
  6
CONTINUOUS
  0
LAYER
  2
ガラス
 70
     0
 62
    48
  6
CONTINUOUS
  0
LAYER
  2
ゴム等
 70
     0
 62
    63
  6
CONTINUOUS
  0
LAYER
  2
ボルト／ビス
 70
     0
 62
    64
  6
CONTINUOUS
  0
LAYER
  2
文字
 70
     0
 62
    79
  6
CONTINUOUS
  0
LAYER
  2
寸法
 70
     0
 62
    80
  6
CONTINUOUS
  0
LAYER
  2
ﾊｯﾁﾝｸﾞ
 70
     0
 62
    95
  6
CONTINUOUS
  0
LAYER
  2
別途部材
 70
     0
 62
    96
  6
CONTINUOUS
  0
LAYER
  2
曲げ物
 70
     0
 62
   111
  6
CONTINUOUS
  0
LAYER
  2
鉄骨等
 70
     0
 62
   112
  6
CONTINUOUS
  0
LAYER
  2
St
 70
     0
 62
   127
  6
CONTINUOUS
  0
LAYER
  2
その他部品等
 70
     0
 62
   128
  6
CONTINUOUS
  0
LAYER
  2
ｶﾞｽｹｯﾄ
 70
     0
 62
   143
  6
CONTINUOUS
  0
LAYER
  2
ｽｹｯﾁ
 70
     0
 62
    14
  6
CONTINUOUS
  0
LAYER
  2
0
 70
     0
 62
    17
  6
CONTINUOUS
  0
LAYER
  2
1
 70
     0
 62
    30
  6
CONTINUOUS
  0
LAYER
  2
4
 70
     0
 62
    33
  6
CONTINUOUS
  0
LAYER
  2
ﾚｲﾔ3
 70
     0
 62
    46
  6
CONTINUOUS
  0
LAYER
  2
外形線
 70
     0
 62
    49
  6
CONTINUOUS
  0
LAYER
  2
部品
 70
     0
 62
    14
  6
CONTINUOUS
  0
LAYER
  2
サッシ芯
 70
     0
 62
    17
  6
DASHDOTX2
  0
LAYER
  2
寸法線
 70
     0
 62
    62
  6
CONTINUOUS
  0
LAYER
  2
姿図外形線
 70
     0
 62
    65
  6
CONTINUOUS
  0
LAYER
  2
姿補助線
 70
     0
 62
    30
  6
CONTINUOUS
  0
LAYER
  2
透視線
 70
     0
 62
    78
  6
DOT
  0
LAYER
  2
用紙
 70
     0
 62
    81
  6
CONTINUOUS
  0
LAYER
  2
実線図枠
 70
     0
 62
    94
  6
CONTINUOUS
  0
LAYER
  2
補助図枠
 70
     0
 62
    97
  6
CONTINUOUS
  0
LAYER
  2
建具記号
 70
     0
 62
   110
  6
CONTINUOUS
  0
LAYER
  2
補助文字
 70
     0
 62
   113
  6
CONTINUOUS
  0
LAYER
  2
LAYER010
 70
     0
 62
    11
  6
CONTINUOUS
  0
LAYER
  2
03
 70
     0
 62
     3
  6
CONTINUOUS
  0
LAYER
  2
断面線01
 70
     0
 62
     1
  6
CONTINUOUS
  0
LAYER
  2
断面線08
 70
     0
 62
    14
  6
CONTINUOUS
  0
LAYER
  2
断面線02
 70
     0
 62
     2
  6
CONTINUOUS
  0
LAYER
  2
断面線03
 70
     0
 62
     3
  6
CONTINUOUS
  0
LAYER
  2
断面線04
 70
     0
 62
     4
  6
CONTINUOUS
  0
LAYER
  2
断面線05
 70
     0
 62
     5
  6
CONTINUOUS
  0
LAYER
  2
断面線07
 70
     0
 62
     7
  6
CONTINUOUS
  0
LAYER
  2
投影線01
 70
     0
 62
    13
  6
CONTINUOUS
  0
LAYER
  2
投影線02
 70
     0
 62
    12
  6
CONTINUOUS
  0
LAYER
  2
投影線03
 70
     0
 62
    11
  6
CONTINUOUS
  0
LAYER
  2
投影線06
 70
     0
 62
     8
  6
CONTINUOUS
  0
LAYER
  2
投影線07
 70
     0
 62
    17
  6
CONTINUOUS
  0
LAYER
  2
投影線08
 70
     0
 62
    18
  6
CONTINUOUS
  0
ENDTAB
  0
TABLE
  2
STYLE
 70
    10
  0
STYLE
  2
STANDARD
 70
     0
 40
1.0
 41
1.0
 42
1.0
 50
0.0
 71
     0
  3
TXT
  4
BIGFONT
  0
STYLE
  2
TATE
 70
     4
 40
1.0
 41
1.0
 42
1.0
 50
0.0
 71
     0
  3
TXT
  4
BIGFONT
  0
STYLE
  2
TextStyle03
 70
     0
 40
1.0
 41
1.0
 42
1.0
 50
0.0
 71
     0
  3
MONOTXT
  4
BIGFONT
  0
STYLE
  2
TextStyle04
 70
     0
 40
1.0
 41
1.0
 42
1.0
 50
0.0
 71
     0
  3
MONOTXT
  4
BIGFONT
  0
STYLE
  2
TextStyle05
 70
     0
 40
1.0
 41
1.0
 42
1.0
 50
0.0
 71
     0
  3
MONOTXT
  4
BIGFONT
  0
STYLE
  2
TextStyle06
 70
     0
 40
1.0
 41
1.0
 42
1.0
 50
0.0
 71
     0
  3
MONOTXT
  4
BIGFONT
  0
STYLE
  2
TextStyle07
 70
     0
 40
1.0
 41
1.0
 42
1.0
 50
0.0
 71
     0
  3
MONOTXT
  4
BIGFONT
  0
STYLE
  2
TextStyle08
 70
     0
 40
1.0
 41
1.0
 42
1.0
 50
0.0
 71
     0
  3
MONOTXT
  4
BIGFONT
  0
STYLE
  2
TextStyle09
 70
     0
 40
1.0
 41
1.0
 42
1.0
 50
0.0
 71
     0
  3
MONOTXT
  4
BIGFONT
  0
STYLE
  2
TextStyle10
 70
     0
 40
1.0
 41
1.0
 42
1.0
 50
0.0
 71
     0
  3
MONOTXT
  4
BIGFONT
  0
ENDTAB
  0
ENDSEC
  0
SECTION
  2
BLOCKS
  0
BLOCK
  2
*GRP_0001
 70
    65
 10
0.0
 20
0.0
  0
LINE
  8
型材断面
  6
CONTINUOUS
 10
195.0
 20
133.5
 11
195.0
 21
-133.5
  0
LINE
  8
型材断面
  6
CONTINUOUS
 10
195.0
 20
-133.5
 11
-185.0
 21
-133.5
  0
LINE
  8
型材断面
  6
CONTINUOUS
 10
-185.0
 20
-133.5
 11
-185.0
 21
133.5
  0
LINE
  8
型材断面
  6
CONTINUOUS
 10
195.0
 20
133.5
 11
-185.0
 21
133.5
  0
LINE
  8
型材断面
  6
CONTINUOUS
 10
145.0
 20
-133.5
 11
145.0
 21
-118.5
  0
LINE
  8
型材断面
  6
CONTINUOUS
 10
195.0
 20
-118.5
 11
145.0
 21
-118.5
  0
ENDBLK
  0
BLOCK
  2
*GRP_0002
 70
    65
 10
0.0
 20
0.0
  0
INSERT
  2
*GRP_0017
  8
文字
  6
CONTINUOUS
 10
0.0
 20
0.0
  0
LINE
  8
文字
  6
CONTINUOUS
 10
-3.994423
 20
26.182373
 11
-3.994423
 21
25.852503
  0
LINE
  8
文字
  6
CONTINUOUS
 10
-4.502293
 20
27.062027
 11
-4.502293
 21
25.852503
  0
LINE
  8
文字
  6
CONTINUOUS
 10
-5.010163
 20
27.941685
 11
-5.010163
 21
25.852503
  0
LINE
  8
文字
  6
CONTINUOUS
 10
-5.518033
 20
28.821342
 11
-5.518033
 21
25.852503
  0
LINE
  8
文字
  6
CONTINUOUS
 10
-6.025903
 20
29.700998
 11
-6.025903
 21
25.852503
  0
LINE
  8
文字
  6
CONTINUOUS
 10
-4.248358
 20
25.852503
 11
-4.248358
 21
26.622198
  0
LINE
  8
文字
  6
CONTINUOUS
 10
-4.756228
 20
25.852503
 11
-4.756228
 21
27.501855
  0
LINE
  8
文字
  6
CONTINUOUS
 10
-5.264098
 20
25.852503
 11
-5.264098
 21
28.381512
  0
LINE
  8
文字
  6
CONTINUOUS
 10
-5.771968
 20
25.852503
 11
-5.771968
 21
29.261168
  0
LINE
  8
文字
  6
CONTINUOUS
 10
-8.057383
 20
26.182373
 11
-8.057383
 21
25.852503
  0
LINE
  8
文字
  6
CONTINUOUS
 10
-7.549513
 20
27.062027
 11
-7.549513
 21
25.852503
  0
LINE
  8
文字
  6
CONTINUOUS
 10
-7.041643
 20
27.941685
 11
-7.041643
 21
25.852503
  0
LINE
  8
文字
  6
CONTINUOUS
 10
-6.533773
 20
28.821342
 11
-6.533773
 21
25.852503
  0
LINE
  8
文字
  6
CONTINUOUS
 10
-7.803448
 20
25.852503
 11
-7.803448
 21
26.622198
  0
LINE
  8
文字
  6
CONTINUOUS
 10
-7.295578
 20
25.852503
 11
-7.295578
 21
27.501855
  0
LINE
  8
文字
  6
CONTINUOUS
 10
-6.787708
 20
25.852503
 11
-6.787708
 21
28.381512
  0
LINE
  8
文字
  6
CONTINUOUS
 10
-6.279838
 20
25.852503
 11
-6.279838
 21
29.261168
  0
ENDBLK
  0
BLOCK
  2
*GRP_0003
 70
    65
 10
0.0
 20
0.0
  0
INSERT
  2
*GRP_0018
  8
文字
  6
CONTINUOUS
 10
0.0
 20
0.0
  0
LINE
  8
文字
  6
CONTINUOUS
 10
-64.435577
 20
22.450523
 11
-64.435577
 21
22.120652
  0
LINE
  8
文字
  6
CONTINUOUS
 10
-64.943448
 20
23.330177
 11
-64.943448
 21
22.120652
  0
LINE
  8
文字
  6
CONTINUOUS
 10
-65.451318
 20
24.209835
 11
-65.451318
 21
22.120652
  0
LINE
  8
文字
  6
CONTINUOUS
 10
-65.959188
 20
25.089493
 11
-65.959188
 21
22.120652
  0
LINE
  8
文字
  6
CONTINUOUS
 10
-66.467058
 20
25.969147
 11
-66.467058
 21
22.120652
  0
LINE
  8
文字
  6
CONTINUOUS
 10
-64.689513
 20
22.120652
 11
-64.689513
 21
22.890347
  0
LINE
  8
文字
  6
CONTINUOUS
 10
-65.197383
 20
22.120652
 11
-65.197383
 21
23.770005
  0
LINE
  8
文字
  6
CONTINUOUS
 10
-65.705253
 20
22.120652
 11
-65.705253
 21
24.649662
  0
LINE
  8
文字
  6
CONTINUOUS
 10
-66.213123
 20
22.120652
 11
-66.213123
 21
25.529318
  0
LINE
  8
文字
  6
CONTINUOUS
 10
-68.498538
 20
22.450523
 11
-68.498538
 21
22.120652
  0
LINE
  8
文字
  6
CONTINUOUS
 10
-67.990668
 20
23.330177
 11
-67.990668
 21
22.120652
  0
LINE
  8
文字
  6
CONTINUOUS
 10
-67.482798
 20
24.209835
 11
-67.482798
 21
22.120652
  0
LINE
  8
文字
  6
CONTINUOUS
 10
-66.974928
 20
25.089493
 11
-66.974928
 21
22.120652
  0
LINE
  8
文字
  6
CONTINUOUS
 10
-68.244603
 20
22.120652
 11
-68.244603
 21
22.890347
  0
LINE
  8
文字
  6
CONTINUOUS
 10
-67.736733
 20
22.120652
 11
-67.736733
 21
23.770005
  0
LINE
  8
文字
  6
CONTINUOUS
 10
-67.228863
 20
22.120652
 11
-67.228863
 21
24.649662
  0
LINE
  8
文字
  6
CONTINUOUS
 10
-66.720993
 20
22.120652
 11
-66.720993
 21
25.529318
  0
ENDBLK
  0
BLOCK
  2
*GRP_0004
 70
    65
 10
0.0
 20
0.0
  0
INSERT
  2
*GRP_0019
  8
文字
  6
CONTINUOUS
 10
0.0
 20
0.0
  0
LINE
  8
文字
  6
CONTINUOUS
 10
-64.435577
 20
83.531133
 11
-64.435577
 21
83.861002
  0
LINE
  8
文字
  6
CONTINUOUS
 10
-64.943448
 20
82.651477
 11
-64.943448
 21
83.861002
  0
LINE
  8
文字
  6
CONTINUOUS
 10
-65.451318
 20
81.77182
 11
-65.451318
 21
83.861002
  0
LINE
  8
文字
  6
CONTINUOUS
 10
-65.959188
 20
80.892163
 11
-65.959188
 21
83.861002
  0
LINE
  8
文字
  6
CONTINUOUS
 10
-66.467058
 20
80.012507
 11
-66.467058
 21
83.861002
  0
LINE
  8
文字
  6
CONTINUOUS
 10
-64.689513
 20
83.861002
 11
-64.689513
 21
83.091308
  0
LINE
  8
文字
  6
CONTINUOUS
 10
-65.197383
 20
83.861002
 11
-65.197383
 21
82.21165
  0
LINE
  8
文字
  6
CONTINUOUS
 10
-65.705253
 20
83.861002
 11
-65.705253
 21
81.331992
  0
LINE
  8
文字
  6
CONTINUOUS
 10
-66.213123
 20
83.861002
 11
-66.213123
 21
80.452338
  0
LINE
  8
文字
  6
CONTINUOUS
 10
-68.498538
 20
83.531133
 11
-68.498538
 21
83.861002
  0
LINE
  8
文字
  6
CONTINUOUS
 10
-67.990668
 20
82.651477
 11
-67.990668
 21
83.861002
  0
LINE
  8
文字
  6
CONTINUOUS
 10
-67.482798
 20
81.77182
 11
-67.482798
 21
83.861002
  0
LINE
  8
文字
  6
CONTINUOUS
 10
-66.974928
 20
80.892163
 11
-66.974928
 21
83.861002
  0
LINE
  8
文字
  6
CONTINUOUS
 10
-68.244603
 20
83.861002
 11
-68.244603
 21
83.091308
  0
LINE
  8
文字
  6
CONTINUOUS
 10
-67.736733
 20
83.861002
 11
-67.736733
 21
82.21165
  0
LINE
  8
文字
  6
CONTINUOUS
 10
-67.228863
 20
83.861002
 11
-67.228863
 21
81.331992
  0
LINE
  8
文字
  6
CONTINUOUS
 10
-66.720993
 20
83.861002
 11
-66.720993
 21
80.452338
  0
ENDBLK
  0
BLOCK
  2
*GRP_0005
 70
    65
 10
0.0
 20
0.0
  0
INSERT
  2
*GRP_0020
  8
文字
  6
CONTINUOUS
 10
0.0
 20
0.0
  0
LINE
  8
文字
  6
CONTINUOUS
 10
-35.926753
 20
55.022307
 11
-35.596882
 21
55.022307
  0
LINE
  8
文字
  6
CONTINUOUS
 10
-36.806408
 20
54.514437
 11
-35.596882
 21
54.514437
  0
LINE
  8
文字
  6
CONTINUOUS
 10
-37.686065
 20
54.006567
 11
-35.596882
 21
54.006567
  0
LINE
  8
文字
  6
CONTINUOUS
 10
-38.565722
 20
53.498697
 11
-35.596882
 21
53.498697
  0
LINE
  8
文字
  6
CONTINUOUS
 10
-39.445377
 20
52.990827
 11
-35.596882
 21
52.990827
  0
LINE
  8
文字
  6
CONTINUOUS
 10
-35.596882
 20
54.768373
 11
-36.366578
 21
54.768373
  0
LINE
  8
文字
  6
CONTINUOUS
 10
-35.596882
 20
54.260503
 11
-37.246235
 21
54.260503
  0
LINE
  8
文字
  6
CONTINUOUS
 10
-35.596882
 20
53.752633
 11
-38.125893
 21
53.752633
  0
LINE
  8
文字
  6
CONTINUOUS
 10
-35.596882
 20
53.244763
 11
-39.005548
 21
53.244763
  0
LINE
  8
文字
  6
CONTINUOUS
 10
-35.926753
 20
50.959347
 11
-35.596882
 21
50.959347
  0
LINE
  8
文字
  6
CONTINUOUS
 10
-36.806408
 20
51.467217
 11
-35.596882
 21
51.467217
  0
LINE
  8
文字
  6
CONTINUOUS
 10
-37.686065
 20
51.975087
 11
-35.596882
 21
51.975087
  0
LINE
  8
文字
  6
CONTINUOUS
 10
-38.565722
 20
52.482957
 11
-35.596882
 21
52.482957
  0
LINE
  8
文字
  6
CONTINUOUS
 10
-35.596882
 20
51.213283
 11
-36.366578
 21
51.213283
  0
LINE
  8
文字
  6
CONTINUOUS
 10
-35.596882
 20
51.721153
 11
-37.246235
 21
51.721153
  0
LINE
  8
文字
  6
CONTINUOUS
 10
-35.596882
 20
52.229023
 11
-38.125893
 21
52.229023
  0
LINE
  8
文字
  6
CONTINUOUS
 10
-35.596882
 20
52.736893
 11
-39.005548
 21
52.736893
  0
ENDBLK
  0
BLOCK
  2
*GRP_0006
 70
    65
 10
0.0
 20
0.0
  0
INSERT
  2
*GRP_0021
  8
文字
  6
CONTINUOUS
 10
0.0
 20
0.0
  0
LINE
  8
文字
  6
CONTINUOUS
 10
-97.007362
 20
55.022307
 11
-97.337233
 21
55.022307
  0
LINE
  8
文字
  6
CONTINUOUS
 10
-96.127708
 20
54.514437
 11
-97.337233
 21
54.514437
  0
LINE
  8
文字
  6
CONTINUOUS
 10
-95.24805
 20
54.006567
 11
-97.337233
 21
54.006567
  0
LINE
  8
文字
  6
CONTINUOUS
 10
-94.368393
 20
53.498697
 11
-97.337233
 21
53.498697
  0
LINE
  8
文字
  6
CONTINUOUS
 10
-93.488738
 20
52.990827
 11
-97.337233
 21
52.990827
  0
LINE
  8
文字
  6
CONTINUOUS
 10
-97.337233
 20
54.768373
 11
-96.567537
 21
54.768373
  0
LINE
  8
文字
  6
CONTINUOUS
 10
-97.337233
 20
54.260503
 11
-95.68788
 21
54.260503
  0
LINE
  8
文字
  6
CONTINUOUS
 10
-97.337233
 20
53.752633
 11
-94.808223
 21
53.752633
  0
LINE
  8
文字
  6
CONTINUOUS
 10
-97.337233
 20
53.244763
 11
-93.928568
 21
53.244763
  0
LINE
  8
文字
  6
CONTINUOUS
 10
-97.007362
 20
50.959347
 11
-97.337233
 21
50.959347
  0
LINE
  8
文字
  6
CONTINUOUS
 10
-96.127708
 20
51.467217
 11
-97.337233
 21
51.467217
  0
LINE
  8
文字
  6
CONTINUOUS
 10
-95.24805
 20
51.975087
 11
-97.337233
 21
51.975087
  0
LINE
  8
文字
  6
CONTINUOUS
 10
-94.368393
 20
52.482957
 11
-97.337233
 21
52.482957
  0
LINE
  8
文字
  6
CONTINUOUS
 10
-97.337233
 20
51.213283
 11
-96.567537
 21
51.213283
  0
LINE
  8
文字
  6
CONTINUOUS
 10
-97.337233
 20
51.721153
 11
-95.68788
 21
51.721153
  0
LINE
  8
文字
  6
CONTINUOUS
 10
-97.337233
 20
52.229023
 11
-94.808223
 21
52.229023
  0
LINE
  8
文字
  6
CONTINUOUS
 10
-97.337233
 20
52.736893
 11
-93.928568
 21
52.736893
  0
ENDBLK
  0
BLOCK
  2
*GRP_0007
 70
    65
 10
0.0
 20
0.0
  0
INSERT
  2
*GRP_0022
  8
文字
  6
CONTINUOUS
 10
0.0
 20
0.0
  0
LINE
  8
文字
  6
CONTINUOUS
 10
-86.625843
 20
29.959097
 11
-86.859095
 21
29.725845
  0
LINE
  8
文字
  6
CONTINUOUS
 10
-86.36295
 20
30.940228
 11
-87.218213
 21
30.084963
  0
LINE
  8
文字
  6
CONTINUOUS
 10
-86.100058
 20
31.921357
 11
-87.577333
 21
30.444082
  0
LINE
  8
文字
  6
CONTINUOUS
 10
-85.837162
 20
32.902487
 11
-87.93645
 21
30.8032
  0
LINE
  8
文字
  6
CONTINUOUS
 10
-85.574273
 20
33.883615
 11
-88.295568
 21
31.162318
  0
LINE
  8
文字
  6
CONTINUOUS
 10
-87.038655
 20
29.905405
 11
-86.494398
 21
30.44966
  0
LINE
  8
文字
  6
CONTINUOUS
 10
-87.397772
 20
30.264523
 11
-86.231505
 21
31.43079
  0
LINE
  8
文字
  6
CONTINUOUS
 10
-87.75689
 20
30.62364
 11
-85.96861
 21
32.41192
  0
LINE
  8
文字
  6
CONTINUOUS
 10
-88.11601
 20
30.98276
 11
-85.70572
 21
33.39305
  0
LINE
  8
文字
  6
CONTINUOUS
 10
-89.498787
 20
32.832045
 11
-89.732042
 21
32.598792
  0
LINE
  8
文字
  6
CONTINUOUS
 10
-88.51766
 20
33.094938
 11
-89.372923
 21
32.239673
  0
LINE
  8
文字
  6
CONTINUOUS
 10
-87.53653
 20
33.35783
 11
-89.013805
 21
31.880555
  0
LINE
  8
文字
  6
CONTINUOUS
 10
-86.5554
 20
33.620723
 11
-88.654687
 21
31.521437
  0
LINE
  8
文字
  6
CONTINUOUS
 10
-89.552483
 20
32.419233
 11
-89.008225
 21
32.96349
  0
LINE
  8
文字
  6
CONTINUOUS
 10
-89.193365
 20
32.060115
 11
-88.027095
 21
33.226383
  0
LINE
  8
文字
  6
CONTINUOUS
 10
-88.834245
 20
31.700995
 11
-87.045965
 21
33.489275
  0
LINE
  8
文字
  6
CONTINUOUS
 10
-88.475127
 20
31.341878
 11
-86.064837
 21
33.752167
  0
ENDBLK
  0
BLOCK
  2
*GRP_0008
 70
    65
 10
0.0
 20
0.0
  0
INSERT
  2
*GRP_0023
  8
文字
  6
CONTINUOUS
 10
0.0
 20
0.0
  0
LINE
  8
文字
  6
CONTINUOUS
 10
-46.308273
 20
29.959097
 11
-46.07502
 21
29.725845
  0
LINE
  8
文字
  6
CONTINUOUS
 10
-46.571165
 20
30.940228
 11
-45.715902
 21
30.084963
  0
LINE
  8
文字
  6
CONTINUOUS
 10
-46.834058
 20
31.921357
 11
-45.356783
 21
30.444082
  0
LINE
  8
文字
  6
CONTINUOUS
 10
-47.096953
 20
32.902487
 11
-44.997665
 21
30.8032
  0
LINE
  8
文字
  6
CONTINUOUS
 10
-47.359843
 20
33.883615
 11
-44.638548
 21
31.162318
  0
LINE
  8
文字
  6
CONTINUOUS
 10
-45.89546
 20
29.905405
 11
-46.439718
 21
30.44966
  0
LINE
  8
文字
  6
CONTINUOUS
 10
-45.536342
 20
30.264523
 11
-46.70261
 21
31.43079
  0
LINE
  8
文字
  6
CONTINUOUS
 10
-45.177225
 20
30.62364
 11
-46.965505
 21
32.41192
  0
LINE
  8
文字
  6
CONTINUOUS
 10
-44.818105
 20
30.98276
 11
-47.228395
 21
33.39305
  0
LINE
  8
文字
  6
CONTINUOUS
 10
-43.435328
 20
32.832045
 11
-43.202073
 21
32.598792
  0
LINE
  8
文字
  6
CONTINUOUS
 10
-44.416455
 20
33.094938
 11
-43.561193
 21
32.239673
  0
LINE
  8
文字
  6
CONTINUOUS
 10
-45.397585
 20
33.35783
 11
-43.92031
 21
31.880555
  0
LINE
  8
文字
  6
CONTINUOUS
 10
-46.378715
 20
33.620723
 11
-44.279428
 21
31.521437
  0
LINE
  8
文字
  6
CONTINUOUS
 10
-43.381632
 20
32.419233
 11
-43.92589
 21
32.96349
  0
LINE
  8
文字
  6
CONTINUOUS
 10
-43.74075
 20
32.060115
 11
-44.90702
 21
33.226383
  0
LINE
  8
文字
  6
CONTINUOUS
 10
-44.09987
 20
31.700995
 11
-45.88815
 21
33.489275
  0
LINE
  8
文字
  6
CONTINUOUS
 10
-44.458987
 20
31.341878
 11
-46.869278
 21
33.752167
  0
ENDBLK
  0
BLOCK
  2
*GRP_0009
 70
    65
 10
0.0
 20
0.0
  0
INSERT
  2
*GRP_0024
  8
文字
  6
CONTINUOUS
 10
0.0
 20
0.0
  0
LINE
  8
文字
  6
CONTINUOUS
 10
-46.308273
 20
76.022558
 11
-46.07502
 21
76.25581
  0
LINE
  8
文字
  6
CONTINUOUS
 10
-46.571165
 20
75.041427
 11
-45.715902
 21
75.896693
  0
LINE
  8
文字
  6
CONTINUOUS
 10
-46.834058
 20
74.060297
 11
-45.356783
 21
75.537572
  0
LINE
  8
文字
  6
CONTINUOUS
 10
-47.096953
 20
73.079168
 11
-44.997665
 21
75.178455
  0
LINE
  8
文字
  6
CONTINUOUS
 10
-47.359843
 20
72.09804
 11
-44.638548
 21
74.819338
  0
LINE
  8
文字
  6
CONTINUOUS
 10
-45.89546
 20
76.07625
 11
-46.439718
 21
75.531995
  0
LINE
  8
文字
  6
CONTINUOUS
 10
-45.536342
 20
75.717132
 11
-46.70261
 21
74.550865
  0
LINE
  8
文字
  6
CONTINUOUS
 10
-45.177225
 20
75.358015
 11
-46.965505
 21
73.569735
  0
LINE
  8
文字
  6
CONTINUOUS
 10
-44.818105
 20
74.998895
 11
-47.228395
 21
72.588605
  0
LINE
  8
文字
  6
CONTINUOUS
 10
-43.435328
 20
73.14961
 11
-43.202073
 21
73.382863
  0
LINE
  8
文字
  6
CONTINUOUS
 10
-44.416455
 20
72.886717
 11
-43.561193
 21
73.741983
  0
LINE
  8
文字
  6
CONTINUOUS
 10
-45.397585
 20
72.623825
 11
-43.92031
 21
74.1011
  0
LINE
  8
文字
  6
CONTINUOUS
 10
-46.378715
 20
72.360932
 11
-44.279428
 21
74.460217
  0
LINE
  8
文字
  6
CONTINUOUS
 10
-43.381632
 20
73.562422
 11
-43.92589
 21
73.018165
  0
LINE
  8
文字
  6
CONTINUOUS
 10
-43.74075
 20
73.92154
 11
-44.90702
 21
72.755272
  0
LINE
  8
文字
  6
CONTINUOUS
 10
-44.09987
 20
74.28066
 11
-45.88815
 21
72.49238
  0
LINE
  8
文字
  6
CONTINUOUS
 10
-44.458987
 20
74.639777
 11
-46.869278
 21
72.229487
  0
ENDBLK
  0
BLOCK
  2
*GRP_0010
 70
    65
 10
0.0
 20
0.0
  0
INSERT
  2
*GRP_0025
  8
文字
  6
CONTINUOUS
 10
0.0
 20
0.0
  0
LINE
  8
文字
  6
CONTINUOUS
 10
-86.625843
 20
76.022558
 11
-86.859095
 21
76.25581
  0
LINE
  8
文字
  6
CONTINUOUS
 10
-86.36295
 20
75.041427
 11
-87.218213
 21
75.896693
  0
LINE
  8
文字
  6
CONTINUOUS
 10
-86.100058
 20
74.060297
 11
-87.577333
 21
75.537572
  0
LINE
  8
文字
  6
CONTINUOUS
 10
-85.837162
 20
73.079168
 11
-87.93645
 21
75.178455
  0
LINE
  8
文字
  6
CONTINUOUS
 10
-85.574273
 20
72.09804
 11
-88.295568
 21
74.819338
  0
LINE
  8
文字
  6
CONTINUOUS
 10
-87.038655
 20
76.07625
 11
-86.494398
 21
75.531995
  0
LINE
  8
文字
  6
CONTINUOUS
 10
-87.397772
 20
75.717132
 11
-86.231505
 21
74.550865
  0
LINE
  8
文字
  6
CONTINUOUS
 10
-87.75689
 20
75.358015
 11
-85.96861
 21
73.569735
  0
LINE
  8
文字
  6
CONTINUOUS
 10
-88.11601
 20
74.998895
 11
-85.70572
 21
72.588605
  0
LINE
  8
文字
  6
CONTINUOUS
 10
-89.498787
 20
73.14961
 11
-89.732042
 21
73.382863
  0
LINE
  8
文字
  6
CONTINUOUS
 10
-88.51766
 20
72.886717
 11
-89.372923
 21
73.741983
  0
LINE
  8
文字
  6
CONTINUOUS
 10
-87.53653
 20
72.623825
 11
-89.013805
 21
74.1011
  0
LINE
  8
文字
  6
CONTINUOUS
 10
-86.5554
 20
72.360932
 11
-88.654687
 21
74.460217
  0
LINE
  8
文字
  6
CONTINUOUS
 10
-89.552483
 20
73.562422
 11
-89.008225
 21
73.018165
  0
LINE
  8
文字
  6
CONTINUOUS
 10
-89.193365
 20
73.92154
 11
-88.027095
 21
72.755272
  0
LINE
  8
文字
  6
CONTINUOUS
 10
-88.834245
 20
74.28066
 11
-87.045965
 21
72.49238
  0
LINE
  8
文字
  6
CONTINUOUS
 10
-88.475127
 20
74.639777
 11
-86.064837
 21
72.229487
  0
ENDBLK
  0
BLOCK
  2
*DIM_0011
 70
    65
 10
0.0
 20
0.0
  0
LINE
  8
寸法
  6
CONTINUOUS
 10
-39.717058
 20
-85.106545
 11
-39.717058
 21
-56.358713
  0
LINE
  8
寸法
  6
CONTINUOUS
 10
-43.967058
 20
-56.358713
 11
-39.717058
 21
-56.358713
  0
POINT
  8
寸法
 10
-43.967058
 20
-56.358713
  0
POINT
  8
寸法
 10
-39.717058
 20
-56.358713
  0
TEXT
  7
TextStyle03
  8
寸法
  6
CONTINUOUS
 10
-43.44375
 20
-55.975
  1
85
 40
3.0
 72
     5
 11
-40.25625
 21
-55.975
  0
ENDBLK
  0
BLOCK
  2
*DIM_0012
 70
    65
 10
0.0
 20
0.0
  0
LINE
  8
寸法
  6
CONTINUOUS
 10
-93.217058
 20
-85.106545
 11
-93.217058
 21
-56.358713
  0
LINE
  8
寸法
  6
CONTINUOUS
 10
-88.967058
 20
-56.358713
 11
-93.217058
 21
-56.358713
  0
POINT
  8
寸法
 10
-88.967058
 20
-56.358713
  0
POINT
  8
寸法
 10
-93.217058
 20
-56.358713
  0
TEXT
  7
TextStyle03
  8
寸法
  6
CONTINUOUS
 10
-92.69375
 20
-55.975
  1
85
 40
3.0
 72
     5
 11
-89.50625
 21
-55.975
  0
ENDBLK
  0
BLOCK
  2
*DIM_0013
 70
    65
 10
0.0
 20
0.0
  0
LINE
  8
寸法
  6
CONTINUOUS
 10
-88.967058
 20
-56.358713
 11
-43.967058
 21
-56.358713
  0
POINT
  8
寸法
 10
-88.967058
 20
-56.358713
  0
POINT
  8
寸法
 10
-43.967058
 20
-56.358713
  0
TEXT
  7
TextStyle03
  8
寸法
  6
CONTINUOUS
 10
-79.0375
 20
-55.975
  1
呼称寸法　φ900
 40
3.0
 72
     5
 11
-53.9125
 21
-55.975
  0
ENDBLK
  0
BLOCK
  2
*DIM_0014
 70
    65
 10
0.0
 20
0.0
  0
LINE
  8
寸法
  6
CONTINUOUS
 10
-39.717058
 20
-85.106545
 11
-39.717058
 21
-49.22389
  0
LINE
  8
寸法
  6
CONTINUOUS
 10
-93.217058
 20
-85.106545
 11
-93.217058
 21
-49.22389
  0
LINE
  8
寸法
  6
CONTINUOUS
 10
-39.717058
 20
-49.22389
 11
-93.217058
 21
-49.22389
  0
POINT
  8
寸法
 10
-39.717058
 20
-49.22389
  0
POINT
  8
寸法
 10
-93.217058
 20
-49.22389
  0
TEXT
  7
TextStyle03
  8
寸法
  6
CONTINUOUS
 10
-79.88125
 20
-48.85
  1
外形寸法　□1070
 40
3.0
 72
     5
 11
-53.06875
 21
-48.85
  0
ENDBLK
  0
BLOCK
  2
*DIM_0015
 70
    65
 10
0.0
 20
0.0
  0
LINE
  8
寸法
  6
CONTINUOUS
 10
-34.817058
 20
-91.356545
 11
-22.164135
 21
-91.356545
  0
LINE
  8
寸法
  6
CONTINUOUS
 10
-36.467058
 20
-84.056362
 11
-22.164135
 21
-84.056362
  0
LINE
  8
寸法
  6
CONTINUOUS
 10
-22.164135
 20
-91.356545
 11
-22.164135
 21
-84.056362
  0
POINT
  8
寸法
 10
-22.164135
 20
-91.356545
  0
POINT
  8
寸法
 10
-22.164135
 20
-84.056362
  0
TEXT
  7
TextStyle03
  8
寸法
  6
CONTINUOUS
 10
-22.55
 20
-90.1375
  1
146
 40
3.0
 50
90.0
 72
     5
 11
-22.55
 21
-85.2625
  0
ENDBLK
  0
BLOCK
  2
*DIM_0016
 70
    65
 10
0.0
 20
0.0
  0
LINE
  8
寸法
  6
CONTINUOUS
 10
-61.467058
 20
-71.556365
 11
-22.164135
 21
-71.556365
  0
LINE
  8
寸法
  6
CONTINUOUS
 10
-22.164135
 20
-84.056362
 11
-22.164135
 21
-71.556365
  0
POINT
  8
寸法
 10
-22.164135
 20
-71.556365
  0
TEXT
  7
TextStyle03
  8
寸法
  6
CONTINUOUS
 10
-22.55
 20
-80.2375
  1
250
 40
3.0
 50
90.0
 72
     5
 11
-22.55
 21
-75.3625
  0
ENDBLK
  0
BLOCK
  2
*GRP_0017
 70
    65
 10
0.0
 20
0.0
  0
LINE
  8
文字
  6
CONTINUOUS
 10
-6.025903
 20
29.700998
 11
-8.24783
 21
25.852503
  0
LINE
  8
文字
  6
CONTINUOUS
 10
-8.24783
 20
25.852503
 11
-3.80397
 21
25.852503
  0
LINE
  8
文字
  6
CONTINUOUS
 10
-6.025903
 20
29.700998
 11
-3.80397
 21
25.852503
  0
ENDBLK
  0
BLOCK
  2
*GRP_0018
 70
    65
 10
0.0
 20
0.0
  0
LINE
  8
文字
  6
CONTINUOUS
 10
-66.467058
 20
25.969147
 11
-68.688985
 21
22.120652
  0
LINE
  8
文字
  6
CONTINUOUS
 10
-68.688985
 20
22.120652
 11
-64.245125
 21
22.120652
  0
LINE
  8
文字
  6
CONTINUOUS
 10
-66.467058
 20
25.969147
 11
-64.245125
 21
22.120652
  0
ENDBLK
  0
BLOCK
  2
*GRP_0019
 70
    65
 10
0.0
 20
0.0
  0
LINE
  8
文字
  6
CONTINUOUS
 10
-66.467058
 20
80.012507
 11
-68.688985
 21
83.861002
  0
LINE
  8
文字
  6
CONTINUOUS
 10
-68.688985
 20
83.861002
 11
-64.245125
 21
83.861002
  0
LINE
  8
文字
  6
CONTINUOUS
 10
-66.467058
 20
80.012507
 11
-64.245125
 21
83.861002
  0
ENDBLK
  0
BLOCK
  2
*GRP_0020
 70
    65
 10
0.0
 20
0.0
  0
LINE
  8
文字
  6
CONTINUOUS
 10
-39.445377
 20
52.990827
 11
-35.596882
 21
50.7689
  0
LINE
  8
文字
  6
CONTINUOUS
 10
-35.596882
 20
50.7689
 11
-35.596882
 21
55.21276
  0
LINE
  8
文字
  6
CONTINUOUS
 10
-39.445377
 20
52.990827
 11
-35.596882
 21
55.21276
  0
ENDBLK
  0
BLOCK
  2
*GRP_0021
 70
    65
 10
0.0
 20
0.0
  0
LINE
  8
文字
  6
CONTINUOUS
 10
-93.488738
 20
52.990827
 11
-97.337233
 21
50.7689
  0
LINE
  8
文字
  6
CONTINUOUS
 10
-97.337233
 20
50.7689
 11
-97.337233
 21
55.21276
  0
LINE
  8
文字
  6
CONTINUOUS
 10
-93.488738
 20
52.990827
 11
-97.337233
 21
55.21276
  0
ENDBLK
  0
BLOCK
  2
*GRP_0022
 70
    65
 10
0.0
 20
0.0
  0
LINE
  8
文字
  6
CONTINUOUS
 10
-85.574273
 20
33.883615
 11
-89.866708
 21
32.733458
  0
LINE
  8
文字
  6
CONTINUOUS
 10
-89.866708
 20
32.733458
 11
-86.724425
 21
29.591175
  0
LINE
  8
文字
  6
CONTINUOUS
 10
-85.574273
 20
33.883615
 11
-86.724425
 21
29.591175
  0
ENDBLK
  0
BLOCK
  2
*GRP_0023
 70
    65
 10
0.0
 20
0.0
  0
LINE
  8
文字
  6
CONTINUOUS
 10
-47.359843
 20
33.883615
 11
-43.067407
 21
32.733458
  0
LINE
  8
文字
  6
CONTINUOUS
 10
-43.067407
 20
32.733458
 11
-46.20969
 21
29.591175
  0
LINE
  8
文字
  6
CONTINUOUS
 10
-47.359843
 20
33.883615
 11
-46.20969
 21
29.591175
  0
ENDBLK
  0
BLOCK
  2
*GRP_0024
 70
    65
 10
0.0
 20
0.0
  0
LINE
  8
文字
  6
CONTINUOUS
 10
-47.359843
 20
72.09804
 11
-43.067407
 21
73.248198
  0
LINE
  8
文字
  6
CONTINUOUS
 10
-43.067407
 20
73.248198
 11
-46.20969
 21
76.39048
  0
LINE
  8
文字
  6
CONTINUOUS
 10
-47.359843
 20
72.09804
 11
-46.20969
 21
76.39048
  0
ENDBLK
  0
BLOCK
  2
*GRP_0025
 70
    65
 10
0.0
 20
0.0
  0
LINE
  8
文字
  6
CONTINUOUS
 10
-85.574273
 20
72.09804
 11
-89.866708
 21
73.248198
  0
LINE
  8
文字
  6
CONTINUOUS
 10
-89.866708
 20
73.248198
 11
-86.724425
 21
76.39048
  0
LINE
  8
文字
  6
CONTINUOUS
 10
-85.574273
 20
72.09804
 11
-86.724425
 21
76.39048
  0
ENDBLK
  0
BLOCK
  2
*GRP_0026
 70
    65
 10
0.0
 20
0.0
  0
INSERT
  2
*GRP_0027
  8
補助線
  6
CONTINUOUS
 10
0.0
 20
0.0
  0
LINE
  8
ボルト／ビス
  6
CONTINUOUS
 10
-57.363525
 20
74.968698
 11
-57.187792
 21
74.739677
  0
LINE
  8
ボルト／ビス
  6
CONTINUOUS
 10
-57.363525
 20
74.968698
 11
-57.649733
 21
74.931018
  0
LINE
  8
ボルト／ビス
  6
CONTINUOUS
 10
-57.298262
 20
74.472975
 11
-57.584468
 21
74.435295
  0
LINE
  8
ボルト／ビス
  6
CONTINUOUS
 10
-57.760203
 20
74.664317
 11
-57.584468
 21
74.435295
  0
CIRCLE
  8
ボルト／ビス
  6
CONTINUOUS
 10
-57.473998
 20
74.701997
 40
0.25
  0
LINE
  8
ボルト／ビス
  6
CONTINUOUS
 10
-57.649733
 20
74.931018
 11
-57.760203
 21
74.664317
  0
LINE
  8
ボルト／ビス
  6
CONTINUOUS
 10
-57.298262
 20
74.472975
 11
-57.187792
 21
74.739677
  0
ENDBLK
  0
BLOCK
  2
*GRP_0027
 70
    65
 10
0.0
 20
0.0
  0
LINE
  8
補助線
  6
BYBLOCK
 62
     0
 10
-57.589483
 20
74.749833
 11
-57.358512
 21
74.654162
  0
LINE
  8
補助線
  6
BYBLOCK
 62
     0
 10
-57.426163
 20
74.817483
 11
-57.521832
 21
74.586513
  0
ENDBLK
  0
BLOCK
  2
*GRP_0028
 70
    65
 10
0.0
 20
0.0
  0
INSERT
  2
*GRP_0029
  8
補助線
  6
CONTINUOUS
 10
0.0
 20
0.0
  0
LINE
  8
ボルト／ビス
  6
CONTINUOUS
 10
-44.49206
 20
62.09317
 11
-44.52974
 21
61.806963
  0
LINE
  8
ボルト／ビス
  6
CONTINUOUS
 10
-44.49206
 20
62.09317
 11
-44.721083
 21
62.268902
  0
LINE
  8
ボルト／ビス
  6
CONTINUOUS
 10
-44.79644
 20
61.696493
 11
-45.025462
 21
61.872228
  0
LINE
  8
ボルト／ビス
  6
CONTINUOUS
 10
-44.987782
 20
62.158432
 11
-45.025462
 21
61.872228
  0
CIRCLE
  8
ボルト／ビス
  6
CONTINUOUS
 10
-44.75876
 20
61.982697
 40
0.25
  0
LINE
  8
ボルト／ビス
  6
CONTINUOUS
 10
-44.721083
 20
62.268902
 11
-44.987782
 21
62.158432
  0
LINE
  8
ボルト／ビス
  6
CONTINUOUS
 10
-44.79644
 20
61.696493
 11
-44.52974
 21
61.806963
  0
ENDBLK
  0
BLOCK
  2
*GRP_0029
 70
    65
 10
0.0
 20
0.0
  0
LINE
  8
補助線
  6
BYBLOCK
 62
     0
 10
-44.806598
 20
62.098183
 11
-44.710925
 21
61.867212
  0
LINE
  8
補助線
  6
BYBLOCK
 62
     0
 10
-44.643275
 20
62.030532
 11
-44.874245
 21
61.934863
  0
ENDBLK
  0
BLOCK
  2
*GRP_0030
 70
    65
 10
0.0
 20
0.0
  0
INSERT
  2
*GRP_0032
  8
補助線
  6
CONTINUOUS
 10
0.0
 20
0.0
  0
LINE
  8
ボルト／ビス
  6
CONTINUOUS
 10
-57.363525
 20
31.012958
 11
-57.187792
 21
31.241978
  0
LINE
  8
ボルト／ビス
  6
CONTINUOUS
 10
-57.363525
 20
31.012958
 11
-57.649733
 21
31.050638
  0
LINE
  8
ボルト／ビス
  6
CONTINUOUS
 10
-57.298262
 20
31.50868
 11
-57.584468
 21
31.54636
  0
LINE
  8
ボルト／ビス
  6
CONTINUOUS
 10
-57.760203
 20
31.317338
 11
-57.584468
 21
31.54636
  0
CIRCLE
  8
ボルト／ビス
  6
CONTINUOUS
 10
-57.473998
 20
31.279658
 40
0.25
  0
LINE
  8
ボルト／ビス
  6
CONTINUOUS
 10
-57.649733
 20
31.050638
 11
-57.760203
 21
31.317338
  0
LINE
  8
ボルト／ビス
  6
CONTINUOUS
 10
-57.298262
 20
31.50868
 11
-57.187792
 21
31.241978
  0
ENDBLK
  0
BLOCK
  2
*GRP_0031
 70
    65
 10
0.0
 20
0.0
  0
INSERT
  2
*GRP_0033
  8
補助線
  6
CONTINUOUS
 10
0.0
 20
0.0
  0
LINE
  8
ボルト／ビス
  6
CONTINUOUS
 10
-44.49206
 20
43.888485
 11
-44.52974
 21
44.174692
  0
LINE
  8
ボルト／ビス
  6
CONTINUOUS
 10
-44.49206
 20
43.888485
 11
-44.721083
 21
43.712752
  0
LINE
  8
ボルト／ビス
  6
CONTINUOUS
 10
-44.79644
 20
44.285162
 11
-45.025462
 21
44.109427
  0
LINE
  8
ボルト／ビス
  6
CONTINUOUS
 10
-44.987782
 20
43.823222
 11
-45.025462
 21
44.109427
  0
CIRCLE
  8
ボルト／ビス
  6
CONTINUOUS
 10
-44.75876
 20
43.998957
 40
0.25
  0
LINE
  8
ボルト／ビス
  6
CONTINUOUS
 10
-44.721083
 20
43.712752
 11
-44.987782
 21
43.823222
  0
LINE
  8
ボルト／ビス
  6
CONTINUOUS
 10
-44.79644
 20
44.285162
 11
-44.52974
 21
44.174692
  0
ENDBLK
  0
BLOCK
  2
*GRP_0032
 70
    65
 10
0.0
 20
0.0
  0
LINE
  8
補助線
  6
BYBLOCK
 62
     0
 10
-57.589483
 20
31.231823
 11
-57.358512
 21
31.327492
  0
LINE
  8
補助線
  6
BYBLOCK
 62
     0
 10
-57.426163
 20
31.164172
 11
-57.521832
 21
31.395142
  0
ENDBLK
  0
BLOCK
  2
*GRP_0033
 70
    65
 10
0.0
 20
0.0
  0
LINE
  8
補助線
  6
BYBLOCK
 62
     0
 10
-44.806598
 20
43.883473
 11
-44.710925
 21
44.114443
  0
LINE
  8
補助線
  6
BYBLOCK
 62
     0
 10
-44.643275
 20
43.951123
 11
-44.874245
 21
44.046793
  0
ENDBLK
  0
BLOCK
  2
*GRP_0034
 70
    65
 10
0.0
 20
0.0
  0
INSERT
  2
*GRP_0036
  8
補助線
  6
CONTINUOUS
 10
0.0
 20
0.0
  0
LINE
  8
ボルト／ビス
  6
CONTINUOUS
 10
-75.57059
 20
31.012958
 11
-75.746323
 21
31.241978
  0
LINE
  8
ボルト／ビス
  6
CONTINUOUS
 10
-75.57059
 20
31.012958
 11
-75.284382
 21
31.050638
  0
LINE
  8
ボルト／ビス
  6
CONTINUOUS
 10
-75.635852
 20
31.50868
 11
-75.349647
 21
31.54636
  0
LINE
  8
ボルト／ビス
  6
CONTINUOUS
 10
-75.173913
 20
31.317338
 11
-75.349647
 21
31.54636
  0
CIRCLE
  8
ボルト／ビス
  6
CONTINUOUS
 10
-75.460117
 20
31.279658
 40
0.25
  0
LINE
  8
ボルト／ビス
  6
CONTINUOUS
 10
-75.284382
 20
31.050638
 11
-75.173913
 21
31.317338
  0
LINE
  8
ボルト／ビス
  6
CONTINUOUS
 10
-75.635852
 20
31.50868
 11
-75.746323
 21
31.241978
  0
ENDBLK
  0
BLOCK
  2
*GRP_0035
 70
    65
 10
0.0
 20
0.0
  0
INSERT
  2
*GRP_0037
  8
補助線
  6
CONTINUOUS
 10
0.0
 20
0.0
  0
LINE
  8
ボルト／ビス
  6
CONTINUOUS
 10
-88.442055
 20
43.888485
 11
-88.404375
 21
44.174692
  0
LINE
  8
ボルト／ビス
  6
CONTINUOUS
 10
-88.442055
 20
43.888485
 11
-88.213033
 21
43.712752
  0
LINE
  8
ボルト／ビス
  6
CONTINUOUS
 10
-88.137675
 20
44.285162
 11
-87.908652
 21
44.109427
  0
LINE
  8
ボルト／ビス
  6
CONTINUOUS
 10
-87.946332
 20
43.823222
 11
-87.908652
 21
44.109427
  0
CIRCLE
  8
ボルト／ビス
  6
CONTINUOUS
 10
-88.175355
 20
43.998957
 40
0.25
  0
LINE
  8
ボルト／ビス
  6
CONTINUOUS
 10
-88.213033
 20
43.712752
 11
-87.946332
 21
43.823222
  0
LINE
  8
ボルト／ビス
  6
CONTINUOUS
 10
-88.137675
 20
44.285162
 11
-88.404375
 21
44.174692
  0
ENDBLK
  0
BLOCK
  2
*GRP_0036
 70
    65
 10
0.0
 20
0.0
  0
LINE
  8
補助線
  6
BYBLOCK
 62
     0
 10
-75.344632
 20
31.231823
 11
-75.575602
 21
31.327492
  0
LINE
  8
補助線
  6
BYBLOCK
 62
     0
 10
-75.507953
 20
31.164172
 11
-75.412283
 21
31.395142
  0
ENDBLK
  0
BLOCK
  2
*GRP_0037
 70
    65
 10
0.0
 20
0.0
  0
LINE
  8
補助線
  6
BYBLOCK
 62
     0
 10
-88.127517
 20
43.883473
 11
-88.22319
 21
44.114443
  0
LINE
  8
補助線
  6
BYBLOCK
 62
     0
 10
-88.29084
 20
43.951123
 11
-88.05987
 21
44.046793
  0
ENDBLK
  0
BLOCK
  2
*GRP_0038
 70
    65
 10
0.0
 20
0.0
  0
INSERT
  2
*GRP_0040
  8
補助線
  6
CONTINUOUS
 10
0.0
 20
0.0
  0
LINE
  8
ボルト／ビス
  6
CONTINUOUS
 10
-75.57059
 20
74.968698
 11
-75.746323
 21
74.739677
  0
LINE
  8
ボルト／ビス
  6
CONTINUOUS
 10
-75.57059
 20
74.968698
 11
-75.284382
 21
74.931018
  0
LINE
  8
ボルト／ビス
  6
CONTINUOUS
 10
-75.635852
 20
74.472975
 11
-75.349647
 21
74.435295
  0
LINE
  8
ボルト／ビス
  6
CONTINUOUS
 10
-75.173913
 20
74.664317
 11
-75.349647
 21
74.435295
  0
CIRCLE
  8
ボルト／ビス
  6
CONTINUOUS
 10
-75.460117
 20
74.701997
 40
0.25
  0
LINE
  8
ボルト／ビス
  6
CONTINUOUS
 10
-75.284382
 20
74.931018
 11
-75.173913
 21
74.664317
  0
LINE
  8
ボルト／ビス
  6
CONTINUOUS
 10
-75.635852
 20
74.472975
 11
-75.746323
 21
74.739677
  0
ENDBLK
  0
BLOCK
  2
*GRP_0039
 70
    65
 10
0.0
 20
0.0
  0
INSERT
  2
*GRP_0041
  8
補助線
  6
CONTINUOUS
 10
0.0
 20
0.0
  0
LINE
  8
ボルト／ビス
  6
CONTINUOUS
 10
-88.442055
 20
62.09317
 11
-88.404375
 21
61.806963
  0
LINE
  8
ボルト／ビス
  6
CONTINUOUS
 10
-88.442055
 20
62.09317
 11
-88.213033
 21
62.268902
  0
LINE
  8
ボルト／ビス
  6
CONTINUOUS
 10
-88.137675
 20
61.696493
 11
-87.908652
 21
61.872228
  0
LINE
  8
ボルト／ビス
  6
CONTINUOUS
 10
-87.946332
 20
62.158432
 11
-87.908652
 21
61.872228
  0
CIRCLE
  8
ボルト／ビス
  6
CONTINUOUS
 10
-88.175355
 20
61.982697
 40
0.25
  0
LINE
  8
ボルト／ビス
  6
CONTINUOUS
 10
-88.213033
 20
62.268902
 11
-87.946332
 21
62.158432
  0
LINE
  8
ボルト／ビス
  6
CONTINUOUS
 10
-88.137675
 20
61.696493
 11
-88.404375
 21
61.806963
  0
ENDBLK
  0
BLOCK
  2
*GRP_0040
 70
    65
 10
0.0
 20
0.0
  0
LINE
  8
補助線
  6
BYBLOCK
 62
     0
 10
-75.344632
 20
74.749833
 11
-75.575602
 21
74.654162
  0
LINE
  8
補助線
  6
BYBLOCK
 62
     0
 10
-75.507953
 20
74.817483
 11
-75.412283
 21
74.586513
  0
ENDBLK
  0
BLOCK
  2
*GRP_0041
 70
    65
 10
0.0
 20
0.0
  0
LINE
  8
補助線
  6
BYBLOCK
 62
     0
 10
-88.127517
 20
62.098183
 11
-88.22319
 21
61.867212
  0
LINE
  8
補助線
  6
BYBLOCK
 62
     0
 10
-88.29084
 20
62.030532
 11
-88.05987
 21
61.934863
  0
ENDBLK
  0
BLOCK
  2
*DIM_0042
 70
    65
 10
0.0
 20
0.0
  0
LINE
  8
寸法
  6
CONTINUOUS
 10
85.99466
 20
36.452675
 11
118.698348
 21
69.156363
  0
POINT
  8
寸法
 10
85.99466
 20
36.452675
  0
POINT
  8
寸法
 10
118.698348
 20
69.156363
  0
TEXT
  7
TextStyle03
  8
寸法
  6
CONTINUOUS
 10
105.018845
 20
55.847524
  1
φ925
 40
3.0
 50
45.0
 72
     5
 11
110.852476
 21
61.681155
  0
ENDBLK
  0
BLOCK
  2
*GRP_0043
 70
    65
 10
0.0
 20
0.0
  0
LINE
  8
ボルト／ビス
  6
CONTINUOUS
 10
-89.967058
 20
-84.056365
 11
-89.967058
 21
-83.356365
  0
LINE
  8
ボルト／ビス
  6
CONTINUOUS
 10
-90.517058
 20
-84.056365
 11
-90.517058
 21
-83.956365
  0
LINE
  8
ボルト／ビス
  6
CONTINUOUS
 10
-90.517058
 20
-83.956365
 11
-89.417058
 21
-83.956365
  0
LINE
  8
ボルト／ビス
  6
CONTINUOUS
 10
-89.417058
 20
-83.956365
 11
-89.417058
 21
-84.056365
  0
LINE
  8
ボルト／ビス
  6
CONTINUOUS
 10
-90.517058
 20
-84.056365
 11
-89.417058
 21
-84.056365
  0
LINE
  8
ボルト／ビス
  6
CONTINUOUS
 10
-90.417058
 20
-83.906365
 11
-90.417058
 21
-83.956365
  0
LINE
  8
ボルト／ビス
  6
CONTINUOUS
 10
-90.417058
 20
-83.906365
 11
-89.517058
 21
-83.906365
  0
LINE
  8
ボルト／ビス
  6
CONTINUOUS
 10
-89.517058
 20
-83.906365
 11
-89.517058
 21
-83.956365
  0
LINE
  8
ボルト／ビス
  6
CONTINUOUS
 62
    64
 10
-90.20762
 20
-83.606365
 11
-90.255732
 21
-83.623877
  0
ARC
  8
ボルト／ビス
  6
CONTINUOUS
 62
    64
 10
-90.183562
 20
-83.763833
 40
0.157468
 50
62.721967
 51
90.0
  0
ARC
  8
ボルト／ビス
  6
CONTINUOUS
 62
    64
 10
-89.967056
 20
-84.209969
 40
0.603603
 50
76.165002
 51
103.834985
  0
LINE
  8
ボルト／ビス
  6
CONTINUOUS
 62
    64
 10
-89.726495
 20
-83.606365
 11
-89.678383
 21
-83.623877
  0
ARC
  8
ボルト／ビス
  6
CONTINUOUS
 62
    64
 10
-89.75055
 20
-83.763833
 40
0.157468
 50
90.0
 51
117.278033
  0
LINE
  8
ボルト／ビス
  6
CONTINUOUS
 62
    64
 10
-90.20762
 20
-83.606365
 11
-89.726495
 21
-83.606365
  0
LINE
  8
ボルト／ビス
  6
CONTINUOUS
 62
    64
 10
-89.678383
 20
-83.623877
 11
-89.678383
 21
-83.806365
  0
LINE
  8
ボルト／ビス
  6
CONTINUOUS
 62
    64
 10
-89.82272
 20
-83.623877
 11
-89.82272
 21
-83.806365
  0
LINE
  8
ボルト／ビス
  6
CONTINUOUS
 62
    64
 10
-90.255732
 20
-83.623877
 11
-90.255732
 21
-83.806365
  0
LINE
  8
ボルト／ビス
  6
CONTINUOUS
 62
    64
 10
-90.111395
 20
-83.623877
 11
-90.111395
 21
-83.806365
  0
LINE
  8
ボルト／ビス
  6
CONTINUOUS
 10
-90.255732
 20
-83.806365
 11
-89.678383
 21
-83.806365
  0
LINE
  8
ボルト／ビス
  6
CONTINUOUS
 10
-90.267058
 20
-83.806365
 11
-90.267058
 21
-83.906365
  0
LINE
  8
ボルト／ビス
  6
CONTINUOUS
 10
-90.267058
 20
-83.806365
 11
-89.667058
 21
-83.806365
  0
LINE
  8
ボルト／ビス
  6
CONTINUOUS
 10
-89.667058
 20
-83.806365
 11
-89.667058
 21
-83.906365
  0
ENDBLK
  0
BLOCK
  2
*GRP_0044
 70
    65
 10
0.0
 20
0.0
  0
LINE
  8
ボルト／ビス
  6
CONTINUOUS
 10
-42.967058
 20
-84.056365
 11
-42.967058
 21
-83.356365
  0
LINE
  8
ボルト／ビス
  6
CONTINUOUS
 10
-43.517058
 20
-84.056365
 11
-43.517058
 21
-83.956365
  0
LINE
  8
ボルト／ビス
  6
CONTINUOUS
 10
-43.517058
 20
-83.956365
 11
-42.417058
 21
-83.956365
  0
LINE
  8
ボルト／ビス
  6
CONTINUOUS
 10
-42.417058
 20
-83.956365
 11
-42.417058
 21
-84.056365
  0
LINE
  8
ボルト／ビス
  6
CONTINUOUS
 10
-43.517058
 20
-84.056365
 11
-42.417058
 21
-84.056365
  0
LINE
  8
ボルト／ビス
  6
CONTINUOUS
 10
-43.417058
 20
-83.906365
 11
-43.417058
 21
-83.956365
  0
LINE
  8
ボルト／ビス
  6
CONTINUOUS
 10
-43.417058
 20
-83.906365
 11
-42.517058
 21
-83.906365
  0
LINE
  8
ボルト／ビス
  6
CONTINUOUS
 10
-42.517058
 20
-83.906365
 11
-42.517058
 21
-83.956365
  0
LINE
  8
ボルト／ビス
  6
CONTINUOUS
 62
    64
 10
-43.20762
 20
-83.606365
 11
-43.255732
 21
-83.623877
  0
ARC
  8
ボルト／ビス
  6
CONTINUOUS
 62
    64
 10
-43.183561
 20
-83.763832
 40
0.157468
 50
62.721967
 51
90.0
  0
ARC
  8
ボルト／ビス
  6
CONTINUOUS
 62
    64
 10
-42.967055
 20
-84.209968
 40
0.603603
 50
76.165002
 51
103.834985
  0
LINE
  8
ボルト／ビス
  6
CONTINUOUS
 62
    64
 10
-42.726495
 20
-83.606365
 11
-42.678383
 21
-83.623877
  0
ARC
  8
ボルト／ビス
  6
CONTINUOUS
 62
    64
 10
-42.750549
 20
-83.763832
 40
0.157468
 50
90.0
 51
117.278033
  0
LINE
  8
ボルト／ビス
  6
CONTINUOUS
 62
    64
 10
-43.20762
 20
-83.606365
 11
-42.726495
 21
-83.606365
  0
LINE
  8
ボルト／ビス
  6
CONTINUOUS
 62
    64
 10
-42.678383
 20
-83.623877
 11
-42.678383
 21
-83.806365
  0
LINE
  8
ボルト／ビス
  6
CONTINUOUS
 62
    64
 10
-42.82272
 20
-83.623877
 11
-42.82272
 21
-83.806365
  0
LINE
  8
ボルト／ビス
  6
CONTINUOUS
 62
    64
 10
-43.255732
 20
-83.623877
 11
-43.255732
 21
-83.806365
  0
LINE
  8
ボルト／ビス
  6
CONTINUOUS
 62
    64
 10
-43.111395
 20
-83.623877
 11
-43.111395
 21
-83.806365
  0
LINE
  8
ボルト／ビス
  6
CONTINUOUS
 10
-43.255732
 20
-83.806365
 11
-42.678383
 21
-83.806365
  0
LINE
  8
ボルト／ビス
  6
CONTINUOUS
 10
-43.267058
 20
-83.806365
 11
-43.267058
 21
-83.906365
  0
LINE
  8
ボルト／ビス
  6
CONTINUOUS
 10
-43.267058
 20
-83.806365
 11
-42.667058
 21
-83.806365
  0
LINE
  8
ボルト／ビス
  6
CONTINUOUS
 10
-42.667058
 20
-83.806365
 11
-42.667058
 21
-83.906365
  0
ENDBLK
  0
ENDSEC
  0
SECTION
  2
ENTITIES
  0
POLYLINE
  8
通り芯
  6
CONTINUOUS
 66
     1
 70
     1
  0
VERTEX
  8
通り芯
 10
-210.0
 20
-148.5
  0
VERTEX
  8
通り芯
 10
210.0
 20
-148.5
  0
VERTEX
  8
通り芯
 10
210.0
 20
148.5
  0
VERTEX
  8
通り芯
 10
-210.0
 20
148.5
  0
SEQEND
  0
INSERT
  2
*GRP_0001
  8
型材断面
  6
CONTINUOUS
 10
0.0
 20
0.0
  0
LINE
  8
型材断面
  6
CONTINUOUS
 10
-66.467058
 20
-87.056545
 11
-41.817058
 21
-87.056545
  0
LINE
  8
型材断面
  6
CONTINUOUS
 10
-66.467058
 20
-89.591543
 11
-40.717058
 21
-89.591543
  0
LINE
  8
型材断面
  6
CONTINUOUS
 10
-66.467058
 20
-88.991543
 11
-40.717058
 21
-88.991543
  0
LINE
  8
型材断面
  6
CONTINUOUS
 10
-66.467058
 20
-88.741543
 11
-42.492058
 21
-88.741543
  0
LINE
  8
型材断面
  6
CONTINUOUS
 10
-66.467058
 20
-87.056545
 11
-91.117058
 21
-87.056545
  0
LINE
  8
型材断面
  6
CONTINUOUS
 10
-66.467058
 20
-89.591543
 11
-92.217058
 21
-89.591543
  0
LINE
  8
型材断面
  6
CONTINUOUS
 10
-66.467058
 20
-88.991543
 11
-92.217058
 21
-88.991543
  0
LINE
  8
型材断面
  6
CONTINUOUS
 10
-66.467058
 20
-88.741543
 11
-90.442058
 21
-88.741543
  0
CIRCLE
  8
型材断面
  6
DASHDOT
 10
-66.467058
 20
52.990827
 40
22.5
  0
LINE
  8
型材断面
  6
DASHDOT
 10
-43.967058
 20
-95.20744
 11
-43.967058
 21
52.990827
  0
LINE
  8
型材断面
  6
DASHDOT
 10
-88.967058
 20
-95.20744
 11
-88.967058
 21
52.990827
  0
LINE
  8
型材断面
  6
DASHDOT
 10
-66.467058
 20
-95.20744
 11
-66.467058
 21
75.490827
  0
LINE
  8
型材断面
  6
DASHDOT
 10
-43.967058
 20
52.990827
 11
-88.967058
 21
52.990827
  0
LINE
  8
型材断面
  6
CONTINUOUS
 10
-6.047415
 20
36.097927
 11
-8.29086
 21
32.212168
  0
LINE
  8
型材断面
  6
CONTINUOUS
 10
-6.047415
 20
36.097927
 11
-3.80397
 21
32.212168
  0
LINE
  8
型材断面
  6
CONTINUOUS
 10
-3.80397
 20
32.212168
 11
-8.29086
 21
32.212168
  0
LINE
  8
型材断面
  6
CONTINUOUS
 10
-10.100105
 20
24.632985
 11
49.526465
 21
24.632985
  0
LINE
  8
型材断面
  6
CONTINUOUS
 10
-10.100105
 20
30.804275
 11
49.526465
 21
30.804275
  0
LINE
  8
型材断面
  6
CONTINUOUS
 10
-66.467058
 20
22.120652
 11
-68.710502
 21
18.234893
  0
LINE
  8
型材断面
  6
CONTINUOUS
 10
-66.467058
 20
22.120652
 11
-64.223613
 21
18.234893
  0
LINE
  8
型材断面
  6
CONTINUOUS
 10
-64.223613
 20
18.234893
 11
-68.710502
 21
18.234893
  0
LINE
  8
型材断面
  6
CONTINUOUS
 10
-35.596882
 20
52.990827
 11
-31.711122
 21
55.234273
  0
LINE
  8
型材断面
  6
CONTINUOUS
 10
-35.596882
 20
52.990827
 11
-31.711122
 21
50.747382
  0
LINE
  8
型材断面
  6
CONTINUOUS
 10
-31.711122
 20
50.747382
 11
-31.711122
 21
55.234273
  0
LINE
  8
型材断面
  6
CONTINUOUS
 10
-97.337233
 20
52.990827
 11
-101.222992
 21
55.234273
  0
LINE
  8
型材断面
  6
CONTINUOUS
 10
-97.337233
 20
52.990827
 11
-101.222992
 21
50.747382
  0
LINE
  8
型材断面
  6
CONTINUOUS
 10
-101.222992
 20
50.747382
 11
-101.222992
 21
55.234273
  0
LINE
  8
型材断面
  6
CONTINUOUS
 10
-66.467058
 20
83.861002
 11
-68.710502
 21
87.746762
  0
LINE
  8
型材断面
  6
CONTINUOUS
 10
-66.467058
 20
83.861002
 11
-64.223613
 21
87.746762
  0
LINE
  8
型材断面
  6
CONTINUOUS
 10
-64.223613
 20
87.746762
 11
-68.710502
 21
87.746762
  0
LINE
  8
型材断面
  6
CONTINUOUS
 10
-88.295568
 20
31.162318
 11
-89.45686
 21
26.828315
  0
LINE
  8
型材断面
  6
CONTINUOUS
 10
-88.295568
 20
31.162318
 11
-92.62957
 21
30.001028
  0
LINE
  8
型材断面
  6
CONTINUOUS
 10
-92.62957
 20
30.001028
 11
-89.45686
 21
26.828315
  0
LINE
  8
型材断面
  6
CONTINUOUS
 10
-44.638548
 20
31.162318
 11
-43.477255
 21
26.828315
  0
LINE
  8
型材断面
  6
CONTINUOUS
 10
-44.638548
 20
31.162318
 11
-40.304545
 21
30.001028
  0
LINE
  8
型材断面
  6
CONTINUOUS
 10
-40.304545
 20
30.001028
 11
-43.477255
 21
26.828315
  0
LINE
  8
型材断面
  6
CONTINUOUS
 10
-44.638548
 20
74.819338
 11
-43.477255
 21
79.15334
  0
LINE
  8
型材断面
  6
CONTINUOUS
 10
-44.638548
 20
74.819338
 11
-40.304545
 21
75.980628
  0
LINE
  8
型材断面
  6
CONTINUOUS
 10
-40.304545
 20
75.980628
 11
-43.477255
 21
79.15334
  0
LINE
  8
型材断面
  6
CONTINUOUS
 10
-88.295568
 20
74.819338
 11
-89.45686
 21
79.15334
  0
LINE
  8
型材断面
  6
CONTINUOUS
 10
-88.295568
 20
74.819338
 11
-92.62957
 21
75.980628
  0
LINE
  8
型材断面
  6
CONTINUOUS
 10
-92.62957
 20
75.980628
 11
-89.45686
 21
79.15334
  0
LINE
  8
型材断面
  6
DASHDOT
 10
125.471502
 20
52.804517
 11
79.221502
 21
52.804517
  0
LINE
  8
型材断面
  6
DASHDOT
 10
102.346502
 20
75.929517
 11
102.346502
 21
29.679517
  0
CIRCLE
  8
ガラス
  6
CONTINUOUS
 10
102.346502
 20
52.804517
 40
23.125
  0
CIRCLE
  8
ボルト／ビス
  6
CONTINUOUS
 10
-57.473998
 20
74.701997
 40
0.288675
  0
CIRCLE
  8
ボルト／ビス
  6
CONTINUOUS
 10
-57.473998
 20
74.701997
 40
0.455885
  0
CIRCLE
  8
ボルト／ビス
  6
CONTINUOUS
 10
-44.75876
 20
61.982697
 40
0.288675
  0
CIRCLE
  8
ボルト／ビス
  6
CONTINUOUS
 10
-44.75876
 20
61.982697
 40
0.455885
  0
CIRCLE
  8
ボルト／ビス
  6
CONTINUOUS
 10
-57.473998
 20
31.279658
 40
0.288675
  0
CIRCLE
  8
ボルト／ビス
  6
CONTINUOUS
 10
-57.473998
 20
31.279658
 40
0.455885
  0
CIRCLE
  8
ボルト／ビス
  6
CONTINUOUS
 10
-44.75876
 20
43.998957
 40
0.288675
  0
CIRCLE
  8
ボルト／ビス
  6
CONTINUOUS
 10
-44.75876
 20
43.998957
 40
0.455885
  0
CIRCLE
  8
ボルト／ビス
  6
CONTINUOUS
 10
-75.460117
 20
31.279658
 40
0.288675
  0
CIRCLE
  8
ボルト／ビス
  6
CONTINUOUS
 10
-75.460117
 20
31.279658
 40
0.455885
  0
CIRCLE
  8
ボルト／ビス
  6
CONTINUOUS
 10
-88.175355
 20
43.998957
 40
0.288675
  0
CIRCLE
  8
ボルト／ビス
  6
CONTINUOUS
 10
-88.175355
 20
43.998957
 40
0.455885
  0
CIRCLE
  8
ボルト／ビス
  6
CONTINUOUS
 10
-75.460117
 20
74.701997
 40
0.288675
  0
CIRCLE
  8
ボルト／ビス
  6
CONTINUOUS
 10
-75.460117
 20
74.701997
 40
0.455885
  0
CIRCLE
  8
ボルト／ビス
  6
CONTINUOUS
 10
-88.175355
 20
61.982697
 40
0.288675
  0
CIRCLE
  8
ボルト／ビス
  6
CONTINUOUS
 10
-88.175355
 20
61.982697
 40
0.455885
  0
TEXT
  7
TextStyle03
  8
文字
  6
CONTINUOUS
 10
92.975
 20
120.7
  1
シリーズ：ＴＤＲ２Ｋ
 40
5.0
 72
     5
 11
148.6
 21
120.7
  0
TEXT
  7
TextStyle03
  8
文字
  6
CONTINUOUS
 10
92.975
 20
115.075
  1
　　　　　（固定）φ900タイプ
 40
5.0
 72
     5
 11
173.9125
 21
115.075
  0
TEXT
  7
TextStyle03
  8
文字
  6
CONTINUOUS
 10
92.975
 20
109.45
  1
図面名　：外観姿図
 40
5.0
 72
     5
 11
142.975
 21
109.45
  0
TEXT
  7
TextStyle03
  8
文字
  6
CONTINUOUS
 10
92.975
 20
103.825
  1
　　　　　　
 40
5.0
 72
     5
 11
126.1
 21
103.825
  0
TEXT
  7
TextStyle03
  8
文字
  6
CONTINUOUS
 10
-1.775
 20
32.525
  1
は排水穴位置を示す
 40
3.0
 72
     5
 11
28.225
 21
32.525
  0
TEXT
  7
TextStyle03
  8
文字
  6
CONTINUOUS
 10
-1.475
 20
26.0
  1
はアンカー位置示す　数量８ヶ所
 40
3.0
 72
     5
 11
48.775
 21
26.0
  0
INSERT
  2
*GRP_0002
  8
文字
  6
CONTINUOUS
 10
0.0
 20
0.0
  0
INSERT
  2
*GRP_0003
  8
文字
  6
CONTINUOUS
 10
0.0
 20
0.0
  0
INSERT
  2
*GRP_0004
  8
文字
  6
CONTINUOUS
 10
0.0
 20
0.0
  0
INSERT
  2
*GRP_0005
  8
文字
  6
CONTINUOUS
 10
0.0
 20
0.0
  0
INSERT
  2
*GRP_0006
  8
文字
  6
CONTINUOUS
 10
0.0
 20
0.0
  0
INSERT
  2
*GRP_0007
  8
文字
  6
CONTINUOUS
 10
0.0
 20
0.0
  0
INSERT
  2
*GRP_0008
  8
文字
  6
CONTINUOUS
 10
0.0
 20
0.0
  0
INSERT
  2
*GRP_0009
  8
文字
  6
CONTINUOUS
 10
0.0
 20
0.0
  0
INSERT
  2
*GRP_0010
  8
文字
  6
CONTINUOUS
 10
0.0
 20
0.0
  0
INSERT
  2
*GRP_0026
  8
文字
  6
CONTINUOUS
 10
0.0
 20
0.0
  0
INSERT
  2
*GRP_0028
  8
文字
  6
CONTINUOUS
 10
0.0
 20
0.0
  0
INSERT
  2
*GRP_0030
  8
文字
  6
CONTINUOUS
 10
0.0
 20
0.0
  0
INSERT
  2
*GRP_0031
  8
文字
  6
CONTINUOUS
 10
0.0
 20
0.0
  0
INSERT
  2
*GRP_0034
  8
文字
  6
CONTINUOUS
 10
0.0
 20
0.0
  0
INSERT
  2
*GRP_0035
  8
文字
  6
CONTINUOUS
 10
0.0
 20
0.0
  0
INSERT
  2
*GRP_0038
  8
文字
  6
CONTINUOUS
 10
0.0
 20
0.0
  0
INSERT
  2
*GRP_0039
  8
文字
  6
CONTINUOUS
 10
0.0
 20
0.0
  0
TEXT
  7
TextStyle03
  8
文字
  6
CONTINUOUS
 10
104.85
 20
46.6
  1
網入り6.8t
 40
3.0
 72
     5
 11
121.5375
 21
46.6
  0
TEXT
  7
TextStyle03
  8
文字
  6
CONTINUOUS
 10
111.475
 20
41.35
  1
×１枚
 40
3.0
 72
     5
 11
121.225
 21
41.35
  0
INSERT
  2
*DIM_0011
  8
寸法
  6
CONTINUOUS
 10
0.0
 20
0.0
  0
INSERT
  2
*DIM_0012
  8
寸法
  6
CONTINUOUS
 10
0.0
 20
0.0
  0
INSERT
  2
*DIM_0013
  8
寸法
  6
CONTINUOUS
 10
0.0
 20
0.0
  0
INSERT
  2
*DIM_0014
  8
寸法
  6
CONTINUOUS
 10
0.0
 20
0.0
  0
INSERT
  2
*DIM_0015
  8
寸法
  6
CONTINUOUS
 10
0.0
 20
0.0
  0
INSERT
  2
*DIM_0016
  8
寸法
  6
CONTINUOUS
 10
0.0
 20
0.0
  0
INSERT
  2
*DIM_0042
  8
寸法
  6
CONTINUOUS
 10
0.0
 20
0.0
  0
LINE
  8
別途部材
  6
CONTINUOUS
 62
    96
 10
-91.467058
 20
-84.056362
 11
-92.067058
 21
-85.556362
  0
LINE
  8
別途部材
  6
CONTINUOUS
 62
    96
 10
-91.467058
 20
-84.056362
 11
-66.467058
 21
-84.056362
  0
LINE
  8
別途部材
  6
CONTINUOUS
 10
-92.067058
 20
-85.556362
 11
-66.467058
 21
-85.556362
  0
LINE
  8
別途部材
  6
CONTINUOUS
 62
    96
 10
-41.467058
 20
-84.056362
 11
-40.867058
 21
-85.556362
  0
LINE
  8
別途部材
  6
CONTINUOUS
 62
    96
 10
-41.467058
 20
-84.056362
 11
-66.467058
 21
-84.056362
  0
LINE
  8
別途部材
  6
CONTINUOUS
 10
-40.867058
 20
-85.556362
 11
-66.467058
 21
-85.556362
  0
ARC
  8
別途部材
  6
CONTINUOUS
 10
-66.467058
 20
-98.056364
 40
26.5
 50
31.890792
 51
148.109208
  0
CIRCLE
  8
別途部材
  6
CONTINUOUS
 10
-66.467058
 20
52.990827
 40
25.0
  0
CIRCLE
  8
別途部材
  6
CONTINUOUS
 10
-66.467058
 20
52.990827
 40
25.6
  0
INSERT
  2
*GRP_0043
  8
別途部材
  6
DOT
 10
0.0
 20
0.0
  0
INSERT
  2
*GRP_0044
  8
別途部材
  6
DOT
 10
0.0
 20
0.0
  0
LINE
  8
曲げ物
  6
CONTINUOUS
 62
   111
 10
-39.817058
 20
-91.356545
 11
-40.967058
 21
-91.356545
  0
LINE
  8
曲げ物
  6
CONTINUOUS
 62
   111
 10
-40.967058
 20
-91.356545
 11
-40.967058
 21
-92.006545
  0
LINE
  8
曲げ物
  6
CONTINUOUS
 62
   111
 10
-41.067058
 20
-92.006545
 11
-40.967058
 21
-92.006545
  0
LINE
  8
曲げ物
  6
CONTINUOUS
 62
   111
 10
-39.817058
 20
-90.106545
 11
-43.592058
 21
-90.106545
  0
LINE
  8
曲げ物
  6
CONTINUOUS
 10
-66.467058
 20
-90.106545
 11
-39.717058
 21
-90.106545
  0
LINE
  8
曲げ物
  6
CONTINUOUS
 62
   111
 10
-39.717058
 20
-90.106545
 11
-39.717058
 21
-91.356545
  0
LINE
  8
曲げ物
  6
CONTINUOUS
 10
-66.467058
 20
-91.356545
 11
-39.717058
 21
-91.356545
  0
LINE
  8
曲げ物
  6
CONTINUOUS
 10
-66.467058
 20
-92.006545
 11
-40.967058
 21
-92.006545
  0
LINE
  8
曲げ物
  6
CONTINUOUS
 62
   111
 10
-93.117058
 20
-91.356545
 11
-91.967058
 21
-91.356545
  0
LINE
  8
曲げ物
  6
CONTINUOUS
 62
   111
 10
-91.967058
 20
-91.356545
 11
-91.967058
 21
-92.006545
  0
LINE
  8
曲げ物
  6
CONTINUOUS
 62
   111
 10
-91.867058
 20
-92.006545
 11
-91.967058
 21
-92.006545
  0
LINE
  8
曲げ物
  6
CONTINUOUS
 62
   111
 10
-93.117058
 20
-90.106545
 11
-89.342058
 21
-90.106545
  0
LINE
  8
曲げ物
  6
CONTINUOUS
 10
-66.467058
 20
-90.106545
 11
-93.217058
 21
-90.106545
  0
LINE
  8
曲げ物
  6
CONTINUOUS
 62
   111
 10
-93.217058
 20
-90.106545
 11
-93.217058
 21
-91.356545
  0
LINE
  8
曲げ物
  6
CONTINUOUS
 10
-66.467058
 20
-91.356545
 11
-93.217058
 21
-91.356545
  0
LINE
  8
曲げ物
  6
CONTINUOUS
 10
-66.467058
 20
-92.006545
 11
-91.967058
 21
-92.006545
  0
LINE
  8
曲げ物
  6
CONTINUOUS
 10
-39.717058
 20
79.740827
 11
-93.217058
 21
79.740827
  0
LINE
  8
曲げ物
  6
CONTINUOUS
 10
-39.717058
 20
79.740827
 11
-39.717058
 21
26.240827
  0
LINE
  8
曲げ物
  6
CONTINUOUS
 10
-39.717058
 20
26.240827
 11
-93.217058
 21
26.240827
  0
LINE
  8
曲げ物
  6
CONTINUOUS
 10
-93.217058
 20
79.740827
 11
-93.217058
 21
26.240827
  0
LINE
  8
断面線01
  6
CONTINUOUS
 62
    47
 10
-40.717058
 20
-88.991543
 11
-40.717058
 21
-89.591543
  0
LINE
  8
断面線01
  6
CONTINUOUS
 62
    47
 10
-42.492058
 20
-88.741543
 11
-40.717058
 21
-88.991543
  0
LINE
  8
断面線01
  6
CONTINUOUS
 62
    47
 10
-40.717058
 20
-89.591543
 11
-41.467058
 21
-89.591543
  0
LINE
  8
断面線01
  6
CONTINUOUS
 62
    47
 10
-41.817058
 20
-87.056545
 11
-41.817058
 21
-85.556365
  0
LINE
  8
断面線01
  6
CONTINUOUS
 62
    47
 10
-42.492058
 20
-88.741543
 11
-42.492058
 21
-87.056545
  0
LINE
  8
断面線01
  6
CONTINUOUS
 62
    47
 10
-92.217058
 20
-88.991543
 11
-92.217058
 21
-89.591543
  0
LINE
  8
断面線01
  6
CONTINUOUS
 62
    47
 10
-90.442058
 20
-88.741543
 11
-92.217058
 21
-88.991543
  0
LINE
  8
断面線01
  6
CONTINUOUS
 62
    47
 10
-92.217058
 20
-89.591543
 11
-91.467058
 21
-89.591543
  0
LINE
  8
断面線01
  6
CONTINUOUS
 62
    47
 10
-91.117058
 20
-87.056545
 11
-91.117058
 21
-85.556365
  0
LINE
  8
断面線01
  6
CONTINUOUS
 62
    47
 10
-90.442058
 20
-88.741543
 11
-90.442058
 21
-87.056545
  0
LINE
  8
断面線08
  6
CONTINUOUS
 10
-40.717058
 20
-89.591543
 11
-40.717058
 21
-90.106545
  0
LINE
  8
断面線08
  6
CONTINUOUS
 10
-92.217058
 20
-89.591543
 11
-92.217058
 21
-90.106545
  0
ENDSEC
  0
EOF
