  0
SECTION
  2
HEADER
  9
$EXTMIN
 10
-210.0
 20
-148.5
  9
$EXTMAX
 10
210.0
 20
148.5
  9
$PDMODE
 70
    32
  9
$PDSIZE
 40
1.5
  9
$LTSCALE
 40
10.0
  0
ENDSEC
  0
SECTION
  2
TABLES
  0
TABLE
  2
LTYPE
 70
    15
  0
LTYPE
  2
CONTINUOUS
 70
    64
  3
実線
 72
    65
 73
     0
 40
0.0
  0
LTYPE
  2
DASHED
 70
    64
  3
破線A
 72
    65
 73
     2
 40
0.6
 49
0.4
 49
-0.2
  0
LTYPE
  2
DASHEDX2
 70
    64
  3
破線B
 72
    65
 73
     2
 40
1.3
 49
0.9
 49
-0.4
  0
LTYPE
  2
DASHDOT
 70
    64
  3
１点鎖線A
 72
    65
 73
     4
 40
0.5375
 49
0.375
 49
-0.05
 49
0.0625
 49
-0.05
  0
LTYPE
  2
DASHDOTX2
 70
    64
  3
１点鎖線B
 72
    65
 73
     4
 40
1.075
 49
0.75
 49
-0.1
 49
0.125
 49
-0.1
  0
LTYPE
  2
DIVIDE2
 70
    64
  3
２点鎖線A
 72
    65
 73
     6
 40
0.5125
 49
0.3
 49
-0.0375
 49
0.05
 49
-0.0375
 49
0.05
 49
-0.0375
  0
LTYPE
  2
DIVIDE
 70
    64
  3
２点鎖線B
 72
    65
 73
     6
 40
1.05
 49
0.55
 49
-0.1
 49
0.1
 49
-0.1
 49
0.1
 49
-0.1
  0
LTYPE
  2
DOT
 70
    64
  3
点線A
 72
    65
 73
     2
 40
0.1125
 49
0.0625
 49
-0.05
  0
LTYPE
  2
DOTX2
 70
    64
  3
点線B
 72
    65
 73
     2
 40
0.275
 49
0.15
 49
-0.125
  0
LTYPE
  2
CONTINUOUS
 70
    64
  3
実線
 72
    65
 73
     0
 40
0.0
  0
LTYPE
  2
CONTINUOUS
 70
    64
  3
実線
 72
    65
 73
     0
 40
0.0
  0
LTYPE
  2
CONTINUOUS
 70
    64
  3
実線
 72
    65
 73
     0
 40
0.0
  0
LTYPE
  2
CONTINUOUS
 70
    64
  3
実線
 72
    65
 73
     0
 40
0.0
  0
LTYPE
  2
CONTINUOUS
 70
    64
  3
実線
 72
    65
 73
     0
 40
0.0
  0
LTYPE
  2
CONTINUOUS
 70
    64
  3
実線
 72
    65
 73
     0
 40
0.0
  0
ENDTAB
  0
TABLE
  2
LAYER
 70
    43
  0
LAYER
  2
通り芯
 70
     0
 62
    15
  6
CONTINUOUS
  0
LAYER
  2
補助線
 70
     0
 62
    16
  6
DOT
  0
LAYER
  2
躯体
 70
     0
 62
    31
  6
CONTINUOUS
  0
LAYER
  2
型材
 70
     0
 62
    32
  6
CONTINUOUS
  0
LAYER
  2
型材断面
 70
     0
 62
    47
  6
CONTINUOUS
  0
LAYER
  2
ガラス
 70
     0
 62
    48
  6
CONTINUOUS
  0
LAYER
  2
ゴム等
 70
     0
 62
    63
  6
CONTINUOUS
  0
LAYER
  2
ボルト／ビス
 70
     0
 62
    64
  6
CONTINUOUS
  0
LAYER
  2
文字
 70
     0
 62
    79
  6
CONTINUOUS
  0
LAYER
  2
寸法
 70
     0
 62
    80
  6
CONTINUOUS
  0
LAYER
  2
ﾊｯﾁﾝｸﾞ
 70
     0
 62
    95
  6
CONTINUOUS
  0
LAYER
  2
別途部材
 70
     0
 62
    96
  6
CONTINUOUS
  0
LAYER
  2
曲げ物
 70
     0
 62
   111
  6
CONTINUOUS
  0
LAYER
  2
鉄骨等
 70
     0
 62
   112
  6
CONTINUOUS
  0
LAYER
  2
St
 70
     0
 62
   127
  6
CONTINUOUS
  0
LAYER
  2
その他部品等
 70
     0
 62
   128
  6
CONTINUOUS
  0
LAYER
  2
ｶﾞｽｹｯﾄ
 70
     0
 62
   143
  6
CONTINUOUS
  0
LAYER
  2
ｽｹｯﾁ
 70
     0
 62
    14
  6
CONTINUOUS
  0
LAYER
  2
0
 70
     0
 62
    17
  6
CONTINUOUS
  0
LAYER
  2
1
 70
     0
 62
    30
  6
CONTINUOUS
  0
LAYER
  2
4
 70
     0
 62
    33
  6
CONTINUOUS
  0
LAYER
  2
ﾚｲﾔ3
 70
     0
 62
    46
  6
CONTINUOUS
  0
LAYER
  2
外形線
 70
     0
 62
    49
  6
CONTINUOUS
  0
LAYER
  2
部品
 70
     0
 62
    14
  6
CONTINUOUS
  0
LAYER
  2
サッシ芯
 70
     0
 62
    17
  6
DASHDOTX2
  0
LAYER
  2
寸法線
 70
     0
 62
    62
  6
CONTINUOUS
  0
LAYER
  2
姿図外形線
 70
     0
 62
    65
  6
CONTINUOUS
  0
LAYER
  2
姿補助線
 70
     0
 62
    30
  6
CONTINUOUS
  0
LAYER
  2
透視線
 70
     0
 62
    78
  6
DOT
  0
LAYER
  2
用紙
 70
     0
 62
    81
  6
CONTINUOUS
  0
LAYER
  2
実線図枠
 70
     0
 62
    94
  6
CONTINUOUS
  0
LAYER
  2
補助図枠
 70
     0
 62
    97
  6
CONTINUOUS
  0
LAYER
  2
建具記号
 70
     0
 62
   110
  6
CONTINUOUS
  0
LAYER
  2
補助文字
 70
     0
 62
   113
  6
CONTINUOUS
  0
LAYER
  2
LAYER001
 70
     0
 62
     7
  6
CONTINUOUS
  0
LAYER
  2
LAYER010
 70
     0
 62
    11
  6
CONTINUOUS
  0
LAYER
  2
03
 70
     0
 62
     3
  6
CONTINUOUS
  0
LAYER
  2
断面線01
 70
     0
 62
     1
  6
CONTINUOUS
  0
LAYER
  2
断面線02
 70
     0
 62
     2
  6
CONTINUOUS
  0
LAYER
  2
断面線03
 70
     0
 62
     3
  6
CONTINUOUS
  0
LAYER
  2
断面線04
 70
     0
 62
     4
  6
CONTINUOUS
  0
LAYER
  2
断面線08
 70
     0
 62
    14
  6
CONTINUOUS
  0
LAYER
  2
投影線02
 70
     0
 62
    12
  6
CONTINUOUS
  0
ENDTAB
  0
TABLE
  2
STYLE
 70
    10
  0
STYLE
  2
STANDARD
 70
     0
 40
1.0
 41
1.0
 42
1.0
 50
0.0
 71
     0
  3
TXT
  4
BIGFONT
  0
STYLE
  2
TATE
 70
     4
 40
1.0
 41
1.0
 42
1.0
 50
0.0
 71
     0
  3
TXT
  4
BIGFONT
  0
STYLE
  2
TextStyle03
 70
     0
 40
1.0
 41
1.0
 42
1.0
 50
0.0
 71
     0
  3
MONOTXT
  4
BIGFONT
  0
STYLE
  2
TextStyle04
 70
     0
 40
1.0
 41
1.0
 42
1.0
 50
0.0
 71
     0
  3
MONOTXT
  4
BIGFONT
  0
STYLE
  2
TextStyle05
 70
     0
 40
1.0
 41
1.0
 42
1.0
 50
0.0
 71
     0
  3
MONOTXT
  4
BIGFONT
  0
STYLE
  2
TextStyle06
 70
     0
 40
1.0
 41
1.0
 42
1.0
 50
0.0
 71
     0
  3
MONOTXT
  4
BIGFONT
  0
STYLE
  2
TextStyle07
 70
     0
 40
1.0
 41
1.0
 42
1.0
 50
0.0
 71
     0
  3
MONOTXT
  4
BIGFONT
  0
STYLE
  2
TextStyle08
 70
     0
 40
1.0
 41
1.0
 42
1.0
 50
0.0
 71
     0
  3
MONOTXT
  4
BIGFONT
  0
STYLE
  2
TextStyle09
 70
     0
 40
1.0
 41
1.0
 42
1.0
 50
0.0
 71
     0
  3
MONOTXT
  4
BIGFONT
  0
STYLE
  2
TextStyle10
 70
     0
 40
1.0
 41
1.0
 42
1.0
 50
0.0
 71
     0
  3
MONOTXT
  4
BIGFONT
  0
ENDTAB
  0
ENDSEC
  0
SECTION
  2
BLOCKS
  0
BLOCK
  2
*HAT_0001
 70
    65
 10
0.0
 20
0.0
  0
LINE
  8
ﾊｯﾁﾝｸﾞ
 10
-45.55
 20
-35.35
 11
-44.725
 21
-34.525
  0
LINE
  8
ﾊｯﾁﾝｸﾞ
 10
-47.65
 20
-35.35
 11
-44.725
 21
-32.425
  0
LINE
  8
ﾊｯﾁﾝｸﾞ
 10
-49.825
 20
-35.35
 11
-44.725
 21
-30.325
  0
LINE
  8
ﾊｯﾁﾝｸﾞ
 10
-51.925
 20
-35.35
 11
-44.725
 21
-28.225
  0
LINE
  8
ﾊｯﾁﾝｸﾞ
 10
-54.025
 20
-35.35
 11
-44.725
 21
-26.05
  0
LINE
  8
ﾊｯﾁﾝｸﾞ
 10
-54.475
 20
-33.7
 11
-45.85
 21
-25.075
  0
LINE
  8
ﾊｯﾁﾝｸﾞ
 10
-54.475
 20
-31.6
 11
-47.95
 21
-25.075
  0
LINE
  8
ﾊｯﾁﾝｸﾞ
 10
-54.475
 20
-29.425
 11
-50.05
 21
-25.075
  0
LINE
  8
ﾊｯﾁﾝｸﾞ
 10
-54.475
 20
-27.325
 11
-52.225
 21
-25.075
  0
LINE
  8
ﾊｯﾁﾝｸﾞ
 10
-54.475
 20
-25.225
 11
-54.325
 21
-25.075
  0
LINE
  8
ﾊｯﾁﾝｸﾞ
 10
-54.475
 20
-34.525
 11
-53.65
 21
-35.35
  0
LINE
  8
ﾊｯﾁﾝｸﾞ
 10
-54.475
 20
-32.35
 11
-51.55
 21
-35.35
  0
LINE
  8
ﾊｯﾁﾝｸﾞ
 10
-54.475
 20
-30.25
 11
-49.45
 21
-35.35
  0
LINE
  8
ﾊｯﾁﾝｸﾞ
 10
-54.475
 20
-28.15
 11
-47.275
 21
-35.35
  0
LINE
  8
ﾊｯﾁﾝｸﾞ
 10
-54.475
 20
-26.05
 11
-45.175
 21
-35.35
  0
LINE
  8
ﾊｯﾁﾝｸﾞ
 10
-53.35
 20
-25.075
 11
-44.725
 21
-33.625
  0
LINE
  8
ﾊｯﾁﾝｸﾞ
 10
-51.25
 20
-25.075
 11
-44.725
 21
-31.525
  0
LINE
  8
ﾊｯﾁﾝｸﾞ
 10
-49.15
 20
-25.075
 11
-44.725
 21
-29.425
  0
LINE
  8
ﾊｯﾁﾝｸﾞ
 10
-47.05
 20
-25.075
 11
-44.8
 21
-27.325
  0
LINE
  8
ﾊｯﾁﾝｸﾞ
 10
-44.875
 20
-25.075
 11
-44.8
 21
-25.15
  0
ENDBLK
  0
BLOCK
  2
*HAT_0002
 70
    65
 10
0.0
 20
0.0
  0
LINE
  8
ﾊｯﾁﾝｸﾞ
 10
-61.975
 20
-73.625
 11
-60.475
 21
-72.05
  0
LINE
  8
ﾊｯﾁﾝｸﾞ
 10
-64.45
 20
-73.925
 11
-60.475
 21
-69.95
  0
LINE
  8
ﾊｯﾁﾝｸﾞ
 10
-66.925
 20
-74.3
 11
-60.475
 21
-67.85
  0
LINE
  8
ﾊｯﾁﾝｸﾞ
 10
-69.4
 20
-74.6
 11
-60.475
 21
-65.675
  0
LINE
  8
ﾊｯﾁﾝｸﾞ
 10
-71.875
 20
-74.975
 11
-60.475
 21
-63.575
  0
LINE
  8
ﾊｯﾁﾝｸﾞ
 10
-72.925
 20
-74.0
 11
-60.475
 21
-61.475
  0
LINE
  8
ﾊｯﾁﾝｸﾞ
 10
-72.475
 20
-71.375
 11
-61.525
 21
-60.425
  0
LINE
  8
ﾊｯﾁﾝｸﾞ
 10
-72.475
 20
-69.2
 11
-63.7
 21
-60.425
  0
LINE
  8
ﾊｯﾁﾝｸﾞ
 10
-72.475
 20
-67.1
 11
-65.8
 21
-60.425
  0
LINE
  8
ﾊｯﾁﾝｸﾞ
 10
-72.475
 20
-65.0
 11
-67.9
 21
-60.425
  0
LINE
  8
ﾊｯﾁﾝｸﾞ
 10
-72.475
 20
-62.9
 11
-70.0
 21
-60.425
  0
LINE
  8
ﾊｯﾁﾝｸﾞ
 10
-72.475
 20
-60.725
 11
-72.175
 21
-60.425
  0
LINE
  8
ﾊｯﾁﾝｸﾞ
 10
-72.925
 20
-73.7
 11
-71.65
 21
-74.9
  0
LINE
  8
ﾊｯﾁﾝｸﾞ
 10
-72.475
 20
-72.05
 11
-69.85
 21
-74.675
  0
LINE
  8
ﾊｯﾁﾝｸﾞ
 10
-72.475
 20
-69.875
 11
-67.975
 21
-74.45
  0
LINE
  8
ﾊｯﾁﾝｸﾞ
 10
-72.475
 20
-67.775
 11
-66.1
 21
-74.15
  0
LINE
  8
ﾊｯﾁﾝｸﾞ
 10
-72.475
 20
-65.675
 11
-64.225
 21
-73.925
  0
LINE
  8
ﾊｯﾁﾝｸﾞ
 10
-72.475
 20
-63.575
 11
-62.35
 21
-73.625
  0
LINE
  8
ﾊｯﾁﾝｸﾞ
 10
-72.475
 20
-61.4
 11
-60.475
 21
-73.4
  0
LINE
  8
ﾊｯﾁﾝｸﾞ
 10
-71.35
 20
-60.425
 11
-60.475
 21
-71.3
  0
LINE
  8
ﾊｯﾁﾝｸﾞ
 10
-69.25
 20
-60.425
 11
-60.475
 21
-69.2
  0
LINE
  8
ﾊｯﾁﾝｸﾞ
 10
-67.15
 20
-60.425
 11
-60.475
 21
-67.1
  0
LINE
  8
ﾊｯﾁﾝｸﾞ
 10
-64.975
 20
-60.425
 11
-60.475
 21
-64.925
  0
LINE
  8
ﾊｯﾁﾝｸﾞ
 10
-62.875
 20
-60.425
 11
-60.475
 21
-62.825
  0
LINE
  8
ﾊｯﾁﾝｸﾞ
 10
-60.775
 20
-60.425
 11
-60.475
 21
-60.725
  0
ENDBLK
  0
BLOCK
  2
*HAT_0003
 70
    65
 10
0.0
 20
0.0
  0
LINE
  8
ﾊｯﾁﾝｸﾞ
  6
DOT
 10
8.3
 20
-8.05
 11
9.425
 21
-6.925
  0
LINE
  8
ﾊｯﾁﾝｸﾞ
  6
DOT
 10
5.525
 20
-8.05
 11
9.425
 21
-4.075
  0
LINE
  8
ﾊｯﾁﾝｸﾞ
  6
DOT
 10
2.675
 20
-8.05
 11
9.425
 21
-1.225
  0
LINE
  8
ﾊｯﾁﾝｸﾞ
  6
DOT
 10
-0.1
 20
-7.9
 11
9.425
 21
1.55
  0
LINE
  8
ﾊｯﾁﾝｸﾞ
  6
DOT
 10
-0.1
 20
-5.125
 11
7.475
 21
2.45
  0
LINE
  8
ﾊｯﾁﾝｸﾞ
  6
DOT
 10
-0.1
 20
-2.275
 11
4.7
 21
2.45
  0
LINE
  8
ﾊｯﾁﾝｸﾞ
  6
DOT
 10
-0.1
 20
0.575
 11
1.85
 21
2.45
  0
ENDBLK
  0
BLOCK
  2
*HAT_0004
 70
    65
 10
0.0
 20
0.0
  0
LINE
  8
ﾊｯﾁﾝｸﾞ
 10
11.325
 20
70.625
 11
11.5
 21
70.8
  0
LINE
  8
ﾊｯﾁﾝｸﾞ
 10
9.925
 20
70.625
 11
11.5
 21
72.225
  0
LINE
  8
ﾊｯﾁﾝｸﾞ
 10
8.5
 20
70.625
 11
11.5
 21
73.625
  0
LINE
  8
ﾊｯﾁﾝｸﾞ
 10
7.1
 20
70.625
 11
11.5
 21
75.05
  0
LINE
  8
ﾊｯﾁﾝｸﾞ
 10
5.675
 20
70.625
 11
11.5
 21
76.45
  0
LINE
  8
ﾊｯﾁﾝｸﾞ
 10
4.275
 20
70.625
 11
10.275
 21
76.625
  0
LINE
  8
ﾊｯﾁﾝｸﾞ
 10
2.85
 20
70.625
 11
8.85
 21
76.625
  0
LINE
  8
ﾊｯﾁﾝｸﾞ
 10
1.45
 20
70.625
 11
7.45
 21
76.625
  0
LINE
  8
ﾊｯﾁﾝｸﾞ
 10
0.025
 20
70.625
 11
6.025
 21
76.625
  0
LINE
  8
ﾊｯﾁﾝｸﾞ
 10
-1.375
 20
70.625
 11
4.625
 21
76.625
  0
LINE
  8
ﾊｯﾁﾝｸﾞ
 10
-1.5
 20
71.925
 11
3.2
 21
76.625
  0
LINE
  8
ﾊｯﾁﾝｸﾞ
 10
-1.5
 20
73.35
 11
1.8
 21
76.625
  0
LINE
  8
ﾊｯﾁﾝｸﾞ
 10
-1.5
 20
74.75
 11
0.375
 21
76.625
  0
LINE
  8
ﾊｯﾁﾝｸﾞ
 10
-1.5
 20
76.175
 11
-1.025
 21
76.625
  0
ENDBLK
  0
BLOCK
  2
*GRP_0001
 70
    65
 10
0.0
 20
0.0
  0
LINE
  8
03
  6
DOT
 62
    47
 10
-0.98044
 20
58.848233
 11
2.61956
 21
58.848233
  0
LINE
  8
03
  6
DOT
 62
    47
 10
7.41956
 20
58.848233
 11
11.01956
 21
58.848233
  0
LINE
  8
03
  6
DOT
 62
    47
 10
8.419565
 20
57.048233
 11
7.41956
 21
57.048233
  0
LINE
  8
03
  6
DOT
 62
    47
 10
2.61956
 20
57.048233
 11
1.619563
 21
57.048233
  0
LINE
  8
03
  6
DOT
 62
    47
 10
7.41956
 20
58.848233
 11
7.41956
 21
57.048233
  0
LINE
  8
03
  6
DOT
 62
    47
 10
2.61956
 20
58.848233
 11
2.61956
 21
57.048233
  0
LINE
  8
03
  6
DOT
 62
    47
 10
8.419565
 20
56.54823
 11
6.019565
 21
54.348233
  0
LINE
  8
03
  6
DOT
 62
    47
 10
1.619563
 20
56.54823
 11
4.019563
 21
54.348233
  0
LINE
  8
03
  6
DOT
 62
    47
 10
1.619563
 20
57.048233
 11
1.619563
 21
56.54823
  0
LINE
  8
03
  6
DOT
 62
    47
 10
8.419565
 20
57.048233
 11
8.419565
 21
56.54823
  0
LINE
  8
03
  6
DOT
 62
    47
 10
6.019565
 20
54.348233
 11
4.019563
 21
54.348233
  0
ARC
  8
03
  6
DOT
 62
    47
 10
5.019554
 20
57.848223
 40
1.0
 50
0.0
 51
180.0
  0
ARC
  8
03
  6
DOT
 62
    47
 10
5.019554
 20
56.248223
 40
1.0
 50
180.0
 51
360.0
  0
LINE
  8
03
  6
DOT
 62
    47
 10
6.019565
 20
57.848235
 11
6.019565
 21
56.24823
  0
LINE
  8
03
  6
DOT
 62
    47
 10
4.019563
 20
57.848235
 11
4.019563
 21
56.24823
  0
LINE
  8
03
  6
DOT
 62
    47
 10
-0.98044
 20
61.532107
 11
1.703435
 21
58.848255
  0
LINE
  8
03
  6
DOT
 62
    47
 10
2.61956
 20
57.932107
 11
4.019563
 21
56.532105
  0
LINE
  8
03
  6
DOT
 62
    47
 10
5.27126
 20
55.28043
 11
6.115512
 21
54.436185
  0
LINE
  8
03
  6
DOT
 62
    47
 10
6.019565
 20
57.360533
 11
7.591213
 21
55.788907
  0
LINE
  8
03
  6
DOT
 62
    47
 10
11.01956
 20
58.848233
 11
11.01956
 21
63.848235
  0
LINE
  8
03
  6
DOT
 62
    47
 10
8.519563
 20
63.348233
 11
1.519565
 21
63.348233
  0
ARC
  8
03
  6
DOT
 62
    47
 10
8.519554
 20
63.848223
 40
0.5
 50
270.0
 51
360.0
  0
ARC
  8
03
  6
DOT
 62
    47
 10
1.519554
 20
63.848223
 40
0.5
 50
180.0
 51
270.0
  0
LINE
  8
03
  6
DOT
 62
    47
 10
9.019565
 20
63.848235
 11
11.01956
 21
63.848235
  0
LINE
  8
03
  6
DOT
 62
    47
 10
1.019563
 20
63.848235
 11
-0.98044
 21
63.848235
  0
LINE
  8
03
  6
DOT
 62
    47
 10
7.41956
 20
58.788983
 11
2.86031
 21
63.348233
  0
LINE
  8
03
  6
DOT
 62
    47
 10
10.18871
 20
58.848255
 11
5.68874
 21
63.348233
  0
LINE
  8
03
  6
DOT
 62
    47
 10
4.616638
 20
58.763482
 11
-0.468138
 21
63.848235
  0
LINE
  8
03
  6
DOT
 62
    47
 10
-0.98044
 20
58.848233
 11
-0.98044
 21
63.848235
  0
LINE
  8
03
  6
DOT
 62
    47
 10
11.01956
 20
60.845835
 11
8.517163
 21
63.348233
  0
ENDBLK
  0
BLOCK
  2
*GRP_0002
 70
    65
 10
0.0
 20
0.0
  0
LINE
  8
断面線01
  6
CONTINUOUS
 62
    47
 10
25.519557
 20
-10.351717
 11
3.019557
 21
-10.351717
  0
LINE
  8
断面線01
  6
CONTINUOUS
 62
    47
 10
-54.480437
 20
-12.851715
 11
-54.480437
 21
-24.851715
  0
LINE
  8
断面線01
  6
CONTINUOUS
 62
    47
 10
-37.480443
 20
-35.151765
 11
-39.480437
 21
-35.151765
  0
LINE
  8
断面線01
  6
CONTINUOUS
 62
    47
 10
-39.480437
 20
-24.851715
 11
-39.480437
 21
-35.151765
  0
LINE
  8
断面線01
  6
CONTINUOUS
 62
    47
 10
-27.98044
 20
41.84823
 11
-27.98044
 21
42.848235
  0
LINE
  8
断面線01
  6
CONTINUOUS
 62
    47
 10
-27.98044
 20
42.848235
 11
-27.480437
 21
43.34823
  0
LINE
  8
断面線01
  6
CONTINUOUS
 62
    47
 10
-27.98044
 20
48.848235
 11
-27.480437
 21
48.348233
  0
LINE
  8
断面線01
  6
CONTINUOUS
 62
    47
 10
-27.480437
 20
43.34823
 11
-27.480437
 21
48.348233
  0
LINE
  8
断面線01
  6
CONTINUOUS
 62
    47
 10
-27.98044
 20
41.84823
 11
-30.480437
 21
41.84823
  0
LINE
  8
断面線01
  6
CONTINUOUS
 62
    47
 10
-30.180437
 20
45.848235
 11
-30.480437
 21
46.148235
  0
LINE
  8
断面線01
  6
CONTINUOUS
 62
    47
 10
-30.180437
 20
45.848235
 11
-30.480437
 21
45.548235
  0
LINE
  8
断面線01
  6
CONTINUOUS
 62
    47
 10
-30.480437
 20
45.548235
 11
-30.480437
 21
41.84823
  0
LINE
  8
断面線01
  6
CONTINUOUS
 62
    47
 10
7.519557
 20
57.348233
 11
10.019563
 21
57.348233
  0
LINE
  8
断面線01
  6
CONTINUOUS
 62
    47
 10
2.519563
 20
57.348233
 11
0.019557
 21
57.348233
  0
LINE
  8
断面線01
  6
CONTINUOUS
 62
    47
 10
2.519563
 20
58.248233
 11
2.519563
 21
57.348233
  0
LINE
  8
断面線01
  6
CONTINUOUS
 62
    47
 10
1.919563
 20
58.848233
 11
2.519563
 21
58.248233
  0
LINE
  8
断面線01
  6
CONTINUOUS
 62
    47
 10
7.519557
 20
58.248233
 11
7.519557
 21
57.348233
  0
LINE
  8
断面線01
  6
CONTINUOUS
 62
    47
 10
11.519563
 20
58.848233
 11
8.119557
 21
58.848233
  0
LINE
  8
断面線01
  6
CONTINUOUS
 62
    47
 10
7.519557
 20
58.248233
 11
8.119557
 21
58.848233
  0
LINE
  8
断面線01
  6
CONTINUOUS
 62
    47
 10
0.019557
 20
53.84823
 11
10.019563
 21
53.84823
  0
LINE
  8
断面線01
  6
CONTINUOUS
 62
    47
 10
0.019557
 20
57.348233
 11
0.019557
 21
53.84823
  0
LINE
  8
断面線01
  6
CONTINUOUS
 62
    47
 10
10.019563
 20
57.348233
 11
10.019563
 21
53.84823
  0
LINE
  8
断面線01
  6
CONTINUOUS
 62
    47
 10
11.519563
 20
58.848233
 11
11.519563
 21
51.348233
  0
LINE
  8
断面線01
  6
CONTINUOUS
 62
    47
 10
-1.980437
 20
-7.85172
 11
-5.48044
 21
-7.85172
  0
LINE
  8
断面線01
  6
CONTINUOUS
 62
    47
 10
-0.280443
 20
42.348233
 11
0.019557
 21
42.648233
  0
LINE
  8
断面線01
  6
CONTINUOUS
 62
    47
 10
-0.280443
 20
42.348233
 11
0.019557
 21
42.048233
  0
LINE
  8
断面線01
  6
CONTINUOUS
 62
    47
 10
-0.280443
 20
22.348282
 11
0.019557
 21
22.648282
  0
LINE
  8
断面線01
  6
CONTINUOUS
 62
    47
 10
-0.280443
 20
22.348282
 11
0.019557
 21
22.048282
  0
LINE
  8
断面線01
  6
CONTINUOUS
 62
    47
 10
0.019557
 20
51.348233
 11
0.019557
 21
42.648233
  0
LINE
  8
断面線01
  6
CONTINUOUS
 62
    47
 10
0.019557
 20
42.048233
 11
0.019557
 21
22.648282
  0
LINE
  8
断面線01
  6
CONTINUOUS
 62
    47
 10
11.519563
 20
51.348233
 11
0.019557
 21
51.348233
  0
LINE
  8
断面線01
  6
CONTINUOUS
 62
    47
 10
24.019557
 20
-7.85172
 11
0.019557
 21
-7.85172
  0
LINE
  8
断面線01
  6
CONTINUOUS
 62
    47
 10
-18.68044
 20
-3.851715
 11
-18.98044
 21
-3.551715
  0
LINE
  8
断面線01
  6
CONTINUOUS
 62
    47
 10
-18.68044
 20
-3.851715
 11
-18.98044
 21
-4.151715
  0
LINE
  8
断面線01
  6
CONTINUOUS
 62
    47
 10
-18.98044
 20
-7.85172
 11
-18.98044
 21
-4.151715
  0
LINE
  8
断面線01
  6
CONTINUOUS
 62
    47
 10
-16.980437
 20
-7.85172
 11
-16.980437
 21
51.348233
  0
LINE
  8
断面線01
  6
CONTINUOUS
 62
    47
 10
-6.98044
 20
-7.85172
 11
-16.980437
 21
-7.85172
  0
LINE
  8
断面線01
  6
CONTINUOUS
 62
    47
 10
-18.98044
 20
-7.85172
 11
-54.480437
 21
-12.851715
  0
LINE
  8
断面線01
  6
CONTINUOUS
 62
    47
 10
1.019563
 20
-10.351717
 11
-18.80524
 21
-10.351717
  0
LINE
  8
断面線01
  6
CONTINUOUS
 62
    47
 10
-27.98044
 20
48.848235
 11
-27.98044
 21
50.055983
  0
LINE
  8
断面線01
  6
CONTINUOUS
 62
    47
 10
-27.98044
 20
50.055983
 11
-18.98044
 21
51.32358
  0
LINE
  8
断面線01
  6
CONTINUOUS
 62
    47
 10
-18.98044
 20
-3.551715
 11
-18.98044
 21
51.32358
  0
LINE
  8
断面線01
  6
CONTINUOUS
 62
    47
 10
-30.480437
 20
46.148235
 11
-30.480437
 21
52.22853
  0
LINE
  8
断面線01
  6
CONTINUOUS
 62
    47
 10
-18.98044
 20
53.84823
 11
-30.480437
 21
52.22853
  0
LINE
  8
断面線01
  6
DASHDOT
 62
    47
 10
-27.480437
 20
45.848235
 11
-30.480437
 21
45.848235
  0
LINE
  8
断面線01
  6
CONTINUOUS
 62
    47
 10
0.019557
 20
-7.85172
 11
0.019557
 21
22.048282
  0
LINE
  8
断面線01
  6
CONTINUOUS
 62
    47
 10
-8.980443
 20
57.348233
 11
-11.48044
 21
57.348233
  0
LINE
  8
断面線01
  6
CONTINUOUS
 62
    47
 10
-3.98044
 20
58.248233
 11
-3.98044
 21
57.348233
  0
LINE
  8
断面線01
  6
CONTINUOUS
 62
    47
 10
-8.980443
 20
58.248233
 11
-8.980443
 21
57.348233
  0
LINE
  8
断面線01
  6
CONTINUOUS
 62
    47
 10
-12.98044
 20
58.848233
 11
-9.580443
 21
58.848233
  0
LINE
  8
断面線01
  6
CONTINUOUS
 62
    47
 10
-8.980443
 20
58.248233
 11
-9.580443
 21
58.848233
  0
LINE
  8
断面線01
  6
CONTINUOUS
 62
    47
 10
-11.48044
 20
57.348233
 11
-11.48044
 21
53.84823
  0
LINE
  8
断面線01
  6
CONTINUOUS
 62
    47
 10
-3.98044
 20
57.348233
 11
-1.480443
 21
57.348233
  0
LINE
  8
断面線01
  6
CONTINUOUS
 62
    47
 10
-1.480443
 20
53.84823
 11
-1.480443
 21
57.348233
  0
LINE
  8
断面線01
  6
CONTINUOUS
 62
    47
 10
-3.98044
 20
58.248233
 11
-3.38044
 21
58.848233
  0
LINE
  8
断面線01
  6
CONTINUOUS
 62
    47
 10
1.919563
 20
58.848233
 11
-3.38044
 21
58.848233
  0
LINE
  8
断面線01
  6
CONTINUOUS
 62
    47
 10
-12.98044
 20
58.848233
 11
-12.98044
 21
53.84823
  0
LINE
  8
断面線01
  6
CONTINUOUS
 62
    47
 10
-1.480443
 20
53.84823
 11
-11.48044
 21
53.84823
  0
LINE
  8
断面線01
  6
CONTINUOUS
 62
    47
 10
-12.98044
 20
53.84823
 11
-18.98044
 21
53.84823
  0
LINE
  8
断面線01
  6
CONTINUOUS
 62
    47
 10
-1.980437
 20
-7.85172
 11
-1.980437
 21
51.348233
  0
LINE
  8
断面線01
  6
CONTINUOUS
 62
    47
 10
-16.980437
 20
51.348233
 11
-1.980437
 21
51.348233
  0
LINE
  8
断面線01
  6
CONTINUOUS
 62
    47
 10
-5.48044
 20
-7.85172
 11
-5.48044
 21
-6.151717
  0
LINE
  8
断面線01
  6
CONTINUOUS
 62
    47
 10
-5.48044
 20
-6.151717
 11
-6.98044
 21
-6.151717
  0
LINE
  8
断面線01
  6
CONTINUOUS
 62
    47
 10
-6.98044
 20
-7.85172
 11
-6.98044
 21
-6.151717
  0
LINE
  8
断面線01
  6
CONTINUOUS
 62
    47
 10
24.019557
 20
-7.85172
 11
24.019557
 21
-1.151768
  0
LINE
  8
断面線01
  6
CONTINUOUS
 62
    47
 10
24.019557
 20
-1.151768
 11
25.519557
 21
-1.151768
  0
LINE
  8
断面線01
  6
CONTINUOUS
 62
    47
 10
25.519557
 20
-10.351717
 11
25.519557
 21
-1.151768
  0
LINE
  8
断面線01
  6
CONTINUOUS
 62
    47
 10
-52.480443
 20
-22.85172
 11
-27.480437
 21
-22.85172
  0
LINE
  8
断面線01
  6
CONTINUOUS
 62
    47
 10
-27.480437
 20
-22.85172
 11
-27.480437
 21
-24.851715
  0
LINE
  8
断面線01
  6
CONTINUOUS
 62
    47
 10
-37.480443
 20
-35.151765
 11
-37.480443
 21
-24.851715
  0
LINE
  8
断面線01
  6
CONTINUOUS
 62
    47
 10
-54.480437
 20
-24.851715
 11
-39.480437
 21
-24.851715
  0
LINE
  8
断面線01
  6
CONTINUOUS
 62
    47
 10
-37.480443
 20
-24.851715
 11
-27.480437
 21
-24.851715
  0
LINE
  8
断面線01
  6
CONTINUOUS
 62
    47
 10
3.019557
 20
-10.351717
 11
3.019557
 21
-24.851715
  0
LINE
  8
断面線01
  6
CONTINUOUS
 62
    47
 10
-6.98044
 20
-22.85172
 11
-6.98044
 21
-24.851715
  0
LINE
  8
断面線01
  6
CONTINUOUS
 62
    47
 10
-6.98044
 20
-22.85172
 11
1.019563
 21
-22.85172
  0
LINE
  8
断面線01
  6
CONTINUOUS
 62
    47
 10
-6.98044
 20
-24.851715
 11
3.019557
 21
-24.851715
  0
LINE
  8
断面線01
  6
CONTINUOUS
 62
    47
 10
1.019563
 20
-10.351717
 11
1.019563
 21
-22.85172
  0
LINE
  8
断面線01
  6
CONTINUOUS
 62
    47
 10
-18.80524
 20
-10.351717
 11
-52.480443
 21
-15.094718
  0
LINE
  8
断面線01
  6
CONTINUOUS
 62
    47
 10
-52.480443
 20
-22.85172
 11
-52.480443
 21
-15.094718
  0
ENDBLK
  0
BLOCK
  2
*GRP_0003
 70
    65
 10
0.0
 20
0.0
  0
LINE
  8
断面線01
  6
CONTINUOUS
 62
    47
 10
11.519563
 20
76.64823
 11
-1.480443
 21
76.64823
  0
LINE
  8
断面線01
  6
CONTINUOUS
 62
    47
 10
-1.480443
 20
76.64823
 11
-1.480443
 21
77.348228
  0
LINE
  8
断面線01
  6
CONTINUOUS
 62
    47
 10
-19.480443
 20
65.84823
 11
-30.480437
 21
65.84823
  0
ARC
  8
断面線01
  6
CONTINUOUS
 62
    47
 10
-27.480477
 20
74.848302
 40
5.0
 50
90.0
 51
180.0
  0
LINE
  8
断面線01
  6
CONTINUOUS
 62
    47
 10
-17.48044
 20
67.848233
 11
-29.980443
 21
67.848233
  0
LINE
  8
断面線01
  6
CONTINUOUS
 62
    47
 10
-17.48044
 20
67.848233
 11
-17.48044
 21
53.84823
  0
LINE
  8
断面線01
  6
CONTINUOUS
 62
    47
 10
-19.480443
 20
65.84823
 11
-19.480443
 21
53.84823
  0
LINE
  8
断面線01
  6
CONTINUOUS
 62
    47
 10
-19.480443
 20
53.84823
 11
-17.48044
 21
53.84823
  0
LINE
  8
断面線01
  6
CONTINUOUS
 62
    47
 10
11.519563
 20
79.34823
 11
11.519563
 21
76.64823
  0
ARC
  8
断面線01
  6
CONTINUOUS
 62
    47
 10
11.019528
 20
79.348302
 40
0.5
 50
0.0
 51
90.0
  0
LINE
  8
断面線01
  6
CONTINUOUS
 62
    47
 10
-32.18044
 20
33.848228
 11
-32.48044
 21
34.148228
  0
LINE
  8
断面線01
  6
CONTINUOUS
 62
    47
 10
-32.18044
 20
33.848228
 11
-32.48044
 21
33.548228
  0
LINE
  8
断面線01
  6
CONTINUOUS
 62
    47
 10
-32.18044
 20
39.848228
 11
-32.48044
 21
40.148228
  0
LINE
  8
断面線01
  6
CONTINUOUS
 62
    47
 10
-32.18044
 20
39.848228
 11
-32.48044
 21
39.548228
  0
LINE
  8
断面線01
  6
CONTINUOUS
 62
    47
 10
-32.18044
 20
42.648233
 11
-32.48044
 21
42.948233
  0
LINE
  8
断面線01
  6
CONTINUOUS
 62
    47
 10
-32.18044
 20
42.648233
 11
-32.48044
 21
42.348233
  0
LINE
  8
断面線01
  6
CONTINUOUS
 62
    47
 10
-32.18044
 20
45.848228
 11
-32.48044
 21
46.148228
  0
LINE
  8
断面線01
  6
CONTINUOUS
 62
    47
 10
-32.18044
 20
45.848228
 11
-32.48044
 21
45.548228
  0
LINE
  8
断面線01
  6
CONTINUOUS
 62
    47
 10
-9.480437
 20
79.548233
 11
-9.180437
 21
79.848233
  0
LINE
  8
断面線01
  6
CONTINUOUS
 62
    47
 10
-9.480437
 20
79.548233
 11
-9.780437
 21
79.848233
  0
LINE
  8
断面線01
  6
CONTINUOUS
 62
    47
 10
-32.48044
 20
39.548228
 11
-32.48044
 21
34.148228
  0
LINE
  8
断面線01
  6
CONTINUOUS
 62
    47
 10
-32.48044
 20
42.348233
 11
-32.48044
 21
40.148228
  0
LINE
  8
断面線01
  6
CONTINUOUS
 62
    47
 10
-32.48044
 20
74.84823
 11
-32.48044
 21
46.148228
  0
LINE
  8
断面線01
  6
CONTINUOUS
 62
    47
 10
-32.48044
 20
45.548228
 11
-32.48044
 21
42.948233
  0
LINE
  8
断面線01
  6
CONTINUOUS
 62
    47
 10
-27.480437
 20
79.848233
 11
-9.780437
 21
79.848233
  0
LINE
  8
断面線01
  6
CONTINUOUS
 62
    47
 10
-9.180437
 20
79.848233
 11
11.01956
 21
79.848233
  0
LINE
  8
断面線01
  6
CONTINUOUS
 62
    47
 10
-32.48044
 20
33.548228
 11
-32.48044
 21
25.848233
  0
LINE
  8
断面線01
  6
CONTINUOUS
 62
    47
 10
-5.48044
 20
76.64823
 11
-4.780443
 21
77.348228
  0
LINE
  8
断面線01
  6
CONTINUOUS
 62
    47
 10
-1.480443
 20
77.348228
 11
-4.780443
 21
77.348228
  0
LINE
  8
断面線01
  6
CONTINUOUS
 62
    47
 10
-13.480443
 20
76.64823
 11
-14.18044
 21
77.348228
  0
LINE
  8
断面線01
  6
CONTINUOUS
 62
    47
 10
-30.98044
 20
27.848228
 11
-19.480443
 21
27.848228
  0
LINE
  8
断面線01
  6
CONTINUOUS
 62
    47
 10
-30.98044
 20
27.848228
 11
-30.98044
 21
25.848233
  0
LINE
  8
断面線01
  6
CONTINUOUS
 62
    47
 10
-32.48044
 20
25.848233
 11
-30.98044
 21
25.848233
  0
LINE
  8
断面線01
  6
CONTINUOUS
 62
    47
 10
-19.480443
 20
27.848228
 11
-19.480443
 21
31.848233
  0
LINE
  8
断面線01
  6
CONTINUOUS
 62
    47
 10
-25.64269
 20
29.84823
 11
-30.480437
 21
29.84823
  0
LINE
  8
断面線01
  6
CONTINUOUS
 62
    47
 10
-24.81814
 20
77.348228
 11
-14.18044
 21
77.348228
  0
LINE
  8
断面線01
  6
CONTINUOUS
 62
    47
 10
-29.980443
 20
72.185978
 11
-29.980443
 21
67.848233
  0
LINE
  8
断面線01
  6
CONTINUOUS
 62
    47
 10
-30.480437
 20
65.84823
 11
-30.480437
 21
60.220582
  0
LINE
  8
断面線01
  6
CONTINUOUS
 62
    47
 10
-30.480437
 20
54.47598
 11
-30.480437
 21
29.84823
  0
ARC
  8
断面線01
  6
CONTINUOUS
 62
    47
 10
-24.138197
 20
33.719622
 40
0.5
 50
30.00004
 51
131.536964
  0
LINE
  8
断面線01
  6
CONTINUOUS
 62
    47
 10
-23.577287
 20
33.74808
 11
-23.70514
 21
33.969578
  0
ARC
  8
断面線01
  6
CONTINUOUS
 62
    47
 10
-24.010323
 20
33.498137
 40
0.5
 50
312.839522
 51
390.000045
  0
ARC
  8
断面線01
  6
CONTINUOUS
 62
    47
 10
-22.480441
 20
31.8483
 40
1.75
 50
132.839522
 51
407.160342
  0
ARC
  8
断面線01
  6
CONTINUOUS
 62
    47
 10
-20.950556
 20
33.498134
 40
0.5
 50
150.000074
 51
227.160342
  0
LINE
  8
断面線01
  6
CONTINUOUS
 62
    47
 10
-21.383537
 20
33.74808
 11
-21.255692
 21
33.969578
  0
ARC
  8
断面線01
  6
CONTINUOUS
 62
    47
 10
-20.82268
 20
33.719621
 40
0.5
 50
48.463
 51
150.000119
  0
ARC
  8
断面線01
  6
CONTINUOUS
 62
    47
 10
-22.480439
 20
31.848302
 40
3.0
 50
0.0
 51
48.463
  0
ARC
  8
断面線01
  6
CONTINUOUS
 62
    47
 10
-22.480439
 20
31.848302
 40
3.0
 50
131.536964
 51
205.376934
  0
ARC
  8
断面線01
  6
CONTINUOUS
 62
    47
 10
-25.642717
 20
30.348302
 40
0.5
 50
-90.0
 51
25.376934
  0
ARC
  8
断面線01
  6
CONTINUOUS
 62
    47
 10
-25.485022
 20
75.197308
 40
0.5
 50
255.00004
 51
356.536964
  0
LINE
  8
断面線01
  6
CONTINUOUS
 62
    47
 10
-25.861442
 20
74.780482
 11
-25.614393
 21
74.71428
  0
ARC
  8
断面線01
  6
CONTINUOUS
 62
    47
 10
-25.732056
 20
75.2635
 40
0.5
 50
177.839522
 51
255.000045
  0
ARC
  8
断面線01
  6
CONTINUOUS
 62
    47
 10
-27.980457
 20
75.348322
 40
1.75
 50
357.839522
 51
632.160342
  0
ARC
  8
断面線01
  6
CONTINUOUS
 62
    47
 10
-27.89564
 20
73.099921
 40
0.5
 50
15.000074
 51
92.160342
  0
LINE
  8
断面線01
  6
CONTINUOUS
 62
    47
 10
-27.412637
 20
73.22928
 11
-27.346487
 21
72.98223
  0
ARC
  8
断面線01
  6
CONTINUOUS
 62
    47
 10
-27.829447
 20
72.852884
 40
0.5
 50
273.463
 51
375.000119
  0
ARC
  8
断面線01
  6
CONTINUOUS
 62
    47
 10
-11.138196
 20
72.97699
 40
0.5
 50
228.463036
 51
329.99996
  0
LINE
  8
断面線01
  6
CONTINUOUS
 62
    47
 10
-10.57729
 20
72.948428
 11
-10.705142
 21
72.72693
  0
ARC
  8
断面線01
  6
CONTINUOUS
 62
    47
 10
-11.010322
 20
73.198474
 40
0.5
 50
329.999955
 51
407.160478
  0
ARC
  8
断面線01
  6
CONTINUOUS
 62
    47
 10
-9.48044
 20
74.848311
 40
1.75
 50
312.839658
 51
587.160478
  0
ARC
  8
断面線01
  6
CONTINUOUS
 62
    47
 10
-7.950555
 20
73.198478
 40
0.5
 50
132.839658
 51
209.999926
  0
LINE
  8
断面線01
  6
CONTINUOUS
 62
    47
 10
-8.38354
 20
72.948428
 11
-8.255688
 21
72.72693
  0
ARC
  8
断面線01
  6
CONTINUOUS
 62
    47
 10
-7.822679
 20
72.976991
 40
0.5
 50
209.999881
 51
311.537
  0
ARC
  8
断面線01
  6
CONTINUOUS
 62
    47
 10
-26.109157
 20
59.006085
 40
0.5
 50
-59.99996
 51
41.536964
  0
LINE
  8
断面線01
  6
CONTINUOUS
 62
    47
 10
-26.080638
 20
58.44513
 11
-25.85914
 21
58.573027
  0
ARC
  8
断面線01
  6
CONTINUOUS
 62
    47
 10
-26.330641
 20
58.878211
 40
0.5
 50
222.839522
 51
300.000045
  0
ARC
  8
断面線01
  6
CONTINUOUS
 62
    47
 10
-27.980479
 20
57.348329
 40
1.75
 50
42.839522
 51
317.160342
  0
ARC
  8
断面線01
  6
CONTINUOUS
 62
    47
 10
-26.330645
 20
55.818444
 40
0.5
 50
60.000074
 51
137.160342
  0
LINE
  8
断面線01
  6
CONTINUOUS
 62
    47
 10
-26.080638
 20
56.25138
 11
-25.85914
 21
56.123527
  0
ARC
  8
断面線01
  6
CONTINUOUS
 62
    47
 10
-26.109158
 20
55.690568
 40
0.5
 50
318.463
 51
420.000119
  0
LINE
  8
断面線01
  6
CONTINUOUS
 62
    47
 10
-13.480443
 20
76.64823
 11
-12.730037
 21
76.64823
  0
ARC
  8
断面線01
  6
CONTINUOUS
 62
    47
 10
-9.480438
 20
74.84831
 40
3.0
 50
158.196392
 51
228.463036
  0
ARC
  8
断面線01
  6
CONTINUOUS
 62
    47
 10
-12.730057
 20
76.148302
 40
0.5
 50
338.196392
 51
450.0
  0
ARC
  8
断面線01
  6
CONTINUOUS
 62
    47
 10
-9.480438
 20
74.84831
 40
3.0
 50
311.537
 51
381.803608
  0
ARC
  8
断面線01
  6
CONTINUOUS
 62
    47
 10
-6.23082
 20
76.148302
 40
0.5
 50
90.0
 51
201.803608
  0
ARC
  8
断面線01
  6
CONTINUOUS
 62
    47
 10
-27.980457
 20
75.348319
 40
3.0
 50
356.536964
 51
385.37662
  0
ARC
  8
断面線01
  6
CONTINUOUS
 62
    47
 10
-24.818171
 20
76.848302
 40
0.5
 50
90.0
 51
205.37662
  0
ARC
  8
断面線01
  6
CONTINUOUS
 62
    47
 10
-27.980457
 20
75.348319
 40
3.0
 50
244.622757
 51
273.463
  0
ARC
  8
断面線01
  6
CONTINUOUS
 62
    47
 10
-29.480474
 20
72.18605
 40
0.5
 50
64.622757
 51
180.0
  0
ARC
  8
断面線01
  6
CONTINUOUS
 62
    47
 10
-27.980477
 20
57.348327
 40
3.0
 50
41.536964
 51
124.849845
  0
ARC
  8
断面線01
  6
CONTINUOUS
 62
    47
 10
-29.980474
 20
60.220611
 40
0.5
 50
180.0
 51
304.849845
  0
ARC
  8
断面線01
  6
CONTINUOUS
 62
    47
 10
-27.980477
 20
57.348327
 40
3.0
 50
235.150155
 51
318.463
  0
ARC
  8
断面線01
  6
CONTINUOUS
 62
    47
 10
-29.980474
 20
54.476044
 40
0.5
 50
55.150155
 51
180.0
  0
LINE
  8
断面線01
  6
CONTINUOUS
 62
    47
 10
-5.48044
 20
76.64823
 11
-6.230793
 21
76.64823
  0
ENDBLK
  0
BLOCK
  2
*GRP_0004
 70
    65
 10
0.0
 20
0.0
  0
POLYLINE
  8
ガラス
  6
CONTINUOUS
 62
     7
 66
     1
 70
     4
  0
VERTEX
  8
ガラス
 10
-22.1
 20
-6.525
 70
     8
  0
VERTEX
  8
ガラス
 10
-22.025
 20
-6.525
 70
     8
  0
VERTEX
  8
ガラス
 10
-21.975
 20
-6.525
 70
     8
  0
VERTEX
  8
ガラス
 10
-21.9
 20
-6.525
 70
     8
  0
VERTEX
  8
ガラス
 10
-21.825
 20
-6.5
 70
     8
  0
VERTEX
  8
ガラス
 10
-21.775
 20
-6.5
 70
     8
  0
VERTEX
  8
ガラス
 10
-21.7
 20
-6.5
 70
     8
  0
VERTEX
  8
ガラス
 10
-21.65
 20
-6.5
 70
     8
  0
VERTEX
  8
ガラス
 10
-21.575
 20
-6.5
 70
     8
  0
VERTEX
  8
ガラス
 10
-21.525
 20
-6.5
 70
     8
  0
VERTEX
  8
ガラス
 10
-21.45
 20
-6.5
 70
     8
  0
VERTEX
  8
ガラス
 10
-21.4
 20
-6.5
 70
     8
  0
VERTEX
  8
ガラス
 10
-21.325
 20
-6.5
 70
     8
  0
VERTEX
  8
ガラス
 10
-21.275
 20
-6.5
 70
     8
  0
VERTEX
  8
ガラス
 10
-21.2
 20
-6.5
 70
     8
  0
VERTEX
  8
ガラス
 10
-21.15
 20
-6.525
 70
     8
  0
VERTEX
  8
ガラス
 10
-21.1
 20
-6.525
 70
     8
  0
VERTEX
  8
ガラス
 10
-21.025
 20
-6.525
 70
     8
  0
VERTEX
  8
ガラス
 10
-20.975
 20
-6.55
 70
     8
  0
VERTEX
  8
ガラス
 10
-20.925
 20
-6.575
 70
     8
  0
VERTEX
  8
ガラス
 10
-20.875
 20
-6.575
 70
     8
  0
VERTEX
  8
ガラス
 10
-20.8
 20
-6.6
 70
     8
  0
VERTEX
  8
ガラス
 10
-20.75
 20
-6.625
 70
     8
  0
VERTEX
  8
ガラス
 10
-20.7
 20
-6.65
 70
     8
  0
VERTEX
  8
ガラス
 10
-20.65
 20
-6.7
 70
     8
  0
VERTEX
  8
ガラス
 10
-20.6
 20
-6.725
 70
     8
  0
VERTEX
  8
ガラス
 10
-20.55
 20
-6.75
 70
     8
  0
VERTEX
  8
ガラス
 10
-20.525
 20
-6.8
 70
     8
  0
VERTEX
  8
ガラス
 10
-20.475
 20
-6.825
 70
     8
  0
VERTEX
  8
ガラス
 10
-20.425
 20
-6.875
 70
     8
  0
VERTEX
  8
ガラス
 10
-20.375
 20
-6.925
 70
     8
  0
VERTEX
  8
ガラス
 10
-20.325
 20
-6.95
 70
     8
  0
VERTEX
  8
ガラス
 10
-20.275
 20
-7.0
 70
     8
  0
VERTEX
  8
ガラス
 10
-20.25
 20
-7.05
 70
     8
  0
VERTEX
  8
ガラス
 10
-20.2
 20
-7.1
 70
     8
  0
VERTEX
  8
ガラス
 10
-20.15
 20
-7.15
 70
     8
  0
VERTEX
  8
ガラス
 10
-20.125
 20
-7.2
 70
     8
  0
VERTEX
  8
ガラス
 10
-20.075
 20
-7.25
 70
     8
  0
VERTEX
  8
ガラス
 10
-20.025
 20
-7.3
 70
     8
  0
VERTEX
  8
ガラス
 10
-20.0
 20
-7.35
 70
     8
  0
VERTEX
  8
ガラス
 10
-19.95
 20
-7.4
 70
     8
  0
SEQEND
  0
POLYLINE
  8
ガラス
  6
CONTINUOUS
 62
     7
 66
     1
 70
     4
  0
VERTEX
  8
ガラス
 10
-19.95
 20
-7.4
 70
     8
  0
VERTEX
  8
ガラス
 10
-20.0
 20
-7.4
 70
     8
  0
VERTEX
  8
ガラス
 10
-20.025
 20
-7.4
 70
     8
  0
VERTEX
  8
ガラス
 10
-20.075
 20
-7.4
 70
     8
  0
VERTEX
  8
ガラス
 10
-20.125
 20
-7.4
 70
     8
  0
VERTEX
  8
ガラス
 10
-20.15
 20
-7.4
 70
     8
  0
VERTEX
  8
ガラス
 10
-20.2
 20
-7.425
 70
     8
  0
VERTEX
  8
ガラス
 10
-20.25
 20
-7.425
 70
     8
  0
VERTEX
  8
ガラス
 10
-20.3
 20
-7.425
 70
     8
  0
VERTEX
  8
ガラス
 10
-20.325
 20
-7.425
 70
     8
  0
VERTEX
  8
ガラス
 10
-20.375
 20
-7.425
 70
     8
  0
VERTEX
  8
ガラス
 10
-20.425
 20
-7.45
 70
     8
  0
VERTEX
  8
ガラス
 10
-20.45
 20
-7.45
 70
     8
  0
VERTEX
  8
ガラス
 10
-20.5
 20
-7.45
 70
     8
  0
VERTEX
  8
ガラス
 10
-20.55
 20
-7.45
 70
     8
  0
VERTEX
  8
ガラス
 10
-20.6
 20
-7.475
 70
     8
  0
VERTEX
  8
ガラス
 10
-20.625
 20
-7.475
 70
     8
  0
VERTEX
  8
ガラス
 10
-20.675
 20
-7.475
 70
     8
  0
VERTEX
  8
ガラス
 10
-20.725
 20
-7.475
 70
     8
  0
VERTEX
  8
ガラス
 10
-20.75
 20
-7.5
 70
     8
  0
VERTEX
  8
ガラス
 10
-20.8
 20
-7.5
 70
     8
  0
VERTEX
  8
ガラス
 10
-20.85
 20
-7.525
 70
     8
  0
VERTEX
  8
ガラス
 10
-20.875
 20
-7.525
 70
     8
  0
VERTEX
  8
ガラス
 10
-20.925
 20
-7.525
 70
     8
  0
VERTEX
  8
ガラス
 10
-20.975
 20
-7.55
 70
     8
  0
VERTEX
  8
ガラス
 10
-21.0
 20
-7.55
 70
     8
  0
VERTEX
  8
ガラス
 10
-21.05
 20
-7.575
 70
     8
  0
VERTEX
  8
ガラス
 10
-21.075
 20
-7.575
 70
     8
  0
VERTEX
  8
ガラス
 10
-21.125
 20
-7.6
 70
     8
  0
VERTEX
  8
ガラス
 10
-21.175
 20
-7.6
 70
     8
  0
VERTEX
  8
ガラス
 10
-21.2
 20
-7.625
 70
     8
  0
VERTEX
  8
ガラス
 10
-21.25
 20
-7.65
 70
     8
  0
VERTEX
  8
ガラス
 10
-21.3
 20
-7.65
 70
     8
  0
VERTEX
  8
ガラス
 10
-21.325
 20
-7.675
 70
     8
  0
VERTEX
  8
ガラス
 10
-21.375
 20
-7.675
 70
     8
  0
VERTEX
  8
ガラス
 10
-21.4
 20
-7.7
 70
     8
  0
VERTEX
  8
ガラス
 10
-21.45
 20
-7.725
 70
     8
  0
VERTEX
  8
ガラス
 10
-21.5
 20
-7.725
 70
     8
  0
VERTEX
  8
ガラス
 10
-21.525
 20
-7.75
 70
     8
  0
VERTEX
  8
ガラス
 10
-21.575
 20
-7.75
 70
     8
  0
VERTEX
  8
ガラス
 10
-21.6
 20
-7.775
 70
     8
  0
SEQEND
  0
ARC
  8
ガラス
  6
CONTINUOUS
 62
     7
 10
-21.839252
 20
-7.142137
 40
0.668594
 50
111.203091
 51
291.203091
  0
ENDBLK
  0
BLOCK
  2
*GRP_0005
 70
    65
 10
0.0
 20
0.0
  0
POLYLINE
  8
ガラス
  6
CONTINUOUS
 62
     7
 66
     1
 70
     4
  0
VERTEX
  8
ガラス
 10
-32.325
 20
-8.1
 70
     8
  0
VERTEX
  8
ガラス
 10
-32.25
 20
-8.1
 70
     8
  0
VERTEX
  8
ガラス
 10
-32.2
 20
-8.075
 70
     8
  0
VERTEX
  8
ガラス
 10
-32.125
 20
-8.075
 70
     8
  0
VERTEX
  8
ガラス
 10
-32.075
 20
-8.075
 70
     8
  0
VERTEX
  8
ガラス
 10
-32.0
 20
-8.075
 70
     8
  0
VERTEX
  8
ガラス
 10
-31.925
 20
-8.075
 70
     8
  0
VERTEX
  8
ガラス
 10
-31.875
 20
-8.05
 70
     8
  0
VERTEX
  8
ガラス
 10
-31.8
 20
-8.05
 70
     8
  0
VERTEX
  8
ガラス
 10
-31.75
 20
-8.05
 70
     8
  0
VERTEX
  8
ガラス
 10
-31.675
 20
-8.05
 70
     8
  0
VERTEX
  8
ガラス
 10
-31.625
 20
-8.05
 70
     8
  0
VERTEX
  8
ガラス
 10
-31.55
 20
-8.05
 70
     8
  0
VERTEX
  8
ガラス
 10
-31.5
 20
-8.075
 70
     8
  0
VERTEX
  8
ガラス
 10
-31.425
 20
-8.075
 70
     8
  0
VERTEX
  8
ガラス
 10
-31.375
 20
-8.075
 70
     8
  0
VERTEX
  8
ガラス
 10
-31.325
 20
-8.1
 70
     8
  0
VERTEX
  8
ガラス
 10
-31.25
 20
-8.1
 70
     8
  0
VERTEX
  8
ガラス
 10
-31.2
 20
-8.125
 70
     8
  0
VERTEX
  8
ガラス
 10
-31.15
 20
-8.125
 70
     8
  0
VERTEX
  8
ガラス
 10
-31.1
 20
-8.15
 70
     8
  0
VERTEX
  8
ガラス
 10
-31.05
 20
-8.175
 70
     8
  0
VERTEX
  8
ガラス
 10
-31.0
 20
-8.2
 70
     8
  0
VERTEX
  8
ガラス
 10
-30.925
 20
-8.225
 70
     8
  0
VERTEX
  8
ガラス
 10
-30.875
 20
-8.25
 70
     8
  0
VERTEX
  8
ガラス
 10
-30.825
 20
-8.3
 70
     8
  0
VERTEX
  8
ガラス
 10
-30.8
 20
-8.325
 70
     8
  0
VERTEX
  8
ガラス
 10
-30.75
 20
-8.35
 70
     8
  0
VERTEX
  8
ガラス
 10
-30.7
 20
-8.4
 70
     8
  0
VERTEX
  8
ガラス
 10
-30.65
 20
-8.45
 70
     8
  0
VERTEX
  8
ガラス
 10
-30.6
 20
-8.475
 70
     8
  0
VERTEX
  8
ガラス
 10
-30.55
 20
-8.525
 70
     8
  0
VERTEX
  8
ガラス
 10
-30.525
 20
-8.575
 70
     8
  0
VERTEX
  8
ガラス
 10
-30.475
 20
-8.625
 70
     8
  0
VERTEX
  8
ガラス
 10
-30.425
 20
-8.65
 70
     8
  0
VERTEX
  8
ガラス
 10
-30.375
 20
-8.7
 70
     8
  0
VERTEX
  8
ガラス
 10
-30.35
 20
-8.75
 70
     8
  0
VERTEX
  8
ガラス
 10
-30.3
 20
-8.8
 70
     8
  0
VERTEX
  8
ガラス
 10
-30.25
 20
-8.85
 70
     8
  0
VERTEX
  8
ガラス
 10
-30.225
 20
-8.9
 70
     8
  0
VERTEX
  8
ガラス
 10
-30.175
 20
-8.95
 70
     8
  0
SEQEND
  0
POLYLINE
  8
ガラス
  6
CONTINUOUS
 62
     7
 66
     1
 70
     4
  0
VERTEX
  8
ガラス
 10
-30.175
 20
-8.95
 70
     8
  0
VERTEX
  8
ガラス
 10
-30.225
 20
-8.95
 70
     8
  0
VERTEX
  8
ガラス
 10
-30.25
 20
-8.975
 70
     8
  0
VERTEX
  8
ガラス
 10
-30.3
 20
-8.975
 70
     8
  0
VERTEX
  8
ガラス
 10
-30.35
 20
-8.975
 70
     8
  0
VERTEX
  8
ガラス
 10
-30.4
 20
-8.975
 70
     8
  0
VERTEX
  8
ガラス
 10
-30.425
 20
-8.975
 70
     8
  0
VERTEX
  8
ガラス
 10
-30.475
 20
-8.975
 70
     8
  0
VERTEX
  8
ガラス
 10
-30.525
 20
-9.0
 70
     8
  0
VERTEX
  8
ガラス
 10
-30.55
 20
-9.0
 70
     8
  0
VERTEX
  8
ガラス
 10
-30.6
 20
-9.0
 70
     8
  0
VERTEX
  8
ガラス
 10
-30.65
 20
-9.0
 70
     8
  0
VERTEX
  8
ガラス
 10
-30.7
 20
-9.0
 70
     8
  0
VERTEX
  8
ガラス
 10
-30.725
 20
-9.025
 70
     8
  0
VERTEX
  8
ガラス
 10
-30.775
 20
-9.025
 70
     8
  0
VERTEX
  8
ガラス
 10
-30.825
 20
-9.025
 70
     8
  0
VERTEX
  8
ガラス
 10
-30.85
 20
-9.025
 70
     8
  0
VERTEX
  8
ガラス
 10
-30.9
 20
-9.05
 70
     8
  0
VERTEX
  8
ガラス
 10
-30.95
 20
-9.05
 70
     8
  0
VERTEX
  8
ガラス
 10
-30.975
 20
-9.05
 70
     8
  0
VERTEX
  8
ガラス
 10
-31.025
 20
-9.075
 70
     8
  0
VERTEX
  8
ガラス
 10
-31.075
 20
-9.075
 70
     8
  0
VERTEX
  8
ガラス
 10
-31.1
 20
-9.1
 70
     8
  0
VERTEX
  8
ガラス
 10
-31.15
 20
-9.1
 70
     8
  0
VERTEX
  8
ガラス
 10
-31.2
 20
-9.1
 70
     8
  0
VERTEX
  8
ガラス
 10
-31.225
 20
-9.125
 70
     8
  0
VERTEX
  8
ガラス
 10
-31.275
 20
-9.125
 70
     8
  0
VERTEX
  8
ガラス
 10
-31.325
 20
-9.15
 70
     8
  0
VERTEX
  8
ガラス
 10
-31.35
 20
-9.175
 70
     8
  0
VERTEX
  8
ガラス
 10
-31.4
 20
-9.175
 70
     8
  0
VERTEX
  8
ガラス
 10
-31.425
 20
-9.2
 70
     8
  0
VERTEX
  8
ガラス
 10
-31.475
 20
-9.2
 70
     8
  0
VERTEX
  8
ガラス
 10
-31.525
 20
-9.225
 70
     8
  0
VERTEX
  8
ガラス
 10
-31.55
 20
-9.225
 70
     8
  0
VERTEX
  8
ガラス
 10
-31.6
 20
-9.25
 70
     8
  0
VERTEX
  8
ガラス
 10
-31.65
 20
-9.275
 70
     8
  0
VERTEX
  8
ガラス
 10
-31.675
 20
-9.275
 70
     8
  0
VERTEX
  8
ガラス
 10
-31.725
 20
-9.3
 70
     8
  0
VERTEX
  8
ガラス
 10
-31.75
 20
-9.3
 70
     8
  0
VERTEX
  8
ガラス
 10
-31.8
 20
-9.325
 70
     8
  0
VERTEX
  8
ガラス
 10
-31.85
 20
-9.35
 70
     8
  0
SEQEND
  0
ARC
  8
ガラス
  6
CONTINUOUS
 62
     7
 10
-32.06844
 20
-8.707932
 40
0.668594
 50
111.203091
 51
291.203091
  0
ENDBLK
  0
BLOCK
  2
*GRP_0006
 70
    65
 10
0.0
 20
0.0
  0
POLYLINE
  8
ガラス
  6
CONTINUOUS
 62
     7
 66
     1
 70
     4
  0
VERTEX
  8
ガラス
 10
-13.4
 20
-6.25
 70
     8
  0
VERTEX
  8
ガラス
 10
-13.325
 20
-6.25
 70
     8
  0
VERTEX
  8
ガラス
 10
-13.25
 20
-6.25
 70
     8
  0
VERTEX
  8
ガラス
 10
-13.2
 20
-6.225
 70
     8
  0
VERTEX
  8
ガラス
 10
-13.125
 20
-6.225
 70
     8
  0
VERTEX
  8
ガラス
 10
-13.075
 20
-6.225
 70
     8
  0
VERTEX
  8
ガラス
 10
-13.0
 20
-6.225
 70
     8
  0
VERTEX
  8
ガラス
 10
-12.925
 20
-6.225
 70
     8
  0
VERTEX
  8
ガラス
 10
-12.875
 20
-6.2
 70
     8
  0
VERTEX
  8
ガラス
 10
-12.8
 20
-6.2
 70
     8
  0
VERTEX
  8
ガラス
 10
-12.75
 20
-6.2
 70
     8
  0
VERTEX
  8
ガラス
 10
-12.675
 20
-6.2
 70
     8
  0
VERTEX
  8
ガラス
 10
-12.625
 20
-6.225
 70
     8
  0
VERTEX
  8
ガラス
 10
-12.55
 20
-6.225
 70
     8
  0
VERTEX
  8
ガラス
 10
-12.5
 20
-6.225
 70
     8
  0
VERTEX
  8
ガラス
 10
-12.45
 20
-6.225
 70
     8
  0
VERTEX
  8
ガラス
 10
-12.375
 20
-6.25
 70
     8
  0
VERTEX
  8
ガラス
 10
-12.325
 20
-6.25
 70
     8
  0
VERTEX
  8
ガラス
 10
-12.275
 20
-6.275
 70
     8
  0
VERTEX
  8
ガラス
 10
-12.225
 20
-6.275
 70
     8
  0
VERTEX
  8
ガラス
 10
-12.15
 20
-6.3
 70
     8
  0
VERTEX
  8
ガラス
 10
-12.1
 20
-6.325
 70
     8
  0
VERTEX
  8
ガラス
 10
-12.05
 20
-6.35
 70
     8
  0
VERTEX
  8
ガラス
 10
-12.0
 20
-6.375
 70
     8
  0
VERTEX
  8
ガラス
 10
-11.95
 20
-6.4
 70
     8
  0
VERTEX
  8
ガラス
 10
-11.9
 20
-6.45
 70
     8
  0
VERTEX
  8
ガラス
 10
-11.85
 20
-6.475
 70
     8
  0
VERTEX
  8
ガラス
 10
-11.8
 20
-6.525
 70
     8
  0
VERTEX
  8
ガラス
 10
-11.75
 20
-6.55
 70
     8
  0
VERTEX
  8
ガラス
 10
-11.725
 20
-6.6
 70
     8
  0
VERTEX
  8
ガラス
 10
-11.675
 20
-6.625
 70
     8
  0
VERTEX
  8
ガラス
 10
-11.625
 20
-6.675
 70
     8
  0
VERTEX
  8
ガラス
 10
-11.575
 20
-6.725
 70
     8
  0
VERTEX
  8
ガラス
 10
-11.525
 20
-6.775
 70
     8
  0
VERTEX
  8
ガラス
 10
-11.5
 20
-6.825
 70
     8
  0
VERTEX
  8
ガラス
 10
-11.45
 20
-6.85
 70
     8
  0
VERTEX
  8
ガラス
 10
-11.4
 20
-6.9
 70
     8
  0
VERTEX
  8
ガラス
 10
-11.375
 20
-6.95
 70
     8
  0
VERTEX
  8
ガラス
 10
-11.325
 20
-7.0
 70
     8
  0
VERTEX
  8
ガラス
 10
-11.275
 20
-7.05
 70
     8
  0
VERTEX
  8
ガラス
 10
-11.25
 20
-7.1
 70
     8
  0
SEQEND
  0
POLYLINE
  8
ガラス
  6
CONTINUOUS
 62
     7
 66
     1
 70
     4
  0
VERTEX
  8
ガラス
 10
-11.25
 20
-7.1
 70
     8
  0
VERTEX
  8
ガラス
 10
-11.275
 20
-7.1
 70
     8
  0
VERTEX
  8
ガラス
 10
-11.325
 20
-7.125
 70
     8
  0
VERTEX
  8
ガラス
 10
-11.375
 20
-7.125
 70
     8
  0
VERTEX
  8
ガラス
 10
-11.425
 20
-7.125
 70
     8
  0
VERTEX
  8
ガラス
 10
-11.45
 20
-7.125
 70
     8
  0
VERTEX
  8
ガラス
 10
-11.5
 20
-7.125
 70
     8
  0
VERTEX
  8
ガラス
 10
-11.55
 20
-7.125
 70
     8
  0
VERTEX
  8
ガラス
 10
-11.575
 20
-7.15
 70
     8
  0
VERTEX
  8
ガラス
 10
-11.625
 20
-7.15
 70
     8
  0
VERTEX
  8
ガラス
 10
-11.675
 20
-7.15
 70
     8
  0
VERTEX
  8
ガラス
 10
-11.7
 20
-7.15
 70
     8
  0
VERTEX
  8
ガラス
 10
-11.75
 20
-7.175
 70
     8
  0
VERTEX
  8
ガラス
 10
-11.8
 20
-7.175
 70
     8
  0
VERTEX
  8
ガラス
 10
-11.85
 20
-7.175
 70
     8
  0
VERTEX
  8
ガラス
 10
-11.875
 20
-7.175
 70
     8
  0
VERTEX
  8
ガラス
 10
-11.925
 20
-7.2
 70
     8
  0
VERTEX
  8
ガラス
 10
-11.975
 20
-7.2
 70
     8
  0
VERTEX
  8
ガラス
 10
-12.0
 20
-7.2
 70
     8
  0
VERTEX
  8
ガラス
 10
-12.05
 20
-7.225
 70
     8
  0
VERTEX
  8
ガラス
 10
-12.1
 20
-7.225
 70
     8
  0
VERTEX
  8
ガラス
 10
-12.125
 20
-7.225
 70
     8
  0
VERTEX
  8
ガラス
 10
-12.175
 20
-7.25
 70
     8
  0
VERTEX
  8
ガラス
 10
-12.225
 20
-7.25
 70
     8
  0
VERTEX
  8
ガラス
 10
-12.25
 20
-7.275
 70
     8
  0
VERTEX
  8
ガラス
 10
-12.3
 20
-7.275
 70
     8
  0
VERTEX
  8
ガラス
 10
-12.35
 20
-7.3
 70
     8
  0
VERTEX
  8
ガラス
 10
-12.375
 20
-7.3
 70
     8
  0
VERTEX
  8
ガラス
 10
-12.425
 20
-7.325
 70
     8
  0
VERTEX
  8
ガラス
 10
-12.45
 20
-7.325
 70
     8
  0
VERTEX
  8
ガラス
 10
-12.5
 20
-7.35
 70
     8
  0
VERTEX
  8
ガラス
 10
-12.55
 20
-7.35
 70
     8
  0
VERTEX
  8
ガラス
 10
-12.575
 20
-7.375
 70
     8
  0
VERTEX
  8
ガラス
 10
-12.625
 20
-7.4
 70
     8
  0
VERTEX
  8
ガラス
 10
-12.675
 20
-7.4
 70
     8
  0
VERTEX
  8
ガラス
 10
-12.7
 20
-7.425
 70
     8
  0
VERTEX
  8
ガラス
 10
-12.75
 20
-7.425
 70
     8
  0
VERTEX
  8
ガラス
 10
-12.775
 20
-7.45
 70
     8
  0
VERTEX
  8
ガラス
 10
-12.825
 20
-7.475
 70
     8
  0
VERTEX
  8
ガラス
 10
-12.875
 20
-7.475
 70
     8
  0
VERTEX
  8
ガラス
 10
-12.9
 20
-7.5
 70
     8
  0
SEQEND
  0
ARC
  8
ガラス
  6
CONTINUOUS
 62
     7
 10
-13.133892
 20
-6.861467
 40
0.668594
 50
111.203091
 51
291.203091
  0
ENDBLK
  0
BLOCK
  2
*GRP_0007
 70
    65
 10
0.0
 20
0.0
  0
POLYLINE
  8
ガラス
  6
CONTINUOUS
 62
     7
 66
     1
 70
     4
  0
VERTEX
  8
ガラス
 10
-5.35
 20
-6.25
 70
     8
  0
VERTEX
  8
ガラス
 10
-5.275
 20
-6.25
 70
     8
  0
VERTEX
  8
ガラス
 10
-5.2
 20
-6.25
 70
     8
  0
VERTEX
  8
ガラス
 10
-5.15
 20
-6.225
 70
     8
  0
VERTEX
  8
ガラス
 10
-5.075
 20
-6.225
 70
     8
  0
VERTEX
  8
ガラス
 10
-5.025
 20
-6.225
 70
     8
  0
VERTEX
  8
ガラス
 10
-4.95
 20
-6.225
 70
     8
  0
VERTEX
  8
ガラス
 10
-4.875
 20
-6.225
 70
     8
  0
VERTEX
  8
ガラス
 10
-4.825
 20
-6.2
 70
     8
  0
VERTEX
  8
ガラス
 10
-4.75
 20
-6.2
 70
     8
  0
VERTEX
  8
ガラス
 10
-4.7
 20
-6.2
 70
     8
  0
VERTEX
  8
ガラス
 10
-4.625
 20
-6.2
 70
     8
  0
VERTEX
  8
ガラス
 10
-4.575
 20
-6.225
 70
     8
  0
VERTEX
  8
ガラス
 10
-4.5
 20
-6.225
 70
     8
  0
VERTEX
  8
ガラス
 10
-4.45
 20
-6.225
 70
     8
  0
VERTEX
  8
ガラス
 10
-4.4
 20
-6.225
 70
     8
  0
VERTEX
  8
ガラス
 10
-4.325
 20
-6.25
 70
     8
  0
VERTEX
  8
ガラス
 10
-4.275
 20
-6.25
 70
     8
  0
VERTEX
  8
ガラス
 10
-4.225
 20
-6.275
 70
     8
  0
VERTEX
  8
ガラス
 10
-4.175
 20
-6.275
 70
     8
  0
VERTEX
  8
ガラス
 10
-4.1
 20
-6.3
 70
     8
  0
VERTEX
  8
ガラス
 10
-4.05
 20
-6.325
 70
     8
  0
VERTEX
  8
ガラス
 10
-4.0
 20
-6.35
 70
     8
  0
VERTEX
  8
ガラス
 10
-3.95
 20
-6.375
 70
     8
  0
VERTEX
  8
ガラス
 10
-3.9
 20
-6.4
 70
     8
  0
VERTEX
  8
ガラス
 10
-3.85
 20
-6.45
 70
     8
  0
VERTEX
  8
ガラス
 10
-3.8
 20
-6.475
 70
     8
  0
VERTEX
  8
ガラス
 10
-3.75
 20
-6.525
 70
     8
  0
VERTEX
  8
ガラス
 10
-3.7
 20
-6.55
 70
     8
  0
VERTEX
  8
ガラス
 10
-3.675
 20
-6.6
 70
     8
  0
VERTEX
  8
ガラス
 10
-3.625
 20
-6.625
 70
     8
  0
VERTEX
  8
ガラス
 10
-3.575
 20
-6.675
 70
     8
  0
VERTEX
  8
ガラス
 10
-3.525
 20
-6.725
 70
     8
  0
VERTEX
  8
ガラス
 10
-3.475
 20
-6.775
 70
     8
  0
VERTEX
  8
ガラス
 10
-3.45
 20
-6.825
 70
     8
  0
VERTEX
  8
ガラス
 10
-3.4
 20
-6.85
 70
     8
  0
VERTEX
  8
ガラス
 10
-3.35
 20
-6.9
 70
     8
  0
VERTEX
  8
ガラス
 10
-3.325
 20
-6.95
 70
     8
  0
VERTEX
  8
ガラス
 10
-3.275
 20
-7.0
 70
     8
  0
VERTEX
  8
ガラス
 10
-3.225
 20
-7.05
 70
     8
  0
VERTEX
  8
ガラス
 10
-3.2
 20
-7.1
 70
     8
  0
SEQEND
  0
POLYLINE
  8
ガラス
  6
CONTINUOUS
 62
     7
 66
     1
 70
     4
  0
VERTEX
  8
ガラス
 10
-3.2
 20
-7.1
 70
     8
  0
VERTEX
  8
ガラス
 10
-3.225
 20
-7.1
 70
     8
  0
VERTEX
  8
ガラス
 10
-3.275
 20
-7.125
 70
     8
  0
VERTEX
  8
ガラス
 10
-3.325
 20
-7.125
 70
     8
  0
VERTEX
  8
ガラス
 10
-3.375
 20
-7.125
 70
     8
  0
VERTEX
  8
ガラス
 10
-3.4
 20
-7.125
 70
     8
  0
VERTEX
  8
ガラス
 10
-3.45
 20
-7.125
 70
     8
  0
VERTEX
  8
ガラス
 10
-3.5
 20
-7.125
 70
     8
  0
VERTEX
  8
ガラス
 10
-3.525
 20
-7.15
 70
     8
  0
VERTEX
  8
ガラス
 10
-3.575
 20
-7.15
 70
     8
  0
VERTEX
  8
ガラス
 10
-3.625
 20
-7.15
 70
     8
  0
VERTEX
  8
ガラス
 10
-3.675
 20
-7.15
 70
     8
  0
VERTEX
  8
ガラス
 10
-3.7
 20
-7.175
 70
     8
  0
VERTEX
  8
ガラス
 10
-3.75
 20
-7.175
 70
     8
  0
VERTEX
  8
ガラス
 10
-3.8
 20
-7.175
 70
     8
  0
VERTEX
  8
ガラス
 10
-3.825
 20
-7.175
 70
     8
  0
VERTEX
  8
ガラス
 10
-3.875
 20
-7.2
 70
     8
  0
VERTEX
  8
ガラス
 10
-3.925
 20
-7.2
 70
     8
  0
VERTEX
  8
ガラス
 10
-3.95
 20
-7.2
 70
     8
  0
VERTEX
  8
ガラス
 10
-4.0
 20
-7.225
 70
     8
  0
VERTEX
  8
ガラス
 10
-4.05
 20
-7.225
 70
     8
  0
VERTEX
  8
ガラス
 10
-4.075
 20
-7.225
 70
     8
  0
VERTEX
  8
ガラス
 10
-4.125
 20
-7.25
 70
     8
  0
VERTEX
  8
ガラス
 10
-4.175
 20
-7.25
 70
     8
  0
VERTEX
  8
ガラス
 10
-4.2
 20
-7.275
 70
     8
  0
VERTEX
  8
ガラス
 10
-4.25
 20
-7.275
 70
     8
  0
VERTEX
  8
ガラス
 10
-4.3
 20
-7.3
 70
     8
  0
VERTEX
  8
ガラス
 10
-4.325
 20
-7.3
 70
     8
  0
VERTEX
  8
ガラス
 10
-4.375
 20
-7.325
 70
     8
  0
VERTEX
  8
ガラス
 10
-4.4
 20
-7.325
 70
     8
  0
VERTEX
  8
ガラス
 10
-4.45
 20
-7.35
 70
     8
  0
VERTEX
  8
ガラス
 10
-4.5
 20
-7.35
 70
     8
  0
VERTEX
  8
ガラス
 10
-4.525
 20
-7.375
 70
     8
  0
VERTEX
  8
ガラス
 10
-4.575
 20
-7.4
 70
     8
  0
VERTEX
  8
ガラス
 10
-4.625
 20
-7.4
 70
     8
  0
VERTEX
  8
ガラス
 10
-4.65
 20
-7.425
 70
     8
  0
VERTEX
  8
ガラス
 10
-4.7
 20
-7.425
 70
     8
  0
VERTEX
  8
ガラス
 10
-4.725
 20
-7.45
 70
     8
  0
VERTEX
  8
ガラス
 10
-4.775
 20
-7.475
 70
     8
  0
VERTEX
  8
ガラス
 10
-4.825
 20
-7.475
 70
     8
  0
VERTEX
  8
ガラス
 10
-4.85
 20
-7.5
 70
     8
  0
SEQEND
  0
ARC
  8
ガラス
  6
CONTINUOUS
 62
     7
 10
-5.08401
 20
-6.861467
 40
0.668594
 50
111.203091
 51
291.203091
  0
ENDBLK
  0
BLOCK
  2
*GRP_0008
 70
    65
 10
0.0
 20
0.0
  0
POLYLINE
  8
ガラス
  6
CONTINUOUS
 62
     7
 66
     1
 70
     4
  0
VERTEX
  8
ガラス
 10
5.075
 20
-6.25
 70
     8
  0
VERTEX
  8
ガラス
 10
5.15
 20
-6.25
 70
     8
  0
VERTEX
  8
ガラス
 10
5.2
 20
-6.25
 70
     8
  0
VERTEX
  8
ガラス
 10
5.275
 20
-6.225
 70
     8
  0
VERTEX
  8
ガラス
 10
5.35
 20
-6.225
 70
     8
  0
VERTEX
  8
ガラス
 10
5.4
 20
-6.225
 70
     8
  0
VERTEX
  8
ガラス
 10
5.475
 20
-6.225
 70
     8
  0
VERTEX
  8
ガラス
 10
5.525
 20
-6.225
 70
     8
  0
VERTEX
  8
ガラス
 10
5.6
 20
-6.2
 70
     8
  0
VERTEX
  8
ガラス
 10
5.65
 20
-6.2
 70
     8
  0
VERTEX
  8
ガラス
 10
5.725
 20
-6.2
 70
     8
  0
VERTEX
  8
ガラス
 10
5.775
 20
-6.2
 70
     8
  0
VERTEX
  8
ガラス
 10
5.85
 20
-6.225
 70
     8
  0
VERTEX
  8
ガラス
 10
5.9
 20
-6.225
 70
     8
  0
VERTEX
  8
ガラス
 10
5.975
 20
-6.225
 70
     8
  0
VERTEX
  8
ガラス
 10
6.025
 20
-6.225
 70
     8
  0
VERTEX
  8
ガラス
 10
6.075
 20
-6.25
 70
     8
  0
VERTEX
  8
ガラス
 10
6.15
 20
-6.25
 70
     8
  0
VERTEX
  8
ガラス
 10
6.2
 20
-6.275
 70
     8
  0
VERTEX
  8
ガラス
 10
6.25
 20
-6.275
 70
     8
  0
VERTEX
  8
ガラス
 10
6.3
 20
-6.3
 70
     8
  0
VERTEX
  8
ガラス
 10
6.375
 20
-6.325
 70
     8
  0
VERTEX
  8
ガラス
 10
6.425
 20
-6.35
 70
     8
  0
VERTEX
  8
ガラス
 10
6.475
 20
-6.375
 70
     8
  0
VERTEX
  8
ガラス
 10
6.525
 20
-6.4
 70
     8
  0
VERTEX
  8
ガラス
 10
6.575
 20
-6.45
 70
     8
  0
VERTEX
  8
ガラス
 10
6.625
 20
-6.475
 70
     8
  0
VERTEX
  8
ガラス
 10
6.675
 20
-6.525
 70
     8
  0
VERTEX
  8
ガラス
 10
6.7
 20
-6.55
 70
     8
  0
VERTEX
  8
ガラス
 10
6.75
 20
-6.6
 70
     8
  0
VERTEX
  8
ガラス
 10
6.8
 20
-6.625
 70
     8
  0
VERTEX
  8
ガラス
 10
6.85
 20
-6.675
 70
     8
  0
VERTEX
  8
ガラス
 10
6.9
 20
-6.725
 70
     8
  0
VERTEX
  8
ガラス
 10
6.925
 20
-6.775
 70
     8
  0
VERTEX
  8
ガラス
 10
6.975
 20
-6.825
 70
     8
  0
VERTEX
  8
ガラス
 10
7.025
 20
-6.85
 70
     8
  0
VERTEX
  8
ガラス
 10
7.05
 20
-6.9
 70
     8
  0
VERTEX
  8
ガラス
 10
7.1
 20
-6.95
 70
     8
  0
VERTEX
  8
ガラス
 10
7.15
 20
-7.0
 70
     8
  0
VERTEX
  8
ガラス
 10
7.175
 20
-7.05
 70
     8
  0
VERTEX
  8
ガラス
 10
7.225
 20
-7.1
 70
     8
  0
SEQEND
  0
POLYLINE
  8
ガラス
  6
CONTINUOUS
 62
     7
 66
     1
 70
     4
  0
VERTEX
  8
ガラス
 10
7.225
 20
-7.1
 70
     8
  0
VERTEX
  8
ガラス
 10
7.175
 20
-7.1
 70
     8
  0
VERTEX
  8
ガラス
 10
7.15
 20
-7.125
 70
     8
  0
VERTEX
  8
ガラス
 10
7.1
 20
-7.125
 70
     8
  0
VERTEX
  8
ガラス
 10
7.05
 20
-7.125
 70
     8
  0
VERTEX
  8
ガラス
 10
7.025
 20
-7.125
 70
     8
  0
VERTEX
  8
ガラス
 10
6.975
 20
-7.125
 70
     8
  0
VERTEX
  8
ガラス
 10
6.925
 20
-7.125
 70
     8
  0
VERTEX
  8
ガラス
 10
6.875
 20
-7.15
 70
     8
  0
VERTEX
  8
ガラス
 10
6.85
 20
-7.15
 70
     8
  0
VERTEX
  8
ガラス
 10
6.8
 20
-7.15
 70
     8
  0
VERTEX
  8
ガラス
 10
6.75
 20
-7.15
 70
     8
  0
VERTEX
  8
ガラス
 10
6.725
 20
-7.175
 70
     8
  0
VERTEX
  8
ガラス
 10
6.675
 20
-7.175
 70
     8
  0
VERTEX
  8
ガラス
 10
6.625
 20
-7.175
 70
     8
  0
VERTEX
  8
ガラス
 10
6.6
 20
-7.175
 70
     8
  0
VERTEX
  8
ガラス
 10
6.55
 20
-7.2
 70
     8
  0
VERTEX
  8
ガラス
 10
6.5
 20
-7.2
 70
     8
  0
VERTEX
  8
ガラス
 10
6.45
 20
-7.2
 70
     8
  0
VERTEX
  8
ガラス
 10
6.425
 20
-7.225
 70
     8
  0
VERTEX
  8
ガラス
 10
6.375
 20
-7.225
 70
     8
  0
VERTEX
  8
ガラス
 10
6.325
 20
-7.225
 70
     8
  0
VERTEX
  8
ガラス
 10
6.3
 20
-7.25
 70
     8
  0
VERTEX
  8
ガラス
 10
6.25
 20
-7.25
 70
     8
  0
VERTEX
  8
ガラス
 10
6.2
 20
-7.275
 70
     8
  0
VERTEX
  8
ガラス
 10
6.175
 20
-7.275
 70
     8
  0
VERTEX
  8
ガラス
 10
6.125
 20
-7.3
 70
     8
  0
VERTEX
  8
ガラス
 10
6.1
 20
-7.3
 70
     8
  0
VERTEX
  8
ガラス
 10
6.05
 20
-7.325
 70
     8
  0
VERTEX
  8
ガラス
 10
6.0
 20
-7.325
 70
     8
  0
VERTEX
  8
ガラス
 10
5.975
 20
-7.35
 70
     8
  0
VERTEX
  8
ガラス
 10
5.925
 20
-7.35
 70
     8
  0
VERTEX
  8
ガラス
 10
5.875
 20
-7.375
 70
     8
  0
VERTEX
  8
ガラス
 10
5.85
 20
-7.4
 70
     8
  0
VERTEX
  8
ガラス
 10
5.8
 20
-7.4
 70
     8
  0
VERTEX
  8
ガラス
 10
5.775
 20
-7.425
 70
     8
  0
VERTEX
  8
ガラス
 10
5.725
 20
-7.425
 70
     8
  0
VERTEX
  8
ガラス
 10
5.675
 20
-7.45
 70
     8
  0
VERTEX
  8
ガラス
 10
5.65
 20
-7.475
 70
     8
  0
VERTEX
  8
ガラス
 10
5.6
 20
-7.475
 70
     8
  0
VERTEX
  8
ガラス
 10
5.575
 20
-7.5
 70
     8
  0
SEQEND
  0
ARC
  8
ガラス
  6
CONTINUOUS
 62
     7
 10
5.335998
 20
-6.861467
 40
0.668594
 50
111.203091
 51
291.203091
  0
ENDBLK
  0
BLOCK
  2
*GRP_0009
 70
    65
 10
0.0
 20
0.0
  0
POLYLINE
  8
ガラス
  6
CONTINUOUS
 62
     7
 66
     1
 70
     4
  0
VERTEX
  8
ガラス
 10
13.65
 20
-6.45
 70
     8
  0
VERTEX
  8
ガラス
 10
13.65
 20
-6.375
 70
     8
  0
VERTEX
  8
ガラス
 10
13.675
 20
-6.325
 70
     8
  0
VERTEX
  8
ガラス
 10
13.7
 20
-6.25
 70
     8
  0
VERTEX
  8
ガラス
 10
13.7
 20
-6.2
 70
     8
  0
VERTEX
  8
ガラス
 10
13.725
 20
-6.125
 70
     8
  0
VERTEX
  8
ガラス
 10
13.75
 20
-6.075
 70
     8
  0
VERTEX
  8
ガラス
 10
13.775
 20
-6.0
 70
     8
  0
VERTEX
  8
ガラス
 10
13.8
 20
-5.95
 70
     8
  0
VERTEX
  8
ガラス
 10
13.8
 20
-5.875
 70
     8
  0
VERTEX
  8
ガラス
 10
13.825
 20
-5.825
 70
     8
  0
VERTEX
  8
ガラス
 10
13.85
 20
-5.775
 70
     8
  0
VERTEX
  8
ガラス
 10
13.875
 20
-5.725
 70
     8
  0
VERTEX
  8
ガラス
 10
13.9
 20
-5.65
 70
     8
  0
VERTEX
  8
ガラス
 10
13.925
 20
-5.6
 70
     8
  0
VERTEX
  8
ガラス
 10
13.975
 20
-5.55
 70
     8
  0
VERTEX
  8
ガラス
 10
14.0
 20
-5.5
 70
     8
  0
VERTEX
  8
ガラス
 10
14.025
 20
-5.45
 70
     8
  0
VERTEX
  8
ガラス
 10
14.05
 20
-5.4
 70
     8
  0
VERTEX
  8
ガラス
 10
14.1
 20
-5.35
 70
     8
  0
VERTEX
  8
ガラス
 10
14.125
 20
-5.325
 70
     8
  0
VERTEX
  8
ガラス
 10
14.175
 20
-5.275
 70
     8
  0
VERTEX
  8
ガラス
 10
14.225
 20
-5.225
 70
     8
  0
VERTEX
  8
ガラス
 10
14.25
 20
-5.2
 70
     8
  0
VERTEX
  8
ガラス
 10
14.3
 20
-5.15
 70
     8
  0
VERTEX
  8
ガラス
 10
14.35
 20
-5.125
 70
     8
  0
VERTEX
  8
ガラス
 10
14.4
 20
-5.1
 70
     8
  0
VERTEX
  8
ガラス
 10
14.45
 20
-5.05
 70
     8
  0
VERTEX
  8
ガラス
 10
14.5
 20
-5.025
 70
     8
  0
VERTEX
  8
ガラス
 10
14.575
 20
-5.0
 70
     8
  0
VERTEX
  8
ガラス
 10
14.625
 20
-4.975
 70
     8
  0
VERTEX
  8
ガラス
 10
14.675
 20
-4.95
 70
     8
  0
VERTEX
  8
ガラス
 10
14.725
 20
-4.925
 70
     8
  0
VERTEX
  8
ガラス
 10
14.8
 20
-4.9
 70
     8
  0
VERTEX
  8
ガラス
 10
14.85
 20
-4.875
 70
     8
  0
VERTEX
  8
ガラス
 10
14.9
 20
-4.85
 70
     8
  0
VERTEX
  8
ガラス
 10
14.975
 20
-4.825
 70
     8
  0
VERTEX
  8
ガラス
 10
15.025
 20
-4.8
 70
     8
  0
VERTEX
  8
ガラス
 10
15.1
 20
-4.8
 70
     8
  0
VERTEX
  8
ガラス
 10
15.15
 20
-4.775
 70
     8
  0
VERTEX
  8
ガラス
 10
15.225
 20
-4.75
 70
     8
  0
SEQEND
  0
POLYLINE
  8
ガラス
  6
CONTINUOUS
 62
     7
 66
     1
 70
     4
  0
VERTEX
  8
ガラス
 10
15.225
 20
-4.75
 70
     8
  0
VERTEX
  8
ガラス
 10
15.2
 20
-4.8
 70
     8
  0
VERTEX
  8
ガラス
 10
15.2
 20
-4.825
 70
     8
  0
VERTEX
  8
ガラス
 10
15.175
 20
-4.875
 70
     8
  0
VERTEX
  8
ガラス
 10
15.175
 20
-4.925
 70
     8
  0
VERTEX
  8
ガラス
 10
15.15
 20
-4.95
 70
     8
  0
VERTEX
  8
ガラス
 10
15.15
 20
-5.0
 70
     8
  0
VERTEX
  8
ガラス
 10
15.125
 20
-5.05
 70
     8
  0
VERTEX
  8
ガラス
 10
15.125
 20
-5.075
 70
     8
  0
VERTEX
  8
ガラス
 10
15.1
 20
-5.125
 70
     8
  0
VERTEX
  8
ガラス
 10
15.1
 20
-5.175
 70
     8
  0
VERTEX
  8
ガラス
 10
15.1
 20
-5.2
 70
     8
  0
VERTEX
  8
ガラス
 10
15.075
 20
-5.25
 70
     8
  0
VERTEX
  8
ガラス
 10
15.075
 20
-5.3
 70
     8
  0
VERTEX
  8
ガラス
 10
15.05
 20
-5.325
 70
     8
  0
VERTEX
  8
ガラス
 10
15.05
 20
-5.375
 70
     8
  0
VERTEX
  8
ガラス
 10
15.05
 20
-5.425
 70
     8
  0
VERTEX
  8
ガラス
 10
15.025
 20
-5.45
 70
     8
  0
VERTEX
  8
ガラス
 10
15.025
 20
-5.5
 70
     8
  0
VERTEX
  8
ガラス
 10
15.025
 20
-5.55
 70
     8
  0
VERTEX
  8
ガラス
 10
15.025
 20
-5.575
 70
     8
  0
VERTEX
  8
ガラス
 10
15.0
 20
-5.625
 70
     8
  0
VERTEX
  8
ガラス
 10
15.0
 20
-5.675
 70
     8
  0
VERTEX
  8
ガラス
 10
15.0
 20
-5.7
 70
     8
  0
VERTEX
  8
ガラス
 10
15.0
 20
-5.75
 70
     8
  0
VERTEX
  8
ガラス
 10
15.0
 20
-5.8
 70
     8
  0
VERTEX
  8
ガラス
 10
14.975
 20
-5.85
 70
     8
  0
VERTEX
  8
ガラス
 10
14.975
 20
-5.875
 70
     8
  0
VERTEX
  8
ガラス
 10
14.975
 20
-5.925
 70
     8
  0
VERTEX
  8
ガラス
 10
14.975
 20
-5.975
 70
     8
  0
VERTEX
  8
ガラス
 10
14.975
 20
-6.0
 70
     8
  0
VERTEX
  8
ガラス
 10
14.975
 20
-6.05
 70
     8
  0
VERTEX
  8
ガラス
 10
14.975
 20
-6.1
 70
     8
  0
VERTEX
  8
ガラス
 10
14.975
 20
-6.15
 70
     8
  0
VERTEX
  8
ガラス
 10
14.975
 20
-6.175
 70
     8
  0
VERTEX
  8
ガラス
 10
14.975
 20
-6.225
 70
     8
  0
VERTEX
  8
ガラス
 10
14.975
 20
-6.275
 70
     8
  0
VERTEX
  8
ガラス
 10
14.975
 20
-6.3
 70
     8
  0
VERTEX
  8
ガラス
 10
14.975
 20
-6.35
 70
     8
  0
VERTEX
  8
ガラス
 10
14.975
 20
-6.4
 70
     8
  0
VERTEX
  8
ガラス
 10
14.975
 20
-6.45
 70
     8
  0
SEQEND
  0
ARC
  8
ガラス
  6
CONTINUOUS
 62
     7
 10
14.32001
 20
-6.428046
 40
0.668594
 50
180.0
 51
360.0
  0
ENDBLK
  0
BLOCK
  2
*GRP_0010
 70
    65
 10
0.0
 20
0.0
  0
POLYLINE
  8
ガラス
  6
CONTINUOUS
 62
     7
 66
     1
 70
     4
  0
VERTEX
  8
ガラス
 10
11.4
 20
47.525
 70
     8
  0
VERTEX
  8
ガラス
 10
11.4
 20
47.6
 70
     8
  0
VERTEX
  8
ガラス
 10
11.425
 20
47.65
 70
     8
  0
VERTEX
  8
ガラス
 10
11.45
 20
47.725
 70
     8
  0
VERTEX
  8
ガラス
 10
11.45
 20
47.775
 70
     8
  0
VERTEX
  8
ガラス
 10
11.475
 20
47.85
 70
     8
  0
VERTEX
  8
ガラス
 10
11.5
 20
47.9
 70
     8
  0
VERTEX
  8
ガラス
 10
11.525
 20
47.975
 70
     8
  0
VERTEX
  8
ガラス
 10
11.55
 20
48.025
 70
     8
  0
VERTEX
  8
ガラス
 10
11.55
 20
48.075
 70
     8
  0
VERTEX
  8
ガラス
 10
11.575
 20
48.15
 70
     8
  0
VERTEX
  8
ガラス
 10
11.6
 20
48.2
 70
     8
  0
VERTEX
  8
ガラス
 10
11.625
 20
48.25
 70
     8
  0
VERTEX
  8
ガラス
 10
11.65
 20
48.325
 70
     8
  0
VERTEX
  8
ガラス
 10
11.675
 20
48.375
 70
     8
  0
VERTEX
  8
ガラス
 10
11.725
 20
48.425
 70
     8
  0
VERTEX
  8
ガラス
 10
11.75
 20
48.475
 70
     8
  0
VERTEX
  8
ガラス
 10
11.775
 20
48.525
 70
     8
  0
VERTEX
  8
ガラス
 10
11.8
 20
48.575
 70
     8
  0
VERTEX
  8
ガラス
 10
11.85
 20
48.625
 70
     8
  0
VERTEX
  8
ガラス
 10
11.875
 20
48.65
 70
     8
  0
VERTEX
  8
ガラス
 10
11.925
 20
48.7
 70
     8
  0
VERTEX
  8
ガラス
 10
11.975
 20
48.75
 70
     8
  0
VERTEX
  8
ガラス
 10
12.0
 20
48.775
 70
     8
  0
VERTEX
  8
ガラス
 10
12.05
 20
48.8
 70
     8
  0
VERTEX
  8
ガラス
 10
12.1
 20
48.85
 70
     8
  0
VERTEX
  8
ガラス
 10
12.15
 20
48.875
 70
     8
  0
VERTEX
  8
ガラス
 10
12.2
 20
48.9
 70
     8
  0
VERTEX
  8
ガラス
 10
12.25
 20
48.95
 70
     8
  0
VERTEX
  8
ガラス
 10
12.325
 20
48.975
 70
     8
  0
VERTEX
  8
ガラス
 10
12.375
 20
49.0
 70
     8
  0
VERTEX
  8
ガラス
 10
12.425
 20
49.025
 70
     8
  0
VERTEX
  8
ガラス
 10
12.475
 20
49.05
 70
     8
  0
VERTEX
  8
ガラス
 10
12.55
 20
49.075
 70
     8
  0
VERTEX
  8
ガラス
 10
12.6
 20
49.1
 70
     8
  0
VERTEX
  8
ガラス
 10
12.65
 20
49.125
 70
     8
  0
VERTEX
  8
ガラス
 10
12.725
 20
49.125
 70
     8
  0
VERTEX
  8
ガラス
 10
12.775
 20
49.15
 70
     8
  0
VERTEX
  8
ガラス
 10
12.85
 20
49.175
 70
     8
  0
VERTEX
  8
ガラス
 10
12.9
 20
49.2
 70
     8
  0
VERTEX
  8
ガラス
 10
12.975
 20
49.225
 70
     8
  0
SEQEND
  0
POLYLINE
  8
ガラス
  6
CONTINUOUS
 62
     7
 66
     1
 70
     4
  0
VERTEX
  8
ガラス
 10
12.975
 20
49.225
 70
     8
  0
VERTEX
  8
ガラス
 10
12.95
 20
49.175
 70
     8
  0
VERTEX
  8
ガラス
 10
12.95
 20
49.15
 70
     8
  0
VERTEX
  8
ガラス
 10
12.925
 20
49.1
 70
     8
  0
VERTEX
  8
ガラス
 10
12.925
 20
49.05
 70
     8
  0
VERTEX
  8
ガラス
 10
12.9
 20
49.025
 70
     8
  0
VERTEX
  8
ガラス
 10
12.9
 20
48.975
 70
     8
  0
VERTEX
  8
ガラス
 10
12.875
 20
48.925
 70
     8
  0
VERTEX
  8
ガラス
 10
12.875
 20
48.9
 70
     8
  0
VERTEX
  8
ガラス
 10
12.85
 20
48.85
 70
     8
  0
VERTEX
  8
ガラス
 10
12.85
 20
48.8
 70
     8
  0
VERTEX
  8
ガラス
 10
12.85
 20
48.775
 70
     8
  0
VERTEX
  8
ガラス
 10
12.825
 20
48.725
 70
     8
  0
VERTEX
  8
ガラス
 10
12.825
 20
48.675
 70
     8
  0
VERTEX
  8
ガラス
 10
12.8
 20
48.65
 70
     8
  0
VERTEX
  8
ガラス
 10
12.8
 20
48.6
 70
     8
  0
VERTEX
  8
ガラス
 10
12.8
 20
48.55
 70
     8
  0
VERTEX
  8
ガラス
 10
12.775
 20
48.525
 70
     8
  0
VERTEX
  8
ガラス
 10
12.775
 20
48.475
 70
     8
  0
VERTEX
  8
ガラス
 10
12.775
 20
48.425
 70
     8
  0
VERTEX
  8
ガラス
 10
12.775
 20
48.4
 70
     8
  0
VERTEX
  8
ガラス
 10
12.75
 20
48.35
 70
     8
  0
VERTEX
  8
ガラス
 10
12.75
 20
48.3
 70
     8
  0
VERTEX
  8
ガラス
 10
12.75
 20
48.25
 70
     8
  0
VERTEX
  8
ガラス
 10
12.75
 20
48.225
 70
     8
  0
VERTEX
  8
ガラス
 10
12.75
 20
48.175
 70
     8
  0
VERTEX
  8
ガラス
 10
12.75
 20
48.125
 70
     8
  0
VERTEX
  8
ガラス
 10
12.725
 20
48.1
 70
     8
  0
VERTEX
  8
ガラス
 10
12.725
 20
48.05
 70
     8
  0
VERTEX
  8
ガラス
 10
12.725
 20
48.0
 70
     8
  0
VERTEX
  8
ガラス
 10
12.725
 20
47.95
 70
     8
  0
VERTEX
  8
ガラス
 10
12.725
 20
47.925
 70
     8
  0
VERTEX
  8
ガラス
 10
12.725
 20
47.875
 70
     8
  0
VERTEX
  8
ガラス
 10
12.725
 20
47.825
 70
     8
  0
VERTEX
  8
ガラス
 10
12.725
 20
47.8
 70
     8
  0
VERTEX
  8
ガラス
 10
12.725
 20
47.75
 70
     8
  0
VERTEX
  8
ガラス
 10
12.725
 20
47.7
 70
     8
  0
VERTEX
  8
ガラス
 10
12.725
 20
47.65
 70
     8
  0
VERTEX
  8
ガラス
 10
12.725
 20
47.625
 70
     8
  0
VERTEX
  8
ガラス
 10
12.725
 20
47.575
 70
     8
  0
VERTEX
  8
ガラス
 10
12.725
 20
47.525
 70
     8
  0
SEQEND
  0
ARC
  8
ガラス
  6
CONTINUOUS
 62
     7
 10
12.070903
 20
47.543402
 40
0.668594
 50
180.0
 51
360.0
  0
ENDBLK
  0
BLOCK
  2
*GRP_0011
 70
    65
 10
0.0
 20
0.0
  0
POLYLINE
  8
ガラス
  6
CONTINUOUS
 62
     7
 66
     1
 70
     4
  0
VERTEX
  8
ガラス
 10
11.4
 20
26.725
 70
     8
  0
VERTEX
  8
ガラス
 10
11.4
 20
26.8
 70
     8
  0
VERTEX
  8
ガラス
 10
11.425
 20
26.85
 70
     8
  0
VERTEX
  8
ガラス
 10
11.45
 20
26.925
 70
     8
  0
VERTEX
  8
ガラス
 10
11.45
 20
26.975
 70
     8
  0
VERTEX
  8
ガラス
 10
11.475
 20
27.05
 70
     8
  0
VERTEX
  8
ガラス
 10
11.5
 20
27.1
 70
     8
  0
VERTEX
  8
ガラス
 10
11.525
 20
27.15
 70
     8
  0
VERTEX
  8
ガラス
 10
11.55
 20
27.225
 70
     8
  0
VERTEX
  8
ガラス
 10
11.55
 20
27.275
 70
     8
  0
VERTEX
  8
ガラス
 10
11.575
 20
27.35
 70
     8
  0
VERTEX
  8
ガラス
 10
11.6
 20
27.4
 70
     8
  0
VERTEX
  8
ガラス
 10
11.625
 20
27.45
 70
     8
  0
VERTEX
  8
ガラス
 10
11.65
 20
27.5
 70
     8
  0
VERTEX
  8
ガラス
 10
11.675
 20
27.575
 70
     8
  0
VERTEX
  8
ガラス
 10
11.725
 20
27.625
 70
     8
  0
VERTEX
  8
ガラス
 10
11.75
 20
27.675
 70
     8
  0
VERTEX
  8
ガラス
 10
11.775
 20
27.725
 70
     8
  0
VERTEX
  8
ガラス
 10
11.8
 20
27.775
 70
     8
  0
VERTEX
  8
ガラス
 10
11.85
 20
27.8
 70
     8
  0
VERTEX
  8
ガラス
 10
11.875
 20
27.85
 70
     8
  0
VERTEX
  8
ガラス
 10
11.925
 20
27.9
 70
     8
  0
VERTEX
  8
ガラス
 10
11.975
 20
27.925
 70
     8
  0
VERTEX
  8
ガラス
 10
12.0
 20
27.975
 70
     8
  0
VERTEX
  8
ガラス
 10
12.05
 20
28.0
 70
     8
  0
VERTEX
  8
ガラス
 10
12.1
 20
28.05
 70
     8
  0
VERTEX
  8
ガラス
 10
12.15
 20
28.075
 70
     8
  0
VERTEX
  8
ガラス
 10
12.2
 20
28.1
 70
     8
  0
VERTEX
  8
ガラス
 10
12.25
 20
28.125
 70
     8
  0
VERTEX
  8
ガラス
 10
12.325
 20
28.175
 70
     8
  0
VERTEX
  8
ガラス
 10
12.375
 20
28.2
 70
     8
  0
VERTEX
  8
ガラス
 10
12.425
 20
28.225
 70
     8
  0
VERTEX
  8
ガラス
 10
12.475
 20
28.25
 70
     8
  0
VERTEX
  8
ガラス
 10
12.55
 20
28.275
 70
     8
  0
VERTEX
  8
ガラス
 10
12.6
 20
28.3
 70
     8
  0
VERTEX
  8
ガラス
 10
12.65
 20
28.3
 70
     8
  0
VERTEX
  8
ガラス
 10
12.725
 20
28.325
 70
     8
  0
VERTEX
  8
ガラス
 10
12.775
 20
28.35
 70
     8
  0
VERTEX
  8
ガラス
 10
12.85
 20
28.375
 70
     8
  0
VERTEX
  8
ガラス
 10
12.9
 20
28.4
 70
     8
  0
VERTEX
  8
ガラス
 10
12.975
 20
28.425
 70
     8
  0
SEQEND
  0
POLYLINE
  8
ガラス
  6
CONTINUOUS
 62
     7
 66
     1
 70
     4
  0
VERTEX
  8
ガラス
 10
12.975
 20
28.425
 70
     8
  0
VERTEX
  8
ガラス
 10
12.95
 20
28.375
 70
     8
  0
VERTEX
  8
ガラス
 10
12.95
 20
28.325
 70
     8
  0
VERTEX
  8
ガラス
 10
12.925
 20
28.3
 70
     8
  0
VERTEX
  8
ガラス
 10
12.925
 20
28.25
 70
     8
  0
VERTEX
  8
ガラス
 10
12.9
 20
28.2
 70
     8
  0
VERTEX
  8
ガラス
 10
12.9
 20
28.175
 70
     8
  0
VERTEX
  8
ガラス
 10
12.875
 20
28.125
 70
     8
  0
VERTEX
  8
ガラス
 10
12.875
 20
28.075
 70
     8
  0
VERTEX
  8
ガラス
 10
12.85
 20
28.05
 70
     8
  0
VERTEX
  8
ガラス
 10
12.85
 20
28.0
 70
     8
  0
VERTEX
  8
ガラス
 10
12.85
 20
27.95
 70
     8
  0
VERTEX
  8
ガラス
 10
12.825
 20
27.925
 70
     8
  0
VERTEX
  8
ガラス
 10
12.825
 20
27.875
 70
     8
  0
VERTEX
  8
ガラス
 10
12.8
 20
27.825
 70
     8
  0
VERTEX
  8
ガラス
 10
12.8
 20
27.8
 70
     8
  0
VERTEX
  8
ガラス
 10
12.8
 20
27.75
 70
     8
  0
VERTEX
  8
ガラス
 10
12.775
 20
27.7
 70
     8
  0
VERTEX
  8
ガラス
 10
12.775
 20
27.675
 70
     8
  0
VERTEX
  8
ガラス
 10
12.775
 20
27.625
 70
     8
  0
VERTEX
  8
ガラス
 10
12.775
 20
27.575
 70
     8
  0
VERTEX
  8
ガラス
 10
12.75
 20
27.55
 70
     8
  0
VERTEX
  8
ガラス
 10
12.75
 20
27.5
 70
     8
  0
VERTEX
  8
ガラス
 10
12.75
 20
27.45
 70
     8
  0
VERTEX
  8
ガラス
 10
12.75
 20
27.425
 70
     8
  0
VERTEX
  8
ガラス
 10
12.75
 20
27.375
 70
     8
  0
VERTEX
  8
ガラス
 10
12.75
 20
27.325
 70
     8
  0
VERTEX
  8
ガラス
 10
12.725
 20
27.275
 70
     8
  0
VERTEX
  8
ガラス
 10
12.725
 20
27.25
 70
     8
  0
VERTEX
  8
ガラス
 10
12.725
 20
27.2
 70
     8
  0
VERTEX
  8
ガラス
 10
12.725
 20
27.15
 70
     8
  0
VERTEX
  8
ガラス
 10
12.725
 20
27.125
 70
     8
  0
VERTEX
  8
ガラス
 10
12.725
 20
27.075
 70
     8
  0
VERTEX
  8
ガラス
 10
12.725
 20
27.025
 70
     8
  0
VERTEX
  8
ガラス
 10
12.725
 20
26.975
 70
     8
  0
VERTEX
  8
ガラス
 10
12.725
 20
26.95
 70
     8
  0
VERTEX
  8
ガラス
 10
12.725
 20
26.9
 70
     8
  0
VERTEX
  8
ガラス
 10
12.725
 20
26.85
 70
     8
  0
VERTEX
  8
ガラス
 10
12.725
 20
26.8
 70
     8
  0
VERTEX
  8
ガラス
 10
12.725
 20
26.775
 70
     8
  0
VERTEX
  8
ガラス
 10
12.725
 20
26.725
 70
     8
  0
SEQEND
  0
ARC
  8
ガラス
  6
CONTINUOUS
 62
     7
 10
12.070903
 20
26.73864
 40
0.668594
 50
180.0
 51
360.0
  0
ENDBLK
  0
BLOCK
  2
*GRP_0012
 70
    65
 10
0.0
 20
0.0
  0
POLYLINE
  8
ガラス
  6
CONTINUOUS
 62
     7
 66
     1
 70
     4
  0
VERTEX
  8
ガラス
 10
11.4
 20
7.925
 70
     8
  0
VERTEX
  8
ガラス
 10
11.4
 20
8.0
 70
     8
  0
VERTEX
  8
ガラス
 10
11.425
 20
8.05
 70
     8
  0
VERTEX
  8
ガラス
 10
11.45
 20
8.125
 70
     8
  0
VERTEX
  8
ガラス
 10
11.45
 20
8.175
 70
     8
  0
VERTEX
  8
ガラス
 10
11.475
 20
8.25
 70
     8
  0
VERTEX
  8
ガラス
 10
11.5
 20
8.3
 70
     8
  0
VERTEX
  8
ガラス
 10
11.525
 20
8.375
 70
     8
  0
VERTEX
  8
ガラス
 10
11.55
 20
8.425
 70
     8
  0
VERTEX
  8
ガラス
 10
11.55
 20
8.475
 70
     8
  0
VERTEX
  8
ガラス
 10
11.575
 20
8.55
 70
     8
  0
VERTEX
  8
ガラス
 10
11.6
 20
8.6
 70
     8
  0
VERTEX
  8
ガラス
 10
11.625
 20
8.65
 70
     8
  0
VERTEX
  8
ガラス
 10
11.65
 20
8.725
 70
     8
  0
VERTEX
  8
ガラス
 10
11.675
 20
8.775
 70
     8
  0
VERTEX
  8
ガラス
 10
11.725
 20
8.825
 70
     8
  0
VERTEX
  8
ガラス
 10
11.75
 20
8.875
 70
     8
  0
VERTEX
  8
ガラス
 10
11.775
 20
8.925
 70
     8
  0
VERTEX
  8
ガラス
 10
11.8
 20
8.975
 70
     8
  0
VERTEX
  8
ガラス
 10
11.85
 20
9.025
 70
     8
  0
VERTEX
  8
ガラス
 10
11.875
 20
9.05
 70
     8
  0
VERTEX
  8
ガラス
 10
11.925
 20
9.1
 70
     8
  0
VERTEX
  8
ガラス
 10
11.975
 20
9.15
 70
     8
  0
VERTEX
  8
ガラス
 10
12.0
 20
9.175
 70
     8
  0
VERTEX
  8
ガラス
 10
12.05
 20
9.2
 70
     8
  0
VERTEX
  8
ガラス
 10
12.1
 20
9.25
 70
     8
  0
VERTEX
  8
ガラス
 10
12.15
 20
9.275
 70
     8
  0
VERTEX
  8
ガラス
 10
12.2
 20
9.3
 70
     8
  0
VERTEX
  8
ガラス
 10
12.25
 20
9.35
 70
     8
  0
VERTEX
  8
ガラス
 10
12.325
 20
9.375
 70
     8
  0
VERTEX
  8
ガラス
 10
12.375
 20
9.4
 70
     8
  0
VERTEX
  8
ガラス
 10
12.425
 20
9.425
 70
     8
  0
VERTEX
  8
ガラス
 10
12.475
 20
9.45
 70
     8
  0
VERTEX
  8
ガラス
 10
12.55
 20
9.475
 70
     8
  0
VERTEX
  8
ガラス
 10
12.6
 20
9.5
 70
     8
  0
VERTEX
  8
ガラス
 10
12.65
 20
9.525
 70
     8
  0
VERTEX
  8
ガラス
 10
12.725
 20
9.55
 70
     8
  0
VERTEX
  8
ガラス
 10
12.775
 20
9.55
 70
     8
  0
VERTEX
  8
ガラス
 10
12.85
 20
9.575
 70
     8
  0
VERTEX
  8
ガラス
 10
12.9
 20
9.6
 70
     8
  0
VERTEX
  8
ガラス
 10
12.975
 20
9.625
 70
     8
  0
SEQEND
  0
POLYLINE
  8
ガラス
  6
CONTINUOUS
 62
     7
 66
     1
 70
     4
  0
VERTEX
  8
ガラス
 10
12.975
 20
9.625
 70
     8
  0
VERTEX
  8
ガラス
 10
12.95
 20
9.575
 70
     8
  0
VERTEX
  8
ガラス
 10
12.95
 20
9.55
 70
     8
  0
VERTEX
  8
ガラス
 10
12.925
 20
9.5
 70
     8
  0
VERTEX
  8
ガラス
 10
12.925
 20
9.45
 70
     8
  0
VERTEX
  8
ガラス
 10
12.9
 20
9.425
 70
     8
  0
VERTEX
  8
ガラス
 10
12.9
 20
9.375
 70
     8
  0
VERTEX
  8
ガラス
 10
12.875
 20
9.325
 70
     8
  0
VERTEX
  8
ガラス
 10
12.875
 20
9.3
 70
     8
  0
VERTEX
  8
ガラス
 10
12.85
 20
9.25
 70
     8
  0
VERTEX
  8
ガラス
 10
12.85
 20
9.2
 70
     8
  0
VERTEX
  8
ガラス
 10
12.85
 20
9.175
 70
     8
  0
VERTEX
  8
ガラス
 10
12.825
 20
9.125
 70
     8
  0
VERTEX
  8
ガラス
 10
12.825
 20
9.075
 70
     8
  0
VERTEX
  8
ガラス
 10
12.8
 20
9.05
 70
     8
  0
VERTEX
  8
ガラス
 10
12.8
 20
9.0
 70
     8
  0
VERTEX
  8
ガラス
 10
12.8
 20
8.95
 70
     8
  0
VERTEX
  8
ガラス
 10
12.775
 20
8.925
 70
     8
  0
VERTEX
  8
ガラス
 10
12.775
 20
8.875
 70
     8
  0
VERTEX
  8
ガラス
 10
12.775
 20
8.825
 70
     8
  0
VERTEX
  8
ガラス
 10
12.775
 20
8.8
 70
     8
  0
VERTEX
  8
ガラス
 10
12.75
 20
8.75
 70
     8
  0
VERTEX
  8
ガラス
 10
12.75
 20
8.7
 70
     8
  0
VERTEX
  8
ガラス
 10
12.75
 20
8.65
 70
     8
  0
VERTEX
  8
ガラス
 10
12.75
 20
8.625
 70
     8
  0
VERTEX
  8
ガラス
 10
12.75
 20
8.575
 70
     8
  0
VERTEX
  8
ガラス
 10
12.75
 20
8.525
 70
     8
  0
VERTEX
  8
ガラス
 10
12.725
 20
8.5
 70
     8
  0
VERTEX
  8
ガラス
 10
12.725
 20
8.45
 70
     8
  0
VERTEX
  8
ガラス
 10
12.725
 20
8.4
 70
     8
  0
VERTEX
  8
ガラス
 10
12.725
 20
8.35
 70
     8
  0
VERTEX
  8
ガラス
 10
12.725
 20
8.325
 70
     8
  0
VERTEX
  8
ガラス
 10
12.725
 20
8.275
 70
     8
  0
VERTEX
  8
ガラス
 10
12.725
 20
8.225
 70
     8
  0
VERTEX
  8
ガラス
 10
12.725
 20
8.2
 70
     8
  0
VERTEX
  8
ガラス
 10
12.725
 20
8.15
 70
     8
  0
VERTEX
  8
ガラス
 10
12.725
 20
8.1
 70
     8
  0
VERTEX
  8
ガラス
 10
12.725
 20
8.05
 70
     8
  0
VERTEX
  8
ガラス
 10
12.725
 20
8.025
 70
     8
  0
VERTEX
  8
ガラス
 10
12.725
 20
7.975
 70
     8
  0
VERTEX
  8
ガラス
 10
12.725
 20
7.925
 70
     8
  0
SEQEND
  0
ARC
  8
ガラス
  6
CONTINUOUS
 62
     7
 10
12.070903
 20
7.943429
 40
0.668594
 50
180.0
 51
360.0
  0
ENDBLK
  0
BLOCK
  2
*GRP_0013
 70
    65
 10
0.0
 20
0.0
  0
LINE
  8
ボルト／ビス
  6
CONTINUOUS
 62
    64
 10
-35.980443
 20
-26.45172
 11
-35.88874
 21
-27.499867
  0
ARC
  8
ボルト／ビス
  6
CONTINUOUS
 62
    64
 10
-34.19522
 20
-27.351701
 40
1.7
 50
184.999989
 51
270.0
  0
LINE
  8
ボルト／ビス
  6
CONTINUOUS
 62
    64
 10
-34.195187
 20
-29.051715
 11
-32.48044
 21
-29.051715
  0
LINE
  8
ボルト／ビス
  6
CONTINUOUS
 62
    64
 10
-28.980437
 20
-26.45172
 11
-29.07214
 21
-27.499867
  0
ARC
  8
ボルト／ビス
  6
CONTINUOUS
 62
    64
 10
-30.765686
 20
-27.351701
 40
1.7
 50
270.0
 51
355.000011
  0
LINE
  8
ボルト／ビス
  6
CONTINUOUS
 62
    64
 10
-30.765693
 20
-29.051715
 11
-32.48044
 21
-29.051715
  0
LINE
  8
ボルト／ビス
  6
CONTINUOUS
 62
    64
 10
-34.877088
 20
-28.666815
 11
-34.877088
 21
-28.908968
  0
LINE
  8
ボルト／ビス
  6
CONTINUOUS
 62
    64
 10
-33.180437
 20
-28.016715
 11
-32.48044
 21
-28.016715
  0
LINE
  8
ボルト／ビス
  6
CONTINUOUS
 62
    64
 10
-33.580443
 20
-28.666815
 11
-34.877088
 21
-28.666815
  0
LINE
  8
ボルト／ビス
  6
CONTINUOUS
 62
    64
 10
-33.180437
 20
-28.016715
 11
-33.180437
 21
-28.266817
  0
ARC
  8
ボルト／ビス
  6
CONTINUOUS
 62
    64
 10
-33.580453
 20
-28.266796
 40
0.4
 50
270.0
 51
360.0
  0
LINE
  8
ボルト／ビス
  6
CONTINUOUS
 62
    64
 10
-30.083792
 20
-28.666815
 11
-30.083792
 21
-28.908968
  0
LINE
  8
ボルト／ビス
  6
CONTINUOUS
 62
    64
 10
-31.780443
 20
-28.016715
 11
-32.48044
 21
-28.016715
  0
LINE
  8
ボルト／ビス
  6
CONTINUOUS
 62
    64
 10
-31.380437
 20
-28.666815
 11
-30.083792
 21
-28.666815
  0
LINE
  8
ボルト／ビス
  6
CONTINUOUS
 62
    64
 10
-31.780443
 20
-28.016715
 11
-31.780443
 21
-28.266817
  0
ARC
  8
ボルト／ビス
  6
CONTINUOUS
 62
    64
 10
-31.380453
 20
-28.266796
 40
0.4
 50
180.0
 51
270.0
  0
LINE
  8
ボルト／ビス
  6
CONTINUOUS
 62
    64
 10
-35.980443
 20
-26.45172
 11
-28.980437
 21
-26.45172
  0
LINE
  8
ボルト／ビス
  6
CONTINUOUS
 62
    64
 10
-34.480443
 20
-18.95172
 11
-33.98044
 21
-18.451717
  0
LINE
  8
ボルト／ビス
  6
CONTINUOUS
 62
    64
 10
-30.480437
 20
-18.95172
 11
-30.98044
 21
-18.451717
  0
LINE
  8
ボルト／ビス
  6
CONTINUOUS
 62
    64
 10
-33.98044
 20
-26.45172
 11
-33.98044
 21
-18.451717
  0
LINE
  8
ボルト／ビス
  6
CONTINUOUS
 62
    64
 10
-34.480443
 20
-26.45172
 11
-34.480443
 21
-18.95172
  0
LINE
  8
ボルト／ビス
  6
CONTINUOUS
 62
    64
 10
-30.98044
 20
-26.45172
 11
-30.98044
 21
-18.451717
  0
LINE
  8
ボルト／ビス
  6
CONTINUOUS
 62
    64
 10
-30.480437
 20
-26.45172
 11
-30.480437
 21
-18.95172
  0
LINE
  8
ボルト／ビス
  6
CONTINUOUS
 62
    64
 10
-34.480443
 20
-18.95172
 11
-30.480437
 21
-18.95172
  0
LINE
  8
ボルト／ビス
  6
CONTINUOUS
 62
    64
 10
-33.98044
 20
-18.451717
 11
-30.98044
 21
-18.451717
  0
LINE
  8
ボルト／ビス
  6
DASHDOT
 62
    64
 10
-32.48044
 20
-32.051715
 11
-32.48044
 21
-15.451717
  0
ENDBLK
  0
BLOCK
  2
*GRP_0014
 70
    65
 10
0.0
 20
0.0
  0
LINE
  8
ボルト／ビス
  6
CONTINUOUS
 62
    64
 10
-0.580443
 20
-26.45172
 11
-0.672138
 21
-27.499867
  0
ARC
  8
ボルト／ビス
  6
CONTINUOUS
 62
    64
 10
-2.365649
 20
-27.351701
 40
1.7
 50
270.0
 51
355.000011
  0
LINE
  8
ボルト／ビス
  6
CONTINUOUS
 62
    64
 10
-2.36569
 20
-29.051715
 11
-4.080437
 21
-29.051715
  0
LINE
  8
ボルト／ビス
  6
CONTINUOUS
 62
    64
 10
-7.58044
 20
-26.45172
 11
-7.488738
 21
-27.499867
  0
ARC
  8
ボルト／ビス
  6
CONTINUOUS
 62
    64
 10
-5.795183
 20
-27.351701
 40
1.7
 50
184.999989
 51
270.0
  0
LINE
  8
ボルト／ビス
  6
CONTINUOUS
 62
    64
 10
-5.795193
 20
-29.051715
 11
-4.080437
 21
-29.051715
  0
LINE
  8
ボルト／ビス
  6
CONTINUOUS
 62
    64
 10
-1.68379
 20
-28.666815
 11
-1.68379
 21
-28.908968
  0
LINE
  8
ボルト／ビス
  6
CONTINUOUS
 62
    64
 10
-3.38044
 20
-28.016715
 11
-4.080437
 21
-28.016715
  0
LINE
  8
ボルト／ビス
  6
CONTINUOUS
 62
    64
 10
-2.980443
 20
-28.666815
 11
-1.68379
 21
-28.666815
  0
LINE
  8
ボルト／ビス
  6
CONTINUOUS
 62
    64
 10
-3.38044
 20
-28.016715
 11
-3.38044
 21
-28.266817
  0
ARC
  8
ボルト／ビス
  6
CONTINUOUS
 62
    64
 10
-2.980416
 20
-28.266796
 40
0.4
 50
180.0
 51
270.0
  0
LINE
  8
ボルト／ビス
  6
CONTINUOUS
 62
    64
 10
-6.477092
 20
-28.666815
 11
-6.477092
 21
-28.908968
  0
LINE
  8
ボルト／ビス
  6
CONTINUOUS
 62
    64
 10
-4.780443
 20
-28.016715
 11
-4.080437
 21
-28.016715
  0
LINE
  8
ボルト／ビス
  6
CONTINUOUS
 62
    64
 10
-5.18044
 20
-28.666815
 11
-6.477092
 21
-28.666815
  0
LINE
  8
ボルト／ビス
  6
CONTINUOUS
 62
    64
 10
-4.780443
 20
-28.016715
 11
-4.780443
 21
-28.266817
  0
ARC
  8
ボルト／ビス
  6
CONTINUOUS
 62
    64
 10
-5.180416
 20
-28.266796
 40
0.4
 50
270.0
 51
360.0
  0
LINE
  8
ボルト／ビス
  6
CONTINUOUS
 62
    64
 10
-0.580443
 20
-26.45172
 11
-7.58044
 21
-26.45172
  0
LINE
  8
ボルト／ビス
  6
CONTINUOUS
 62
    64
 10
-2.080443
 20
-18.95172
 11
-2.580437
 21
-18.451717
  0
LINE
  8
ボルト／ビス
  6
CONTINUOUS
 62
    64
 10
-6.08044
 20
-18.95172
 11
-5.580437
 21
-18.451717
  0
LINE
  8
ボルト／ビス
  6
CONTINUOUS
 62
    64
 10
-2.580437
 20
-26.45172
 11
-2.580437
 21
-18.451717
  0
LINE
  8
ボルト／ビス
  6
CONTINUOUS
 62
    64
 10
-2.080443
 20
-26.45172
 11
-2.080443
 21
-18.95172
  0
LINE
  8
ボルト／ビス
  6
CONTINUOUS
 62
    64
 10
-5.580437
 20
-26.45172
 11
-5.580437
 21
-18.451717
  0
LINE
  8
ボルト／ビス
  6
CONTINUOUS
 62
    64
 10
-6.08044
 20
-26.45172
 11
-6.08044
 21
-18.95172
  0
LINE
  8
ボルト／ビス
  6
CONTINUOUS
 62
    64
 10
-2.080443
 20
-18.95172
 11
-6.08044
 21
-18.95172
  0
LINE
  8
ボルト／ビス
  6
CONTINUOUS
 62
    64
 10
-2.580437
 20
-18.451717
 11
-5.580437
 21
-18.451717
  0
LINE
  8
ボルト／ビス
  6
DASHDOT
 62
    64
 10
-4.080437
 20
-32.051715
 11
-4.080437
 21
-15.451717
  0
ENDBLK
  0
BLOCK
  2
*GRP_0015
 70
    65
 10
0.0
 20
0.0
  0
LINE
  8
ボルト／ビス
  6
CONTINUOUS
 62
    64
 10
1.219557
 20
-31.85172
 11
1.219557
 21
-27.851715
  0
LINE
  8
ボルト／ビス
  6
CONTINUOUS
 62
    64
 10
-6.480437
 20
-31.85172
 11
-6.98044
 21
-31.351717
  0
LINE
  8
ボルト／ビス
  6
CONTINUOUS
 62
    64
 10
-6.480437
 20
-27.851715
 11
-6.98044
 21
-28.351717
  0
LINE
  8
ボルト／ビス
  6
CONTINUOUS
 62
    64
 10
-6.98044
 20
-31.351717
 11
-6.98044
 21
-28.351717
  0
LINE
  8
ボルト／ビス
  6
CONTINUOUS
 62
    64
 10
-6.480437
 20
-31.85172
 11
-6.480437
 21
-27.851715
  0
LINE
  8
ボルト／ビス
  6
CONTINUOUS
 62
    64
 10
1.219557
 20
-28.351717
 11
-6.98044
 21
-28.351717
  0
LINE
  8
ボルト／ビス
  6
CONTINUOUS
 62
    64
 10
1.219557
 20
-31.351717
 11
-6.98044
 21
-31.351717
  0
LINE
  8
ボルト／ビス
  6
CONTINUOUS
 62
    64
 10
1.219557
 20
-31.85172
 11
-6.480437
 21
-31.85172
  0
LINE
  8
ボルト／ビス
  6
CONTINUOUS
 62
    64
 10
1.219557
 20
-27.851715
 11
-6.480437
 21
-27.851715
  0
LINE
  8
ボルト／ビス
  6
DASHDOT
 62
    64
 10
6.019557
 20
-29.851717
 11
-9.98044
 21
-29.851717
  0
LINE
  8
ボルト／ビス
  6
DOT
 62
    64
 10
3.019557
 20
-32.851717
 11
1.219557
 21
-31.85172
  0
LINE
  8
ボルト／ビス
  6
DOT
 62
    64
 10
3.019557
 20
-32.851717
 11
3.019557
 21
-26.851717
  0
LINE
  8
ボルト／ビス
  6
DOT
 62
    64
 10
3.019557
 20
-26.851717
 11
1.219557
 21
-27.851715
  0
ENDBLK
  0
BLOCK
  2
*GRP_0016
 70
    65
 10
0.0
 20
0.0
  0
LINE
  8
ボルト／ビス
  6
CONTINUOUS
 62
    64
 10
4.41956
 20
-17.351715
 11
4.41956
 21
-13.351717
  0
LINE
  8
ボルト／ビス
  6
CONTINUOUS
 62
    64
 10
-3.280443
 20
-17.351715
 11
-3.780437
 21
-16.85172
  0
LINE
  8
ボルト／ビス
  6
CONTINUOUS
 62
    64
 10
-3.280443
 20
-13.351717
 11
-3.780437
 21
-13.85172
  0
LINE
  8
ボルト／ビス
  6
CONTINUOUS
 62
    64
 10
-3.780437
 20
-16.85172
 11
-3.780437
 21
-13.85172
  0
LINE
  8
ボルト／ビス
  6
CONTINUOUS
 62
    64
 10
-3.280443
 20
-17.351715
 11
-3.280443
 21
-13.351717
  0
LINE
  8
ボルト／ビス
  6
CONTINUOUS
 62
    64
 10
4.41956
 20
-13.85172
 11
-3.780437
 21
-13.85172
  0
LINE
  8
ボルト／ビス
  6
CONTINUOUS
 62
    64
 10
4.41956
 20
-16.85172
 11
-3.780437
 21
-16.85172
  0
LINE
  8
ボルト／ビス
  6
CONTINUOUS
 62
    64
 10
4.41956
 20
-17.351715
 11
-3.280443
 21
-17.351715
  0
LINE
  8
ボルト／ビス
  6
CONTINUOUS
 62
    64
 10
4.41956
 20
-13.351717
 11
-3.280443
 21
-13.351717
  0
LINE
  8
ボルト／ビス
  6
DASHDOT
 62
    64
 10
9.21956
 20
-15.35172
 11
-6.780437
 21
-15.35172
  0
LINE
  8
ボルト／ビス
  6
DOT
 62
    64
 10
6.21956
 20
-18.35172
 11
4.41956
 21
-17.351715
  0
LINE
  8
ボルト／ビス
  6
DOT
 62
    64
 10
6.21956
 20
-18.35172
 11
6.21956
 21
-12.35172
  0
LINE
  8
ボルト／ビス
  6
DOT
 62
    64
 10
6.21956
 20
-12.35172
 11
4.41956
 21
-13.351717
  0
ENDBLK
  0
BLOCK
  2
*GRP_0017
 70
    65
 10
0.0
 20
0.0
  0
LINE
  8
ボルト／ビス
  6
CONTINUOUS
 10
-20.480455
 20
85.851855
 11
-20.480455
 21
87.851858
  0
LINE
  8
ボルト／ビス
  6
CONTINUOUS
 10
-20.480455
 20
87.851858
 11
1.51955
 21
87.851858
  0
LINE
  8
ボルト／ビス
  6
CONTINUOUS
 10
1.51955
 20
87.851858
 11
1.51955
 21
85.851855
  0
LINE
  8
ボルト／ビス
  6
CONTINUOUS
 10
-20.480455
 20
85.851855
 11
1.51955
 21
85.851855
  0
LINE
  8
ボルト／ビス
  6
CONTINUOUS
 10
-18.480452
 20
88.851855
 11
-18.480452
 21
87.851858
  0
LINE
  8
ボルト／ビス
  6
CONTINUOUS
 10
-18.480452
 20
88.851855
 11
-0.480452
 21
88.851855
  0
LINE
  8
ボルト／ビス
  6
CONTINUOUS
 10
-0.480452
 20
88.851855
 11
-0.480452
 21
87.851858
  0
LINE
  8
ボルト／ビス
  6
CONTINUOUS
 62
    64
 10
-14.291702
 20
94.851855
 11
-15.253953
 21
94.501627
  0
ARC
  8
ボルト／ビス
  6
CONTINUOUS
 62
    64
 10
-13.810576
 20
91.702511
 40
3.149352
 50
62.721967
 51
90.0
  0
ARC
  8
ボルト／ビス
  6
CONTINUOUS
 62
    64
 10
-9.480449
 20
82.779796
 40
12.072067
 50
76.165002
 51
103.834985
  0
LINE
  8
ボルト／ビス
  6
CONTINUOUS
 62
    64
 10
-4.669203
 20
94.851855
 11
-3.706952
 21
94.501627
  0
ARC
  8
ボルト／ビス
  6
CONTINUOUS
 62
    64
 10
-5.150321
 20
91.702511
 40
3.149352
 50
90.0
 51
117.278033
  0
LINE
  8
ボルト／ビス
  6
CONTINUOUS
 62
    64
 10
-14.291702
 20
94.851855
 11
-4.669203
 21
94.851855
  0
LINE
  8
ボルト／ビス
  6
CONTINUOUS
 62
    64
 10
-3.706952
 20
94.501627
 11
-3.706952
 21
90.851858
  0
LINE
  8
ボルト／ビス
  6
CONTINUOUS
 62
    64
 10
-6.593703
 20
94.501627
 11
-6.593703
 21
90.851858
  0
LINE
  8
ボルト／ビス
  6
CONTINUOUS
 62
    64
 10
-15.253953
 20
94.501627
 11
-15.253953
 21
90.851858
  0
LINE
  8
ボルト／ビス
  6
CONTINUOUS
 62
    64
 10
-12.367202
 20
94.501627
 11
-12.367202
 21
90.851858
  0
LINE
  8
ボルト／ビス
  6
CONTINUOUS
 62
    64
 10
-11.780455
 20
60.851858
 11
-7.18045
 21
60.851858
  0
LINE
  8
ボルト／ビス
  6
CONTINUOUS
 62
    64
 10
-6.480452
 20
61.851855
 11
-7.18045
 21
60.851858
  0
LINE
  8
ボルト／ビス
  6
CONTINUOUS
 62
    64
 10
-12.480452
 20
61.851855
 11
-11.780455
 21
60.851858
  0
LINE
  8
ボルト／ビス
  6
CONTINUOUS
 62
    64
 10
-12.480452
 20
61.851855
 11
-6.480452
 21
61.851855
  0
LINE
  8
ボルト／ビス
  6
CONTINUOUS
 62
    64
 10
-11.780455
 20
60.851858
 11
-7.18045
 21
60.851858
  0
LINE
  8
ボルト／ビス
  6
CONTINUOUS
 10
-15.253953
 20
90.851858
 11
-3.706952
 21
90.851858
  0
LINE
  8
ボルト／ビス
  6
CONTINUOUS
 10
-15.480452
 20
90.851858
 11
-15.480452
 21
88.851855
  0
LINE
  8
ボルト／ビス
  6
CONTINUOUS
 10
-15.480452
 20
90.851858
 11
-3.480452
 21
90.851858
  0
LINE
  8
ボルト／ビス
  6
CONTINUOUS
 10
-3.480452
 20
90.851858
 11
-3.480452
 21
88.851855
  0
LINE
  8
ボルト／ビス
  6
CONTINUOUS
 62
    64
 10
-7.18045
 20
85.851855
 11
-7.18045
 21
60.851858
  0
LINE
  8
ボルト／ビス
  6
CONTINUOUS
 62
    64
 10
-11.780455
 20
85.851855
 11
-11.780455
 21
60.851858
  0
LINE
  8
ボルト／ビス
  6
CONTINUOUS
 62
    64
 10
-12.480452
 20
85.851855
 11
-12.480452
 21
61.851855
  0
LINE
  8
ボルト／ビス
  6
CONTINUOUS
 62
    64
 10
-6.480452
 20
85.851855
 11
-6.480452
 21
61.851855
  0
ENDBLK
  0
BLOCK
  2
*GRP_0018
 70
    65
 10
0.0
 20
0.0
  0
LINE
  8
ボルト／ビス
  6
CONTINUOUS
 62
    64
 10
-32.48044
 20
49.348237
 11
-33.528587
 21
49.256535
  0
ARC
  8
ボルト／ビス
  6
CONTINUOUS
 62
    64
 10
-33.380417
 20
47.563014
 40
1.7
 50
94.999989
 51
180.0
  0
LINE
  8
ボルト／ビス
  6
CONTINUOUS
 62
    64
 10
-35.080435
 20
47.562982
 11
-35.080435
 21
45.848235
  0
LINE
  8
ボルト／ビス
  6
CONTINUOUS
 62
    64
 10
-32.48044
 20
42.348233
 11
-33.528587
 21
42.439935
  0
ARC
  8
ボルト／ビス
  6
CONTINUOUS
 62
    64
 10
-33.380417
 20
44.133481
 40
1.7
 50
180.0
 51
265.000011
  0
LINE
  8
ボルト／ビス
  6
CONTINUOUS
 62
    64
 10
-35.080435
 20
44.133488
 11
-35.080435
 21
45.848235
  0
LINE
  8
ボルト／ビス
  6
CONTINUOUS
 62
    64
 10
-34.695535
 20
48.244882
 11
-34.937687
 21
48.244882
  0
LINE
  8
ボルト／ビス
  6
CONTINUOUS
 62
    64
 10
-34.045435
 20
46.548233
 11
-34.045435
 21
45.848235
  0
LINE
  8
ボルト／ビス
  6
CONTINUOUS
 62
    64
 10
-34.695535
 20
46.948237
 11
-34.695535
 21
48.244882
  0
LINE
  8
ボルト／ビス
  6
CONTINUOUS
 62
    64
 10
-34.045435
 20
46.548233
 11
-34.295537
 21
46.548233
  0
ARC
  8
ボルト／ビス
  6
CONTINUOUS
 62
    64
 10
-34.295512
 20
46.948248
 40
0.4
 50
180.0
 51
270.0
  0
LINE
  8
ボルト／ビス
  6
CONTINUOUS
 62
    64
 10
-34.695535
 20
43.451587
 11
-34.937687
 21
43.451587
  0
LINE
  8
ボルト／ビス
  6
CONTINUOUS
 62
    64
 10
-34.045435
 20
45.148237
 11
-34.045435
 21
45.848235
  0
LINE
  8
ボルト／ビス
  6
CONTINUOUS
 62
    64
 10
-34.695535
 20
44.748233
 11
-34.695535
 21
43.451587
  0
LINE
  8
ボルト／ビス
  6
CONTINUOUS
 62
    64
 10
-34.045435
 20
45.148237
 11
-34.295537
 21
45.148237
  0
ARC
  8
ボルト／ビス
  6
CONTINUOUS
 62
    64
 10
-34.295512
 20
44.748248
 40
0.4
 50
90.0
 51
180.0
  0
LINE
  8
ボルト／ビス
  6
CONTINUOUS
 62
    64
 10
-32.48044
 20
49.348237
 11
-32.48044
 21
42.348233
  0
LINE
  8
ボルト／ビス
  6
CONTINUOUS
 62
    64
 10
-24.98044
 20
47.848237
 11
-24.480437
 21
47.348235
  0
LINE
  8
ボルト／ビス
  6
CONTINUOUS
 62
    64
 10
-24.98044
 20
43.848233
 11
-24.480437
 21
44.348235
  0
LINE
  8
ボルト／ビス
  6
CONTINUOUS
 62
    64
 10
-32.48044
 20
47.348235
 11
-24.480437
 21
47.348235
  0
LINE
  8
ボルト／ビス
  6
CONTINUOUS
 62
    64
 10
-32.48044
 20
47.848237
 11
-24.98044
 21
47.848237
  0
LINE
  8
ボルト／ビス
  6
CONTINUOUS
 62
    64
 10
-32.48044
 20
44.348235
 11
-24.480437
 21
44.348235
  0
LINE
  8
ボルト／ビス
  6
CONTINUOUS
 62
    64
 10
-32.48044
 20
43.848233
 11
-24.98044
 21
43.848233
  0
LINE
  8
ボルト／ビス
  6
CONTINUOUS
 62
    64
 10
-24.98044
 20
47.848237
 11
-24.98044
 21
43.848233
  0
LINE
  8
ボルト／ビス
  6
CONTINUOUS
 62
    64
 10
-24.480437
 20
47.348235
 11
-24.480437
 21
44.348235
  0
LINE
  8
ボルト／ビス
  6
DASHDOT
 62
    64
 10
-38.080435
 20
45.848235
 11
-21.480437
 21
45.848235
  0
ENDBLK
  0
BLOCK
  2
*GRP_0019
 70
    65
 10
0.0
 20
0.0
  0
LINE
  8
ボルト／ビス
  6
CONTINUOUS
 62
    64
 10
-58.630447
 20
-103.406415
 11
-58.175145
 21
-104.657318
  0
ARC
  8
ボルト／ビス
  6
CONTINUOUS
 62
    64
 10
-54.53629
 20
-102.780943
 40
4.09417
 50
152.722034
 51
180.0
  0
LINE
  8
ボルト／ビス
  6
CONTINUOUS
 62
    64
 10
-58.630447
 20
-90.897165
 11
-58.175145
 21
-89.646217
  0
ARC
  8
ボルト／ビス
  6
CONTINUOUS
 62
    64
 10
-54.53629
 20
-91.522608
 40
4.09417
 50
180.0
 51
207.277966
  0
ARC
  8
ボルト／ビス
  6
CONTINUOUS
 62
    64
 10
-42.936727
 20
-97.151775
 40
15.693732
 50
166.165046
 51
193.834954
  0
LINE
  8
ボルト／ビス
  6
CONTINUOUS
 62
    64
 10
-53.480445
 20
-104.657318
 11
-58.175145
 21
-104.657318
  0
LINE
  8
ボルト／ビス
  6
CONTINUOUS
 62
    64
 10
-53.480445
 20
-89.646217
 11
-58.175145
 21
-89.646217
  0
LINE
  8
ボルト／ビス
  6
CONTINUOUS
 62
    64
 10
-58.630447
 20
-90.897165
 11
-58.630447
 21
-103.406415
  0
LINE
  8
ボルト／ビス
  6
CONTINUOUS
 62
    64
 10
-58.175145
 20
-93.399015
 11
-53.480445
 21
-93.399015
  0
LINE
  8
ボルト／ビス
  6
CONTINUOUS
 62
    64
 10
-58.175145
 20
-100.904565
 11
-53.480445
 21
-100.904565
  0
LINE
  8
ボルト／ビス
  6
CONTINUOUS
 62
    64
 10
-53.480445
 20
-89.646217
 11
-53.480445
 21
-104.657318
  0
LINE
  8
ボルト／ビス
  6
CONTINUOUS
 62
    64
 10
-51.680445
 20
-105.90177
 11
-50.680447
 21
-105.90177
  0
LINE
  8
ボルト／ビス
  6
CONTINUOUS
 62
    64
 10
-51.680445
 20
-88.401765
 11
-50.680447
 21
-88.401765
  0
LINE
  8
ボルト／ビス
  6
CONTINUOUS
 62
    64
 10
-51.680445
 20
-105.90177
 11
-51.680445
 21
-88.401765
  0
LINE
  8
ボルト／ビス
  6
CONTINUOUS
 62
    64
 10
-50.680447
 20
-105.90177
 11
-50.680447
 21
-88.401765
  0
LINE
  8
ボルト／ビス
  6
CONTINUOUS
 62
    64
 10
-53.480445
 20
-97.151768
 11
-51.680445
 21
-97.151768
  0
LINE
  8
ボルト／ビス
  6
CONTINUOUS
 62
    64
 10
-53.480445
 20
-89.25177
 11
-51.680445
 21
-89.25177
  0
LINE
  8
ボルト／ビス
  6
CONTINUOUS
 62
    64
 10
-53.480445
 20
-105.051765
 11
-51.680445
 21
-105.051765
  0
LINE
  8
ボルト／ビス
  6
CONTINUOUS
 62
    64
 10
-53.480445
 20
-89.25177
 11
-53.480445
 21
-105.051765
  0
LINE
  8
ボルト／ビス
  6
CONTINUOUS
 62
    64
 10
-63.630443
 20
-97.151768
 11
-23.480445
 21
-97.151768
  0
LINE
  8
ボルト／ビス
  6
CONTINUOUS
 62
    64
 10
-28.480447
 20
-93.951765
 11
-28.480447
 21
-100.35177
  0
LINE
  8
ボルト／ビス
  6
CONTINUOUS
 62
    64
 10
-29.680447
 20
-93.15177
 11
-28.480447
 21
-93.951765
  0
LINE
  8
ボルト／ビス
  6
CONTINUOUS
 62
    64
 10
-29.680447
 20
-101.151765
 11
-28.480447
 21
-100.35177
  0
LINE
  8
ボルト／ビス
  6
CONTINUOUS
 62
    64
 10
-28.480447
 20
-93.951765
 11
-28.480447
 21
-100.35177
  0
LINE
  8
ボルト／ビス
  6
CONTINUOUS
 62
    64
 10
-29.680447
 20
-93.15177
 11
-29.680447
 21
-101.151765
  0
LINE
  8
ボルト／ビス
  6
CONTINUOUS
 62
    64
 10
-50.680447
 20
-93.15177
 11
-29.680447
 21
-93.15177
  0
LINE
  8
ボルト／ビス
  6
CONTINUOUS
 62
    64
 10
-50.680447
 20
-101.151765
 11
-29.680447
 21
-101.151765
  0
LINE
  8
ボルト／ビス
  6
CONTINUOUS
 62
    64
 10
-50.680447
 20
-93.951765
 11
-28.480447
 21
-93.951765
  0
LINE
  8
ボルト／ビス
  6
CONTINUOUS
 62
    64
 10
-50.680447
 20
-100.35177
 11
-28.480447
 21
-100.35177
  0
ENDBLK
  0
BLOCK
  2
*GRP_0020
 70
    65
 10
0.0
 20
0.0
  0
LINE
  8
ボルト／ビス
  6
CONTINUOUS
 62
    64
 10
-36.330443
 20
-103.406415
 11
-36.785745
 21
-104.657318
  0
ARC
  8
ボルト／ビス
  6
CONTINUOUS
 62
    64
 10
-40.424622
 20
-102.780939
 40
4.09417
 50
0.0
 51
27.277966
  0
LINE
  8
ボルト／ビス
  6
CONTINUOUS
 62
    64
 10
-36.330443
 20
-90.89712
 11
-36.785745
 21
-89.646217
  0
ARC
  8
ボルト／ビス
  6
CONTINUOUS
 62
    64
 10
-40.424622
 20
-91.522604
 40
4.09417
 50
332.722034
 51
360.0
  0
ARC
  8
ボルト／ビス
  6
CONTINUOUS
 62
    64
 10
-52.024184
 20
-97.151772
 40
15.693732
 50
346.165046
 51
373.834954
  0
LINE
  8
ボルト／ビス
  6
CONTINUOUS
 62
    64
 10
-41.480445
 20
-104.657318
 11
-36.785745
 21
-104.657318
  0
LINE
  8
ボルト／ビス
  6
CONTINUOUS
 62
    64
 10
-41.480445
 20
-89.646217
 11
-36.785745
 21
-89.646217
  0
LINE
  8
ボルト／ビス
  6
CONTINUOUS
 62
    64
 10
-36.330443
 20
-90.89712
 11
-36.330443
 21
-103.406415
  0
LINE
  8
ボルト／ビス
  6
CONTINUOUS
 62
    64
 10
-36.785745
 20
-93.39897
 11
-41.480445
 21
-93.39897
  0
LINE
  8
ボルト／ビス
  6
CONTINUOUS
 62
    64
 10
-36.785745
 20
-100.904565
 11
-41.480445
 21
-100.904565
  0
LINE
  8
ボルト／ビス
  6
CONTINUOUS
 62
    64
 10
-41.480445
 20
-89.646217
 11
-41.480445
 21
-104.657318
  0
LINE
  8
ボルト／ビス
  6
CONTINUOUS
 62
    64
 10
-43.280445
 20
-105.90177
 11
-44.280443
 21
-105.90177
  0
LINE
  8
ボルト／ビス
  6
CONTINUOUS
 62
    64
 10
-43.280445
 20
-88.401765
 11
-44.280443
 21
-88.401765
  0
LINE
  8
ボルト／ビス
  6
CONTINUOUS
 62
    64
 10
-43.280445
 20
-105.90177
 11
-43.280445
 21
-88.401765
  0
LINE
  8
ボルト／ビス
  6
CONTINUOUS
 62
    64
 10
-44.280443
 20
-105.90177
 11
-44.280443
 21
-88.401765
  0
LINE
  8
ボルト／ビス
  6
CONTINUOUS
 62
    64
 10
-41.480445
 20
-97.151768
 11
-43.280445
 21
-97.151768
  0
LINE
  8
ボルト／ビス
  6
CONTINUOUS
 62
    64
 10
-41.480445
 20
-89.25177
 11
-43.280445
 21
-89.25177
  0
LINE
  8
ボルト／ビス
  6
CONTINUOUS
 62
    64
 10
-41.480445
 20
-105.051765
 11
-43.280445
 21
-105.051765
  0
LINE
  8
ボルト／ビス
  6
CONTINUOUS
 62
    64
 10
-41.480445
 20
-89.25177
 11
-41.480445
 21
-105.051765
  0
ENDBLK
  0
BLOCK
  2
*GRP_0021
 70
    65
 10
0.0
 20
0.0
  0
LINE
  8
ボルト／ビス
  6
CONTINUOUS
 62
    64
 10
-47.680447
 20
-67.65177
 11
-47.680447
 21
-63.651765
  0
LINE
  8
ボルト／ビス
  6
CONTINUOUS
 62
    64
 10
-39.980445
 20
-67.65177
 11
-39.480443
 21
-67.151768
  0
LINE
  8
ボルト／ビス
  6
CONTINUOUS
 62
    64
 10
-39.980445
 20
-63.651765
 11
-39.480443
 21
-64.151768
  0
LINE
  8
ボルト／ビス
  6
CONTINUOUS
 62
    64
 10
-39.480443
 20
-67.151768
 11
-39.480443
 21
-64.151768
  0
LINE
  8
ボルト／ビス
  6
CONTINUOUS
 62
    64
 10
-39.980445
 20
-67.65177
 11
-39.980445
 21
-63.651765
  0
LINE
  8
ボルト／ビス
  6
CONTINUOUS
 62
    64
 10
-47.680447
 20
-64.151768
 11
-39.480443
 21
-64.151768
  0
LINE
  8
ボルト／ビス
  6
CONTINUOUS
 62
    64
 10
-47.680447
 20
-67.151768
 11
-39.480443
 21
-67.151768
  0
LINE
  8
ボルト／ビス
  6
CONTINUOUS
 62
    64
 10
-47.680447
 20
-67.65177
 11
-39.980445
 21
-67.65177
  0
LINE
  8
ボルト／ビス
  6
CONTINUOUS
 62
    64
 10
-47.680447
 20
-63.651765
 11
-39.980445
 21
-63.651765
  0
LINE
  8
ボルト／ビス
  6
DASHDOT
 62
    64
 10
-52.480447
 20
-65.651768
 11
-36.480443
 21
-65.651768
  0
LINE
  8
ボルト／ビス
  6
DOT
 62
    64
 10
-49.480447
 20
-68.651768
 11
-47.680447
 21
-67.65177
  0
LINE
  8
ボルト／ビス
  6
DOT
 62
    64
 10
-49.480447
 20
-68.651768
 11
-49.480447
 21
-62.651768
  0
LINE
  8
ボルト／ビス
  6
DOT
 62
    64
 10
-49.480447
 20
-62.651768
 11
-47.680447
 21
-63.651765
  0
ENDBLK
  0
BLOCK
  2
*GRP_0022
 70
    65
 10
0.0
 20
0.0
  0
LINE
  8
ボルト／ビス
  6
CONTINUOUS
 62
    64
 10
-51.280447
 20
-62.151765
 11
-52.328595
 21
-62.243468
  0
ARC
  8
ボルト／ビス
  6
CONTINUOUS
 62
    64
 10
-52.180436
 20
-63.936982
 40
1.7
 50
94.999989
 51
180.0
  0
LINE
  8
ボルト／ビス
  6
CONTINUOUS
 62
    64
 10
-53.88045
 20
-63.93702
 11
-53.88045
 21
-65.651768
  0
LINE
  8
ボルト／ビス
  6
CONTINUOUS
 62
    64
 10
-51.280447
 20
-69.15177
 11
-52.328595
 21
-69.060067
  0
ARC
  8
ボルト／ビス
  6
CONTINUOUS
 62
    64
 10
-52.180436
 20
-67.366515
 40
1.7
 50
180.0
 51
265.000011
  0
LINE
  8
ボルト／ビス
  6
CONTINUOUS
 62
    64
 10
-53.88045
 20
-67.366515
 11
-53.88045
 21
-65.651768
  0
LINE
  8
ボルト／ビス
  6
CONTINUOUS
 62
    64
 10
-53.49555
 20
-63.25512
 11
-53.737695
 21
-63.25512
  0
LINE
  8
ボルト／ビス
  6
CONTINUOUS
 62
    64
 10
-52.84545
 20
-64.95177
 11
-52.84545
 21
-65.651768
  0
LINE
  8
ボルト／ビス
  6
CONTINUOUS
 62
    64
 10
-53.49555
 20
-64.551765
 11
-53.49555
 21
-63.25512
  0
LINE
  8
ボルト／ビス
  6
CONTINUOUS
 62
    64
 10
-52.84545
 20
-64.95177
 11
-53.095545
 21
-64.95177
  0
ARC
  8
ボルト／ビス
  6
CONTINUOUS
 62
    64
 10
-53.095531
 20
-64.551748
 40
0.4
 50
180.0
 51
270.0
  0
LINE
  8
ボルト／ビス
  6
CONTINUOUS
 62
    64
 10
-53.49555
 20
-68.048415
 11
-53.737695
 21
-68.048415
  0
LINE
  8
ボルト／ビス
  6
CONTINUOUS
 62
    64
 10
-52.84545
 20
-66.351765
 11
-52.84545
 21
-65.651768
  0
LINE
  8
ボルト／ビス
  6
CONTINUOUS
 62
    64
 10
-53.49555
 20
-66.75177
 11
-53.49555
 21
-68.048415
  0
LINE
  8
ボルト／ビス
  6
CONTINUOUS
 62
    64
 10
-52.84545
 20
-66.351765
 11
-53.095545
 21
-66.351765
  0
ARC
  8
ボルト／ビス
  6
CONTINUOUS
 62
    64
 10
-53.095531
 20
-66.751748
 40
0.4
 50
90.0
 51
180.0
  0
LINE
  8
ボルト／ビス
  6
CONTINUOUS
 62
    64
 10
-51.280447
 20
-62.151765
 11
-51.280447
 21
-69.15177
  0
LINE
  8
ボルト／ビス
  6
CONTINUOUS
 62
    64
 10
-43.780447
 20
-63.651765
 11
-43.280445
 21
-64.151768
  0
LINE
  8
ボルト／ビス
  6
CONTINUOUS
 62
    64
 10
-43.780447
 20
-67.65177
 11
-43.280445
 21
-67.151768
  0
LINE
  8
ボルト／ビス
  6
CONTINUOUS
 62
    64
 10
-51.280447
 20
-64.151768
 11
-43.280445
 21
-64.151768
  0
LINE
  8
ボルト／ビス
  6
CONTINUOUS
 62
    64
 10
-51.280447
 20
-63.651765
 11
-43.780447
 21
-63.651765
  0
LINE
  8
ボルト／ビス
  6
CONTINUOUS
 62
    64
 10
-51.280447
 20
-67.151768
 11
-43.280445
 21
-67.151768
  0
LINE
  8
ボルト／ビス
  6
CONTINUOUS
 62
    64
 10
-51.280447
 20
-67.65177
 11
-43.780447
 21
-67.65177
  0
LINE
  8
ボルト／ビス
  6
CONTINUOUS
 62
    64
 10
-43.780447
 20
-63.651765
 11
-43.780447
 21
-67.65177
  0
LINE
  8
ボルト／ビス
  6
CONTINUOUS
 62
    64
 10
-43.280445
 20
-64.151768
 11
-43.280445
 21
-67.151768
  0
LINE
  8
ボルト／ビス
  6
DASHDOT
 62
    64
 10
-56.88045
 20
-65.651768
 11
-40.280445
 21
-65.651768
  0
ENDBLK
  0
BLOCK
  2
*DIM_0023
 70
    65
 10
0.0
 20
0.0
  0
LINE
  8
寸法
  6
CONTINUOUS
 10
25.519557
 20
3.848233
 11
25.519557
 21
111.752793
  0
LINE
  8
寸法
  6
CONTINUOUS
 10
10.51955
 20
111.752793
 11
25.519557
 21
111.752793
  0
POINT
  8
寸法
 10
10.51955
 20
111.752793
  0
POINT
  8
寸法
 10
25.519557
 20
111.752793
  0
TEXT
  7
TextStyle03
  8
寸法
  6
CONTINUOUS
 10
16.40625
 20
112.1
  1
15
 40
3.0
 72
     5
 11
19.59375
 21
112.1
  0
ENDBLK
  0
BLOCK
  2
*DIM_0024
 70
    65
 10
0.0
 20
0.0
  0
LINE
  8
寸法
  6
CONTINUOUS
 10
-54.480437
 20
-7.851715
 11
-54.480437
 21
111.752793
  0
LINE
  8
寸法
  6
CONTINUOUS
 10
10.51955
 20
111.752793
 11
-54.480437
 21
111.752793
  0
POINT
  8
寸法
 10
10.51955
 20
111.752793
  0
POINT
  8
寸法
 10
-54.480437
 20
111.752793
  0
TEXT
  7
TextStyle03
  8
寸法
  6
CONTINUOUS
 10
-23.59375
 20
112.1
  1
65
 40
3.0
 72
     5
 11
-20.40625
 21
112.1
  0
ENDBLK
  0
BLOCK
  2
*DIM_0025
 70
    65
 10
0.0
 20
0.0
  0
LINE
  8
寸法
  6
CONTINUOUS
 10
-9.480437
 20
84.548233
 11
-9.480437
 21
101.752793
  0
LINE
  8
寸法
  6
CONTINUOUS
 10
10.51955
 20
101.752793
 11
-9.480437
 21
101.752793
  0
POINT
  8
寸法
 10
10.51955
 20
101.752793
  0
POINT
  8
寸法
 10
-9.480437
 20
101.752793
  0
TEXT
  7
TextStyle03
  8
寸法
  6
CONTINUOUS
 10
-1.09375
 20
102.1
  1
20
 40
3.0
 72
     5
 11
2.09375
 21
102.1
  0
ENDBLK
  0
BLOCK
  2
*DIM_0026
 70
    65
 10
0.0
 20
0.0
  0
LINE
  8
寸法
  6
CONTINUOUS
 10
-39.480445
 20
90.851817
 11
-39.480445
 21
101.752793
  0
LINE
  8
寸法
  6
CONTINUOUS
 10
-9.480437
 20
101.752793
 11
-39.480445
 21
101.752793
  0
POINT
  8
寸法
 10
-39.480445
 20
101.752793
  0
TEXT
  7
TextStyle03
  8
寸法
  6
CONTINUOUS
 10
-26.09375
 20
102.1
  1
30
 40
3.0
 72
     5
 11
-22.90625
 21
102.1
  0
ENDBLK
  0
BLOCK
  2
*DIM_0027
 70
    65
 10
0.0
 20
0.0
  0
LINE
  8
寸法
  6
CONTINUOUS
 10
-54.480437
 20
-7.851715
 11
-54.480437
 21
101.752793
  0
LINE
  8
寸法
  6
CONTINUOUS
 10
-39.480445
 20
101.752793
 11
-54.480437
 21
101.752793
  0
POINT
  8
寸法
 10
-54.480437
 20
101.752793
  0
TEXT
  7
TextStyle03
  8
寸法
  6
CONTINUOUS
 10
-48.59375
 20
102.1
  1
15
 40
3.0
 72
     5
 11
-45.40625
 21
102.1
  0
ENDBLK
  0
BLOCK
  2
*DIM_0028
 70
    65
 10
0.0
 20
0.0
  0
LINE
  8
寸法
  6
CONTINUOUS
 10
-76.92202
 20
-35.151765
 11
-135.52946
 21
-35.151765
  0
LINE
  8
寸法
  6
CONTINUOUS
 10
-135.52946
 20
-24.851715
 11
-135.52946
 21
-35.151765
  0
POINT
  8
寸法
 10
-135.52946
 20
-35.151765
  0
TEXT
  7
TextStyle03
  8
寸法
  6
CONTINUOUS
 10
-135.925
 20
-33.33125
  1
10.3
 40
3.0
 50
90.0
 72
     5
 11
-135.925
 21
-26.76875
  0
ENDBLK
  0
BLOCK
  2
*DIM_0029
 70
    65
 10
0.0
 20
0.0
  0
LINE
  8
寸法
  6
CONTINUOUS
 10
-76.63001
 20
-60.15177
 11
-135.52946
 21
-60.15177
  0
LINE
  8
寸法
  6
CONTINUOUS
 10
-135.52946
 20
-35.151765
 11
-135.52946
 21
-60.15177
  0
POINT
  8
寸法
 10
-135.52946
 20
-60.15177
  0
TEXT
  7
TextStyle03
  8
寸法
  6
CONTINUOUS
 10
-135.925
 20
-49.29375
  1
25
 40
3.0
 50
90.0
 72
     5
 11
-135.925
 21
-46.10625
  0
ENDBLK
  0
BLOCK
  2
*DIM_0030
 70
    65
 10
0.0
 20
0.0
  0
LINE
  8
寸法
  6
CONTINUOUS
 10
30.519557
 20
-10.351717
 11
110.92257
 21
-10.351717
  0
LINE
  8
寸法
  6
CONTINUOUS
 10
30.519557
 20
-1.151768
 11
110.92257
 21
-1.151768
  0
LINE
  8
寸法
  6
CONTINUOUS
 10
110.92257
 20
-10.351717
 11
110.92257
 21
-1.151768
  0
POINT
  8
寸法
 10
110.92257
 20
-10.351717
  0
POINT
  8
寸法
 10
110.92257
 20
-1.151768
  0
TEXT
  7
TextStyle03
  8
寸法
  6
CONTINUOUS
 10
110.525
 20
-8.2375
  1
9.2
 40
3.0
 50
90.0
 72
     5
 11
110.525
 21
-3.3625
  0
ENDBLK
  0
BLOCK
  2
*DIM_0031
 70
    65
 10
0.0
 20
0.0
  0
LINE
  8
寸法
  6
CONTINUOUS
 10
16.519563
 20
51.348233
 11
110.92257
 21
51.348233
  0
LINE
  8
寸法
  6
CONTINUOUS
 10
110.92257
 20
-1.151768
 11
110.92257
 21
51.348233
  0
POINT
  8
寸法
 10
110.92257
 20
51.348233
  0
TEXT
  7
TextStyle03
  8
寸法
  6
CONTINUOUS
 10
110.525
 20
21.76875
  1
52.5
 40
3.0
 50
90.0
 72
     5
 11
110.525
 21
28.33125
  0
ENDBLK
  0
BLOCK
  2
*DIM_0032
 70
    65
 10
0.0
 20
0.0
  0
LINE
  8
寸法
  6
CONTINUOUS
 10
16.519563
 20
58.848233
 11
110.92257
 21
58.848233
  0
LINE
  8
寸法
  6
CONTINUOUS
 10
110.92257
 20
51.348233
 11
110.92257
 21
58.848233
  0
POINT
  8
寸法
 10
110.92257
 20
58.848233
  0
TEXT
  7
TextStyle03
  8
寸法
  6
CONTINUOUS
 10
110.525
 20
52.6125
  1
7.5
 40
3.0
 50
90.0
 72
     5
 11
110.525
 21
57.4875
  0
ENDBLK
  0
BLOCK
  2
*DIM_0033
 70
    65
 10
0.0
 20
0.0
  0
LINE
  8
寸法
  6
CONTINUOUS
 10
16.519563
 20
58.848233
 11
110.92257
 21
58.848233
  0
LINE
  8
寸法
  6
CONTINUOUS
 10
90.300815
 20
63.848235
 11
110.92257
 21
63.848235
  0
LINE
  8
寸法
  6
CONTINUOUS
 10
110.92257
 20
58.848233
 11
110.92257
 21
63.848235
  0
POINT
  8
寸法
 10
110.92257
 20
58.848233
  0
POINT
  8
寸法
 10
110.92257
 20
63.848235
  0
TEXT
  7
TextStyle03
  8
寸法
  6
CONTINUOUS
 10
110.525
 20
60.55
  1
5
 40
3.0
 50
90.0
 72
     5
 11
110.525
 21
62.05
  0
ENDBLK
  0
BLOCK
  2
*DIM_0034
 70
    65
 10
0.0
 20
0.0
  0
LINE
  8
寸法
  6
CONTINUOUS
 10
90.300815
 20
70.648237
 11
110.92257
 21
70.648237
  0
LINE
  8
寸法
  6
CONTINUOUS
 10
110.92257
 20
63.848235
 11
110.92257
 21
70.648237
  0
POINT
  8
寸法
 10
110.92257
 20
70.648237
  0
TEXT
  7
TextStyle03
  8
寸法
  6
CONTINUOUS
 10
110.525
 20
64.7625
  1
6.8
 40
3.0
 50
90.0
 72
     5
 11
110.525
 21
69.6375
  0
ENDBLK
  0
BLOCK
  2
*DIM_0035
 70
    65
 10
0.0
 20
0.0
  0
LINE
  8
寸法
  6
CONTINUOUS
 10
30.519557
 20
-10.351717
 11
110.92257
 21
-10.351717
  0
LINE
  8
寸法
  6
CONTINUOUS
 10
8.019557
 20
-24.851715
 11
110.92257
 21
-24.851715
  0
LINE
  8
寸法
  6
CONTINUOUS
 10
110.92257
 20
-10.351717
 11
110.92257
 21
-24.851715
  0
POINT
  8
寸法
 10
110.92257
 20
-10.351717
  0
POINT
  8
寸法
 10
110.92257
 20
-24.851715
  0
TEXT
  7
TextStyle03
  8
寸法
  6
CONTINUOUS
 10
110.525
 20
-20.93125
  1
14.5
 40
3.0
 50
90.0
 72
     5
 11
110.525
 21
-14.36875
  0
ENDBLK
  0
BLOCK
  2
*DIM_0036
 70
    65
 10
0.0
 20
0.0
  0
LINE
  8
寸法
  6
CONTINUOUS
 10
8.019557
 20
-24.851715
 11
110.92257
 21
-24.851715
  0
LINE
  8
寸法
  6
CONTINUOUS
 10
5.450468
 20
-40.35177
 11
110.92257
 21
-40.35177
  0
LINE
  8
寸法
  6
CONTINUOUS
 10
110.92257
 20
-24.851715
 11
110.92257
 21
-40.35177
  0
POINT
  8
寸法
 10
110.92257
 20
-24.851715
  0
POINT
  8
寸法
 10
110.92257
 20
-40.35177
  0
TEXT
  7
TextStyle03
  8
寸法
  6
CONTINUOUS
 10
110.525
 20
-35.93125
  1
15.5
 40
3.0
 50
90.0
 72
     5
 11
110.525
 21
-29.36875
  0
ENDBLK
  0
BLOCK
  2
*GRP_0037
 70
    65
 10
0.0
 20
0.0
  0
POLYLINE
  8
寸法
  6
BYBLOCK
 62
     0
 66
     1
  0
VERTEX
  8
寸法
 10
8.219698
 20
1.017763
  0
VERTEX
  8
寸法
 10
23.052012
 20
15.850078
  0
VERTEX
  8
寸法
 10
36.787107
 20
15.850078
  0
SEQEND
  0
ENDBLK
  0
BLOCK
  2
*GRP_0038
 70
    65
 10
0.0
 20
0.0
  0
LINE
  8
曲げ物
  6
CONTINUOUS
 62
   111
 10
-72.480437
 20
-60.15177
 11
-49.480443
 21
-60.15177
  0
ARC
  8
曲げ物
  6
CONTINUOUS
 62
   111
 10
-72.480439
 20
-58.151767
 40
2.0
 50
180.0
 51
270.0
  0
LINE
  8
曲げ物
  6
CONTINUOUS
 62
   111
 10
-72.480437
 20
-58.151768
 11
-49.480443
 21
-58.151768
  0
ARC
  8
曲げ物
  6
CONTINUOUS
 62
   111
 10
-49.480439
 20
-60.151767
 40
2.0
 50
0.0
 51
90.0
  0
LINE
  8
曲げ物
  6
CONTINUOUS
 62
   111
 10
-47.48044
 20
-60.15177
 11
-47.48044
 21
-73.151768
  0
LINE
  8
曲げ物
  6
CONTINUOUS
 62
   111
 10
-49.480443
 20
-60.15177
 11
-49.480443
 21
-73.151768
  0
LINE
  8
曲げ物
  6
CONTINUOUS
 62
   111
 10
-47.48044
 20
-73.151768
 11
-49.480443
 21
-73.151768
  0
LINE
  8
曲げ物
  6
CONTINUOUS
 62
   111
 10
-72.480437
 20
-37.151768
 11
-72.480437
 21
-58.151768
  0
ARC
  8
曲げ物
  6
CONTINUOUS
 62
   111
 10
-72.480439
 20
-37.151767
 40
2.0
 50
90.0
 51
180.0
  0
LINE
  8
曲げ物
  6
CONTINUOUS
 62
   111
 10
-74.48044
 20
-37.151768
 11
-74.48044
 21
-58.151768
  0
ARC
  8
曲げ物
  6
CONTINUOUS
 62
   111
 10
1.019561
 20
-35.151767
 40
0.95495
 50
90.0
 51
180.0
  0
ARC
  8
曲げ物
  6
CONTINUOUS
 62
   111
 10
1.019561
 20
-35.151767
 40
1.46775
 50
90.0
 51
180.0
  0
LINE
  8
曲げ物
  6
CONTINUOUS
 62
   111
 10
1.019563
 20
-35.151765
 11
1.019563
 21
-24.851715
  0
LINE
  8
曲げ物
  6
CONTINUOUS
 62
   111
 10
3.019557
 20
-37.151768
 11
3.019557
 21
-24.851715
  0
LINE
  8
曲げ物
  6
CONTINUOUS
 62
   111
 10
-72.480437
 20
-35.151765
 11
3.019557
 21
-35.151765
  0
LINE
  8
曲げ物
  6
CONTINUOUS
 62
   111
 10
-72.480437
 20
-37.151768
 11
3.019557
 21
-37.151768
  0
LINE
  8
曲げ物
  6
CONTINUOUS
 62
   111
 10
1.019563
 20
-24.851715
 11
3.019557
 21
-24.851715
  0
ENDBLK
  0
BLOCK
  2
*GRP_0039
 70
    65
 10
0.0
 20
0.0
  0
ARC
  8
St
  6
CONTINUOUS
 10
9.519552
 20
81.848243
 40
1.0
 50
0.0
 51
90.0
  0
LINE
  8
St
  6
CONTINUOUS
 10
10.519557
 20
81.848235
 11
10.519557
 21
80.84823
  0
ARC
  8
St
  6
CONTINUOUS
 10
9.519552
 20
80.848243
 40
1.0
 50
-90.0
 51
0.0
  0
LINE
  8
St
  6
CONTINUOUS
 10
-28.480443
 20
79.848233
 11
9.51956
 21
79.848233
  0
ARC
  8
St
  6
CONTINUOUS
 10
-28.480445
 20
80.848243
 40
1.0
 50
180.0
 51
270.0
  0
LINE
  8
St
  6
CONTINUOUS
 10
-29.48044
 20
81.848235
 11
-29.48044
 21
80.84823
  0
LINE
  8
St
  6
CONTINUOUS
 10
-28.480443
 20
82.848233
 11
9.51956
 21
82.848233
  0
ARC
  8
St
  6
CONTINUOUS
 10
-28.480445
 20
81.848243
 40
1.0
 50
90.0
 51
180.0
  0
LINE
  8
St
  6
CONTINUOUS
 10
10.519557
 20
80.95131
 11
9.41648
 21
79.848233
  0
LINE
  8
St
  6
CONTINUOUS
 10
10.105505
 20
82.658588
 11
7.29515
 21
79.848233
  0
LINE
  8
St
  6
CONTINUOUS
 10
3.93119
 20
82.848233
 11
0.93119
 21
79.848233
  0
LINE
  8
St
  6
CONTINUOUS
 10
6.05252
 20
82.848233
 11
3.05252
 21
79.848233
  0
LINE
  8
St
  6
CONTINUOUS
 10
8.173835
 20
82.848233
 11
5.173835
 21
79.848233
  0
LINE
  8
St
  6
CONTINUOUS
 10
-6.6754
 20
82.848233
 11
-9.6754
 21
79.848233
  0
LINE
  8
St
  6
CONTINUOUS
 10
-4.554085
 20
82.848233
 11
-7.554085
 21
79.848233
  0
LINE
  8
St
  6
CONTINUOUS
 10
-2.43277
 20
82.848233
 11
-5.43277
 21
79.848233
  0
LINE
  8
St
  6
CONTINUOUS
 10
-0.31144
 20
82.848233
 11
-3.31144
 21
79.848233
  0
LINE
  8
St
  6
CONTINUOUS
 10
1.809875
 20
82.848233
 11
-1.190125
 21
79.848233
  0
LINE
  8
St
  6
CONTINUOUS
 10
-13.039375
 20
82.848233
 11
-16.039375
 21
79.848233
  0
LINE
  8
St
  6
CONTINUOUS
 10
-10.918045
 20
82.848233
 11
-13.918045
 21
79.848233
  0
LINE
  8
St
  6
CONTINUOUS
 10
-8.79673
 20
82.848233
 11
-11.79673
 21
79.848233
  0
LINE
  8
St
  6
CONTINUOUS
 10
-23.645965
 20
82.848233
 11
-26.645965
 21
79.848233
  0
LINE
  8
St
  6
CONTINUOUS
 10
-21.52465
 20
82.848233
 11
-24.52465
 21
79.848233
  0
LINE
  8
St
  6
CONTINUOUS
 10
-19.403335
 20
82.848233
 11
-22.403335
 21
79.848233
  0
LINE
  8
St
  6
CONTINUOUS
 10
-17.282005
 20
82.848233
 11
-20.282005
 21
79.848233
  0
LINE
  8
St
  6
CONTINUOUS
 10
-15.16069
 20
82.848233
 11
-18.16069
 21
79.848233
  0
LINE
  8
St
  6
CONTINUOUS
 10
-25.767295
 20
82.848233
 11
-28.73449
 21
79.881037
  0
LINE
  8
St
  6
CONTINUOUS
 10
-27.88861
 20
82.848233
 11
-29.48044
 21
81.256402
  0
ENDBLK
  0
BLOCK
  2
*GRP_0040
 70
    65
 10
0.0
 20
0.0
  0
LINE
  8
St
  6
CONTINUOUS
 62
   127
 10
-37.480443
 20
-26.45172
 11
-0.580443
 21
-26.45172
  0
LINE
  8
St
  6
CONTINUOUS
 62
   127
 10
-0.580443
 20
-26.45172
 11
-0.580443
 21
-33.851715
  0
LINE
  8
St
  6
CONTINUOUS
 62
   127
 10
-0.580443
 20
-33.851715
 11
1.019563
 21
-33.851715
  0
LINE
  8
St
  6
CONTINUOUS
 62
   127
 10
-37.480443
 20
-24.851715
 11
-37.480443
 21
-26.45172
  0
LINE
  8
St
  6
CONTINUOUS
 62
   127
 10
-37.480443
 20
-24.851715
 11
-0.580443
 21
-24.851715
  0
LINE
  8
St
  6
CONTINUOUS
 62
   127
 10
1.019563
 20
-26.45172
 11
1.019563
 21
-33.851715
  0
ARC
  8
St
  6
CONTINUOUS
 62
   127
 10
-0.580439
 20
-26.451717
 40
1.6
 50
0.0
 51
90.0
  0
LINE
  8
St
  6
CONTINUOUS
 10
1.019563
 20
-30.376943
 11
-0.580443
 21
-31.976948
  0
LINE
  8
St
  6
CONTINUOUS
 10
1.019563
 20
-29.669842
 11
-0.580443
 21
-31.269848
  0
LINE
  8
St
  6
CONTINUOUS
 10
-26.733032
 20
-26.45172
 11
-25.133028
 21
-24.851715
  0
LINE
  8
St
  6
CONTINUOUS
 10
-26.025933
 20
-26.45172
 11
-24.425928
 21
-24.851715
  0
ENDBLK
  0
BLOCK
  2
*GRP_0041
 70
    65
 10
0.0
 20
0.0
  0
LINE
  8
St
  6
CONTINUOUS
 62
   127
 10
-47.48044
 20
-112.151768
 11
-44.280437
 21
-112.151768
  0
LINE
  8
St
  6
CONTINUOUS
 62
   127
 10
3.019557
 20
-10.351717
 11
6.21956
 21
-10.351717
  0
ARC
  8
St
  6
CONTINUOUS
 62
   127
 10
-44.280439
 20
-40.351767
 40
3.2
 50
90.0
 51
180.0
  0
LINE
  8
St
  6
CONTINUOUS
 62
   127
 10
-47.48044
 20
-40.35177
 11
-47.48044
 21
-112.151768
  0
LINE
  8
St
  6
CONTINUOUS
 62
   127
 10
-44.280437
 20
-40.35177
 11
-44.280437
 21
-112.151768
  0
LINE
  8
St
  6
CONTINUOUS
 62
   127
 10
3.019557
 20
-10.351717
 11
3.019557
 21
-37.151768
  0
LINE
  8
St
  6
CONTINUOUS
 62
   127
 10
-44.280437
 20
-37.151768
 11
3.019557
 21
-37.151768
  0
LINE
  8
St
  6
CONTINUOUS
 62
   127
 10
6.21956
 20
-10.351717
 11
6.21956
 21
-37.151768
  0
LINE
  8
St
  6
CONTINUOUS
 62
   127
 10
-44.280437
 20
-40.35177
 11
3.019557
 21
-40.35177
  0
ARC
  8
St
  6
CONTINUOUS
 62
   127
 10
3.019562
 20
-37.151766
 40
3.2
 50
-90.0
 51
0.0
  0
LINE
  8
St
  6
CONTINUOUS
 10
-44.280437
 20
-44.706225
 11
-47.48044
 21
-47.906228
  0
LINE
  8
St
  6
CONTINUOUS
 10
-44.280437
 20
-43.999125
 11
-47.48044
 21
-47.199128
  0
LINE
  8
St
  6
CONTINUOUS
 10
-37.43308
 20
-37.151768
 11
-40.633083
 21
-40.35177
  0
LINE
  8
St
  6
CONTINUOUS
 10
-36.72598
 20
-37.151768
 11
-39.925983
 21
-40.35177
  0
LINE
  8
St
  6
CONTINUOUS
 10
-5.755263
 20
-37.151768
 11
-8.955265
 21
-40.35177
  0
LINE
  8
St
  6
CONTINUOUS
 10
-44.280437
 20
-75.676943
 11
-47.48044
 21
-78.876945
  0
LINE
  8
St
  6
CONTINUOUS
 10
-6.462363
 20
-37.151768
 11
-9.662365
 21
-40.35177
  0
LINE
  8
St
  6
CONTINUOUS
 10
-44.280437
 20
-74.969842
 11
-47.48044
 21
-78.169845
  0
LINE
  8
St
  6
CONTINUOUS
 10
3.019557
 20
-27.669848
 11
6.21956
 21
-24.469845
  0
LINE
  8
St
  6
CONTINUOUS
 10
3.019557
 20
-28.376948
 11
6.21956
 21
-25.176945
  0
ENDBLK
  0
BLOCK
  2
*GRP_0042
 70
    65
 10
0.0
 20
0.0
  0
LINE
  8
曲げ物
  6
DOT
 10
0.019557
 20
2.64828
 11
0.019557
 21
14.148278
  0
LINE
  8
曲げ物
  6
DOT
 10
0.019557
 20
14.148278
 11
1.019563
 21
14.148278
  0
LINE
  8
曲げ物
  6
DOT
 10
9.51956
 20
-7.85172
 11
10.519557
 21
-7.85172
  0
LINE
  8
曲げ物
  6
DOT
 10
9.51956
 20
-7.85172
 11
9.51956
 21
2.64828
  0
LINE
  8
曲げ物
  6
DOT
 10
0.019557
 20
2.64828
 11
9.51956
 21
2.64828
  0
LINE
  8
曲げ物
  6
DOT
 10
10.519557
 20
-7.85172
 11
10.519557
 21
3.648278
  0
LINE
  8
曲げ物
  6
DOT
 10
10.519557
 20
3.648278
 11
1.019563
 21
3.648278
  0
LINE
  8
曲げ物
  6
DOT
 10
1.019563
 20
14.148278
 11
1.019563
 21
3.648278
  0
ENDBLK
  0
BLOCK
  2
*GRP_0043
 70
    65
 10
0.0
 20
0.0
  0
LINE
  8
ボルト／ビス
  6
CONTINUOUS
 62
    64
 10
-90.980295
 20
-108.65892
 11
-90.27327
 21
-107.951393
  0
LINE
  8
ボルト／ビス
  6
CONTINUOUS
 62
    64
 10
-90.980295
 20
-108.65892
 11
-90.980295
 21
-114.951368
  0
LINE
  8
ボルト／ビス
  6
CONTINUOUS
 62
    64
 10
-90.980295
 20
-108.65892
 11
-91.68732
 21
-107.951393
  0
LINE
  8
ボルト／ビス
  6
CONTINUOUS
 62
    64
 10
-90.77319
 20
-102.951623
 11
-90.77319
 21
-107.951393
  0
LINE
  8
ボルト／ビス
  6
CONTINUOUS
 62
    64
 10
-95.48034
 20
-114.951368
 11
-95.48034
 21
-117.451493
  0
LINE
  8
ボルト／ビス
  6
CONTINUOUS
 62
    64
 10
-90.980295
 20
-108.65892
 11
-90.27327
 21
-107.951393
  0
LINE
  8
ボルト／ビス
  6
CONTINUOUS
 62
    64
 10
-84.04104
 20
-108.65892
 11
-83.334015
 21
-107.951393
  0
LINE
  8
ボルト／ビス
  6
CONTINUOUS
 62
    64
 10
-84.04104
 20
-108.65892
 11
-84.04104
 21
-114.951368
  0
LINE
  8
ボルト／ビス
  6
CONTINUOUS
 62
    64
 10
-84.04104
 20
-108.65892
 11
-84.748065
 21
-107.951393
  0
LINE
  8
ボルト／ビス
  6
CONTINUOUS
 62
    64
 10
-84.187515
 20
-102.951623
 11
-84.187515
 21
-107.951393
  0
LINE
  8
ボルト／ビス
  6
CONTINUOUS
 62
    64
 10
-79.480245
 20
-114.951368
 11
-79.480245
 21
-117.451493
  0
LINE
  8
ボルト／ビス
  6
CONTINUOUS
 62
    64
 10
-83.480468
 20
-103.658648
 11
-84.187515
 21
-102.951623
  0
LINE
  8
ボルト／ビス
  6
CONTINUOUS
 62
    64
 10
-83.480468
 20
-107.951393
 11
-83.480468
 21
-103.658648
  0
LINE
  8
ボルト／ビス
  6
CONTINUOUS
 62
    64
 10
-84.187515
 20
-102.951623
 11
-90.77319
 21
-102.951623
  0
LINE
  8
ボルト／ビス
  6
CONTINUOUS
 62
    64
 10
-90.77319
 20
-102.951623
 11
-91.480515
 21
-103.658648
  0
LINE
  8
ボルト／ビス
  6
CONTINUOUS
 62
    64
 10
-83.480468
 20
-103.658648
 11
-91.480515
 21
-103.658648
  0
LINE
  8
ボルト／ビス
  6
CONTINUOUS
 62
    64
 10
-91.480515
 20
-107.951393
 11
-91.480515
 21
-103.658648
  0
LINE
  8
ボルト／ビス
  6
CONTINUOUS
 62
    64
 10
-96.28032
 20
-108.65892
 11
-95.573295
 21
-107.951393
  0
LINE
  8
ボルト／ビス
  6
CONTINUOUS
 62
    64
 10
-96.28032
 20
-108.65892
 11
-96.28032
 21
-114.951368
  0
LINE
  8
ボルト／ビス
  6
CONTINUOUS
 62
    64
 10
-95.573295
 20
-107.951393
 11
-79.38759
 21
-107.951393
  0
LINE
  8
ボルト／ビス
  6
CONTINUOUS
 62
    64
 10
-78.680565
 20
-108.65892
 11
-79.38759
 21
-107.951393
  0
LINE
  8
ボルト／ビス
  6
CONTINUOUS
 62
    64
 10
-78.680565
 20
-108.65892
 11
-78.680565
 21
-114.951368
  0
LINE
  8
ボルト／ビス
  6
CONTINUOUS
 62
    64
 10
-96.28032
 20
-114.951368
 11
-78.680565
 21
-114.951368
  0
LINE
  8
ボルト／ビス
  6
CONTINUOUS
 62
    64
 10
-77.73027
 20
-117.451493
 11
-77.73027
 21
-118.95177
  0
LINE
  8
ボルト／ビス
  6
CONTINUOUS
 62
    64
 10
-77.73027
 20
-117.451493
 11
-97.230443
 21
-117.451493
  0
LINE
  8
ボルト／ビス
  6
CONTINUOUS
 62
    64
 10
-97.230443
 20
-117.451493
 11
-97.230443
 21
-118.95177
  0
LINE
  8
ボルト／ビス
  6
CONTINUOUS
 62
    64
 10
-77.73027
 20
-118.95177
 11
-97.230443
 21
-118.95177
  0
LINE
  8
ボルト／ビス
  6
CONTINUOUS
 62
    64
 10
-91.480515
 20
-118.95177
 11
-91.480515
 21
-133.5
  0
LINE
  8
ボルト／ビス
  6
CONTINUOUS
 62
    64
 10
-87.480443
 20
-100.750245
 11
-87.480443
 21
-133.5
  0
LINE
  8
ボルト／ビス
  6
CONTINUOUS
 62
    64
 10
-83.480468
 20
-118.95177
 11
-83.480468
 21
-133.5
  0
LINE
  8
ボルト／ビス
  6
CONTINUOUS
 62
    64
 10
-84.187515
 20
-118.95177
 11
-84.187515
 21
-133.5
  0
LINE
  8
ボルト／ビス
  6
CONTINUOUS
 62
    64
 10
-90.77319
 20
-118.95177
 11
-90.77319
 21
-133.5
  0
ENDBLK
  0
BLOCK
  2
*GRP_0044
 70
    65
 10
0.0
 20
0.0
  0
LINE
  8
曲げ物
  6
CONTINUOUS
 10
-172.480477
 20
-128.293942
 11
-162.48045
 21
-128.293942
  0
LINE
  8
曲げ物
  6
CONTINUOUS
 10
-162.48045
 20
-128.293942
 11
-162.48043
 21
-133.5
  0
LINE
  8
曲げ物
  6
DOT
 10
-163.480425
 20
-128.293942
 11
-163.480412
 21
-133.5
  0
LINE
  8
曲げ物
  6
CONTINUOUS
 10
-172.480477
 20
-128.293942
 11
-172.48046
 21
-133.5
  0
LINE
  8
曲げ物
  6
DOT
 10
-171.480375
 20
-128.294017
 11
-171.480368
 21
-133.5
  0
ENDBLK
  0
BLOCK
  2
*DIM_0045
 70
    65
 10
0.0
 20
0.0
  0
LINE
  8
寸法
  6
CONTINUOUS
 10
-77.480437
 20
-60.15177
 11
-135.52946
 21
-60.15177
  0
LINE
  8
寸法
  6
CONTINUOUS
 10
-78.316842
 20
-74.87712
 11
-135.52946
 21
-74.87712
  0
LINE
  8
寸法
  6
CONTINUOUS
 10
-135.52946
 20
-60.15177
 11
-135.52946
 21
-74.87712
  0
POINT
  8
寸法
 10
-135.52946
 20
-60.15177
  0
POINT
  8
寸法
 10
-135.52946
 20
-74.87712
  0
TEXT
  7
TextStyle03
  8
寸法
  6
CONTINUOUS
 10
-135.925
 20
-70.80625
  1
14.7
 40
3.0
 50
90.0
 72
     5
 11
-135.925
 21
-64.24375
  0
ENDBLK
  0
BLOCK
  2
*DIM_0046
 70
    65
 10
0.0
 20
0.0
  0
LINE
  8
寸法
  6
CONTINUOUS
 10
6.641415
 20
-40.35177
 11
110.92257
 21
-40.35177
  0
LINE
  8
寸法
  6
CONTINUOUS
 10
-44.480447
 20
-60.15177
 11
110.92257
 21
-60.15177
  0
LINE
  8
寸法
  6
CONTINUOUS
 10
110.92257
 20
-40.35177
 11
110.92257
 21
-60.15177
  0
POINT
  8
寸法
 10
110.92257
 20
-40.35177
  0
POINT
  8
寸法
 10
110.92257
 20
-60.15177
  0
TEXT
  7
TextStyle03
  8
寸法
  6
CONTINUOUS
 10
110.525
 20
-53.55625
  1
19.8
 40
3.0
 50
90.0
 72
     5
 11
110.525
 21
-46.99375
  0
ENDBLK
  0
BLOCK
  2
*DIM_0047
 70
    65
 10
0.0
 20
0.0
  0
LINE
  8
寸法
  6
CONTINUOUS
 10
-74.48044
 20
-33.019973
 11
-74.48044
 21
111.752793
  0
LINE
  8
寸法
  6
CONTINUOUS
 10
-54.480437
 20
111.752793
 11
-74.48044
 21
111.752793
  0
POINT
  8
寸法
 10
-74.48044
 20
111.752793
  0
TEXT
  7
TextStyle03
  8
寸法
  6
CONTINUOUS
 10
-64.24375
 20
112.275
  1
20
 40
3.0
 72
     5
 11
-61.05625
 21
112.275
  0
ENDBLK
  0
BLOCK
  2
*DIM_0048
 70
    65
 10
0.0
 20
0.0
  0
LINE
  8
寸法
  6
CONTINUOUS
 10
-74.48044
 20
-32.80445
 11
-74.48044
 21
121.752793
  0
LINE
  8
寸法
  6
CONTINUOUS
 10
10.51955
 20
121.752793
 11
-74.48044
 21
121.752793
  0
POINT
  8
寸法
 10
10.51955
 20
121.752793
  0
POINT
  8
寸法
 10
-74.48044
 20
121.752793
  0
TEXT
  7
TextStyle03
  8
寸法
  6
CONTINUOUS
 10
-33.59375
 20
122.125
  1
85
 40
3.0
 72
     5
 11
-30.40625
 21
122.125
  0
ENDBLK
  0
BLOCK
  2
*GRP_0049
 70
    65
 10
0.0
 20
0.0
  0
POLYLINE
  8
寸法
  6
CONTINUOUS
 66
     1
  0
VERTEX
  8
寸法
 10
-12.116712
 20
89.85788
  0
VERTEX
  8
寸法
 10
-26.171338
 20
97.02514
  0
VERTEX
  8
寸法
 10
-81.852365
 20
97.02514
  0
SEQEND
  0
ENDBLK
  0
BLOCK
  2
*GRP_0050
 70
    65
 10
0.0
 20
0.0
  0
POLYLINE
  8
寸法
  6
CONTINUOUS
 66
     1
  0
VERTEX
  8
寸法
 10
-73.374187
 20
-44.75985
  0
VERTEX
  8
寸法
 10
-84.96454
 20
-53.29151
  0
VERTEX
  8
寸法
 10
-99.767065
 20
-53.29151
  0
SEQEND
  0
ENDBLK
  0
BLOCK
  2
*GRP_0051
 70
    65
 10
0.0
 20
0.0
  0
POLYLINE
  8
寸法
  6
CONTINUOUS
 66
     1
  0
VERTEX
  8
寸法
 10
55.79348
 20
68.440343
  0
VERTEX
  8
寸法
 10
66.184657
 20
90.399057
  0
VERTEX
  8
寸法
 10
81.183243
 20
90.399057
  0
SEQEND
  0
ENDBLK
  0
BLOCK
  2
*GRP_0052
 70
    65
 10
0.0
 20
0.0
  0
POLYLINE
  8
寸法
  6
CONTINUOUS
 66
     1
  0
VERTEX
  8
寸法
 10
-18.04556
 20
-38.581573
  0
VERTEX
  8
寸法
 10
-2.670565
 20
-71.003283
  0
VERTEX
  8
寸法
 10
33.042143
 20
-71.003283
  0
SEQEND
  0
ENDBLK
  0
BLOCK
  2
*GRP_0053
 70
    65
 10
0.0
 20
0.0
  0
POLYLINE
  8
寸法
  6
CONTINUOUS
 66
     1
  0
VERTEX
  8
寸法
 10
-52.400285
 20
-31.626285
  0
VERTEX
  8
寸法
 10
-61.756
 20
-19.041
  0
VERTEX
  8
寸法
 10
-84.348565
 20
-19.041
  0
SEQEND
  0
ENDBLK
  0
BLOCK
  2
*GRP_0054
 70
    65
 10
0.0
 20
0.0
  0
POLYLINE
  8
寸法
  6
CONTINUOUS
 66
     1
  0
VERTEX
  8
寸法
 10
32.288142
 20
116.236715
  0
VERTEX
  8
寸法
 10
42.497
 20
103.29243
  0
VERTEX
  8
寸法
 10
54.443855
 20
103.29243
  0
SEQEND
  0
ENDBLK
  0
BLOCK
  2
*DIM_0055
 70
    65
 10
0.0
 20
0.0
  0
LINE
  8
寸法
  6
CONTINUOUS
 10
-59.480437
 20
-24.851715
 11
-135.52946
 21
-24.851715
  0
LINE
  8
寸法
  6
CONTINUOUS
 10
-44.480445
 20
85.851817
 11
-135.52946
 21
85.851817
  0
LINE
  8
寸法
  6
CONTINUOUS
 10
-135.52946
 20
-24.851715
 11
-135.52946
 21
85.851817
  0
POINT
  8
寸法
 10
-135.52946
 20
-24.851715
  0
POINT
  8
寸法
 10
-135.52946
 20
85.851817
  0
TEXT
  7
TextStyle03
  8
寸法
  6
CONTINUOUS
 10
-135.925
 20
26.375
  1
110.7
 40
3.0
 50
90.0
 72
     5
 11
-135.925
 21
34.625
  0
ENDBLK
  0
BLOCK
  2
*GRP_0056
 70
    65
 10
0.0
 20
0.0
  0
POLYLINE
  8
寸法
  6
CONTINUOUS
 66
     1
  0
VERTEX
  8
寸法
 10
-20.398232
 20
81.815877
  0
VERTEX
  8
寸法
 10
-31.42045
 20
88.802227
  0
VERTEX
  8
寸法
 10
-81.765492
 20
88.802227
  0
SEQEND
  0
ENDBLK
  0
BLOCK
  2
*DIM_0057
 70
    65
 10
0.0
 20
0.0
  0
LINE
  8
寸法
  6
CONTINUOUS
 10
-59.480437
 20
-24.851715
 11
-122.40797
 21
-24.851715
  0
LINE
  8
寸法
  6
CONTINUOUS
 10
-37.48044
 20
25.848233
 11
-122.40797
 21
25.848233
  0
LINE
  8
寸法
  6
CONTINUOUS
 10
-122.40797
 20
-24.851715
 11
-122.40797
 21
25.848233
  0
POINT
  8
寸法
 10
-122.40797
 20
-24.851715
  0
POINT
  8
寸法
 10
-122.40797
 20
25.848233
  0
TEXT
  7
TextStyle03
  8
寸法
  6
CONTINUOUS
 10
-122.8
 20
-2.80625
  1
50.7
 40
3.0
 50
90.0
 72
     5
 11
-122.8
 21
3.75625
  0
ENDBLK
  0
BLOCK
  2
*DIM_0058
 70
    65
 10
0.0
 20
0.0
  0
LINE
  8
寸法
  6
CONTINUOUS
 10
-56.480422
 20
55.851817
 11
-122.40797
 21
55.851817
  0
LINE
  8
寸法
  6
CONTINUOUS
 10
-122.40797
 20
25.848233
 11
-122.40797
 21
55.851817
  0
POINT
  8
寸法
 10
-122.40797
 20
55.851817
  0
TEXT
  7
TextStyle03
  8
寸法
  6
CONTINUOUS
 10
-122.8
 20
39.25625
  1
30
 40
3.0
 50
90.0
 72
     5
 11
-122.8
 21
42.44375
  0
ENDBLK
  0
BLOCK
  2
*DIM_0059
 70
    65
 10
0.0
 20
0.0
  0
LINE
  8
寸法
  6
CONTINUOUS
 10
-44.480445
 20
85.851817
 11
-122.40797
 21
85.851817
  0
LINE
  8
寸法
  6
CONTINUOUS
 10
-122.40797
 20
55.851817
 11
-122.40797
 21
85.851817
  0
POINT
  8
寸法
 10
-122.40797
 20
85.851817
  0
TEXT
  7
TextStyle03
  8
寸法
  6
CONTINUOUS
 10
-122.8
 20
69.25625
  1
30
 40
3.0
 50
90.0
 72
     5
 11
-122.8
 21
72.44375
  0
ENDBLK
  0
BLOCK
  2
*DIM_0060
 70
    65
 10
0.0
 20
0.0
  0
LINE
  8
寸法
  6
CONTINUOUS
 10
-59.480437
 20
-24.851715
 11
-111.098927
 21
-24.851715
  0
LINE
  8
寸法
  6
CONTINUOUS
 10
-59.480437
 20
-12.851715
 11
-111.098927
 21
-12.851715
  0
LINE
  8
寸法
  6
CONTINUOUS
 10
-111.098927
 20
-24.851715
 11
-111.098927
 21
-12.851715
  0
POINT
  8
寸法
 10
-111.098927
 20
-24.851715
  0
POINT
  8
寸法
 10
-111.098927
 20
-12.851715
  0
TEXT
  7
TextStyle03
  8
寸法
  6
CONTINUOUS
 10
-111.475
 20
-20.46875
  1
12
 40
3.0
 50
90.0
 72
     5
 11
-111.475
 21
-17.28125
  0
ENDBLK
  0
BLOCK
  2
*DIM_0061
 70
    65
 10
0.0
 20
0.0
  0
LINE
  8
寸法
  6
CONTINUOUS
 10
-23.98044
 20
-7.85172
 11
-111.098927
 21
-7.85172
  0
LINE
  8
寸法
  6
CONTINUOUS
 10
-111.098927
 20
-12.851715
 11
-111.098927
 21
-7.85172
  0
POINT
  8
寸法
 10
-111.098927
 20
-7.85172
  0
TEXT
  7
TextStyle03
  8
寸法
  6
CONTINUOUS
 10
-111.475
 20
-11.125
  1
5
 40
3.0
 50
90.0
 72
     5
 11
-111.475
 21
-9.625
  0
ENDBLK
  0
BLOCK
  2
*DIM_0062
 70
    65
 10
0.0
 20
0.0
  0
LINE
  8
寸法
  6
CONTINUOUS
 10
-37.48044
 20
25.848233
 11
-111.098927
 21
25.848233
  0
LINE
  8
寸法
  6
CONTINUOUS
 10
-111.098927
 20
-7.85172
 11
-111.098927
 21
25.848233
  0
POINT
  8
寸法
 10
-111.098927
 20
25.848233
  0
TEXT
  7
TextStyle03
  8
寸法
  6
CONTINUOUS
 10
-111.475
 20
5.69375
  1
33.7
 40
3.0
 50
90.0
 72
     5
 11
-111.475
 21
12.25625
  0
ENDBLK
  0
BLOCK
  2
*GRP_0063
 70
    65
 10
0.0
 20
0.0
  0
ARC
  8
St
  6
CONTINUOUS
 62
   127
 10
-50.680457
 20
-118.951765
 40
3.2
 50
-90.0
 51
0.0
  0
LINE
  8
St
  6
CONTINUOUS
 10
-135.12205
 20
-118.951763
 11
-138.322045
 21
-122.151765
  0
LINE
  8
St
  6
CONTINUOUS
 10
-135.829165
 20
-118.951763
 11
-139.02916
 21
-122.151765
  0
LINE
  8
St
  6
CONTINUOUS
 62
   127
 10
-50.680443
 20
-118.951763
 11
-147.480437
 21
-118.951763
  0
LINE
  8
St
  6
CONTINUOUS
 10
-147.480437
 20
-118.951763
 11
-147.480437
 21
-122.151765
  0
LINE
  8
St
  6
CONTINUOUS
 62
   127
 10
-50.680443
 20
-122.151765
 11
-147.480437
 21
-122.151765
  0
LINE
  8
St
  6
CONTINUOUS
 10
-71.875472
 20
-122.151765
 11
-68.675478
 21
-118.951763
  0
LINE
  8
St
  6
CONTINUOUS
 10
-72.582588
 20
-122.151765
 11
-69.382593
 21
-118.951763
  0
LINE
  8
St
  6
CONTINUOUS
 10
-50.680443
 20
-87.903442
 11
-47.48044
 21
-84.703432
  0
LINE
  8
St
  6
CONTINUOUS
 10
-50.680443
 20
-87.196328
 11
-47.48044
 21
-83.996317
  0
LINE
  8
St
  6
CONTINUOUS
 10
-50.680443
 20
-82.15176
 11
-47.48044
 21
-82.15176
  0
LINE
  8
St
  6
CONTINUOUS
 62
   127
 10
-47.48044
 20
-118.951763
 11
-47.48044
 21
-82.15176
  0
LINE
  8
St
  6
CONTINUOUS
 62
   127
 10
-50.680443
 20
-118.951763
 11
-50.680443
 21
-82.15176
  0
LINE
  8
St
  6
DOT
 10
-42.633317
 20
-97.15176
 11
-55.28206
 21
-97.15176
  0
LINE
  8
St
  6
DOT
 62
   127
 10
-99.245635
 20
-124.747148
 11
-99.245635
 21
-124.74714
  0
LINE
  8
St
  6
DOT
 10
-77.48044
 20
-118.951763
 11
-77.48044
 21
-122.151765
  0
LINE
  8
St
  6
DOT
 10
-97.480435
 20
-118.951763
 11
-97.480435
 21
-122.151765
  0
LINE
  8
St
  6
DOT
 10
-112.480435
 20
-118.951763
 11
-112.480435
 21
-122.151765
  0
LINE
  8
St
  6
DOT
 10
-122.48044
 20
-118.951763
 11
-122.48044
 21
-122.151765
  0
LINE
  8
St
  6
DOT
 10
-87.480437
 20
-114.887828
 11
-87.480437
 21
-126.366428
  0
LINE
  8
St
  6
DOT
 62
   127
 10
-97.480435
 20
-119.751765
 11
-77.48044
 21
-119.751765
  0
LINE
  8
St
  6
DOT
 62
   127
 10
-97.480435
 20
-120.55176
 11
-77.48044
 21
-120.55176
  0
LINE
  8
St
  6
DOT
 62
   127
 10
-97.480435
 20
-121.351763
 11
-77.48044
 21
-121.351763
  0
LINE
  8
St
  6
DOT
 10
-112.480435
 20
-119.751765
 11
-122.48044
 21
-119.751765
  0
LINE
  8
St
  6
DOT
 10
-112.480435
 20
-120.55176
 11
-122.48044
 21
-120.55176
  0
LINE
  8
St
  6
DOT
 10
-112.480435
 20
-121.351763
 11
-122.48044
 21
-121.351763
  0
LINE
  8
St
  6
DOT
 10
-117.480437
 20
-114.887828
 11
-117.480437
 21
-126.366428
  0
LINE
  8
St
  6
DOT
 10
-47.48044
 20
-118.951763
 11
-50.680443
 21
-118.951763
  0
LINE
  8
St
  6
DOT
 10
-47.48044
 20
-87.151755
 11
-50.680443
 21
-87.151755
  0
LINE
  8
St
  6
DOT
 10
-50.680443
 20
-100.15176
 11
-47.48044
 21
-100.15176
  0
LINE
  8
St
  6
DOT
 10
-50.680443
 20
-94.15176
 11
-47.48044
 21
-94.15176
  0
LINE
  8
St
  6
DOT
 62
   127
 10
-49.88044
 20
-118.951763
 11
-49.88044
 21
-87.151755
  0
LINE
  8
St
  6
DOT
 62
   127
 10
-49.080445
 20
-118.951763
 11
-49.080445
 21
-87.151755
  0
LINE
  8
St
  6
DOT
 62
   127
 10
-48.280443
 20
-118.951763
 11
-48.280443
 21
-87.151755
  0
ENDBLK
  0
ENDSEC
  0
SECTION
  2
ENTITIES
  0
POLYLINE
  8
通り芯
  6
CONTINUOUS
 66
     1
 70
     1
  0
VERTEX
  8
通り芯
 10
-210.0
 20
-148.5
  0
VERTEX
  8
通り芯
 10
210.0
 20
-148.5
  0
VERTEX
  8
通り芯
 10
210.0
 20
148.5
  0
VERTEX
  8
通り芯
 10
-210.0
 20
148.5
  0
SEQEND
  0
LINE
  8
型材断面
  6
CONTINUOUS
 10
195.0
 20
133.5
 11
195.0
 21
-133.5
  0
LINE
  8
型材断面
  6
CONTINUOUS
 10
195.0
 20
-133.5
 11
-185.0
 21
-133.5
  0
LINE
  8
型材断面
  6
CONTINUOUS
 10
-185.0
 20
-133.5
 11
-185.0
 21
133.5
  0
LINE
  8
型材断面
  6
CONTINUOUS
 10
195.0
 20
133.5
 11
-185.0
 21
133.5
  0
LINE
  8
型材断面
  6
CONTINUOUS
 10
145.0
 20
-133.5
 11
145.0
 21
-118.5
  0
LINE
  8
型材断面
  6
CONTINUOUS
 10
195.0
 20
-118.5
 11
145.0
 21
-118.5
  0
LINE
  8
型材断面
  6
DOT
 10
0.019557
 20
-7.85172
 11
-1.980445
 21
-7.85172
  0
LINE
  8
型材断面
  6
DOT
 10
0.019557
 20
0.148275
 11
-1.980445
 21
0.148275
  0
LINE
  8
型材断面
  6
DOT
 10
-16.980445
 20
-7.85172
 11
-18.98044
 21
-7.85172
  0
LINE
  8
型材断面
  6
DOT
 10
-16.980445
 20
0.148275
 11
-18.98044
 21
0.148275
  0
LINE
  8
型材断面
  6
DOT
 10
-17.48044
 20
-7.85172
 11
-17.48044
 21
0.148275
  0
LINE
  8
型材断面
  6
DOT
 10
-17.980443
 20
-7.85172
 11
-17.980443
 21
0.148275
  0
LINE
  8
型材断面
  6
DOT
 10
-18.480445
 20
-7.85172
 11
-18.480445
 21
0.148275
  0
LINE
  8
型材断面
  6
DOT
 10
-0.480445
 20
-7.85172
 11
-0.480445
 21
0.148275
  0
LINE
  8
型材断面
  6
DOT
 10
-0.98044
 20
-7.85172
 11
-0.98044
 21
0.148275
  0
LINE
  8
型材断面
  6
DOT
 10
-1.480443
 20
-7.85172
 11
-1.480443
 21
0.148275
  0
LINE
  8
型材断面
  6
DOT
 10
-5.85544
 20
-7.85172
 11
-5.85544
 21
-6.151725
  0
LINE
  8
型材断面
  6
DOT
 10
-6.23044
 20
-7.85172
 11
-6.23044
 21
-6.151725
  0
LINE
  8
型材断面
  6
DOT
 10
-6.60544
 20
-7.85172
 11
-6.60544
 21
-6.151725
  0
LINE
  8
型材断面
  6
DOT
 10
-6.98044
 20
-7.85172
 11
-5.48044
 21
-7.85172
  0
INSERT
  2
*GRP_0001
  8
型材断面
  6
DOT
 62
    47
 10
0.0
 20
0.0
  0
INSERT
  2
*GRP_0002
  8
型材断面
  6
DASHDOT
 62
    47
 10
0.0
 20
0.0
  0
INSERT
  2
*GRP_0003
  8
型材断面
  6
DASHDOT
 62
    47
 10
0.0
 20
0.0
  0
LINE
  8
型材断面
  6
DASHDOT
 10
10.51955
 20
51.348233
 11
10.51955
 21
121.752793
  0
POLYLINE
  8
型材断面
  6
CONTINUOUS
 66
     1
  0
VERTEX
  8
型材断面
 10
93.399645
 20
121.752793
  0
VERTEX
  8
型材断面
 10
86.836593
 20
123.54195
  0
VERTEX
  8
型材断面
 10
86.836593
 20
121.752793
  0
SEQEND
  0
POLYLINE
  8
型材断面
  6
CONTINUOUS
 66
     1
  0
VERTEX
  8
型材断面
 10
90.730398
 20
121.752793
  0
VERTEX
  8
型材断面
 10
84.167345
 20
123.54195
  0
VERTEX
  8
型材断面
 10
84.167345
 20
121.752793
  0
SEQEND
  0
LINE
  8
型材断面
  6
CONTINUOUS
 10
10.51955
 20
121.752793
 11
93.399645
 21
121.752793
  0
LINE
  8
型材断面
  6
CONTINUOUS
 62
    47
 10
-9.480443
 20
-122.151765
 11
-149.480452
 21
-122.151765
  0
LINE
  8
型材断面
  6
CONTINUOUS
 62
    47
 10
-149.480452
 20
-122.151765
 11
-159.48045
 21
-122.151765
  0
LINE
  8
型材断面
  6
CONTINUOUS
 62
    47
 10
9.019552
 20
-10.351717
 11
9.019552
 21
-133.5
  0
LINE
  8
型材断面
  6
CONTINUOUS
 62
    47
 10
19.51956
 20
-10.351717
 11
19.51956
 21
-133.5
  0
LINE
  8
型材断面
  6
CONTINUOUS
 62
    47
 10
20.519557
 20
-10.351717
 11
20.519557
 21
-133.5
  0
LINE
  8
型材断面
  6
CONTINUOUS
 62
    47
 10
8.019555
 20
-10.351717
 11
8.019555
 21
-133.5
  0
LINE
  8
型材断面
  6
CONTINUOUS
 62
    47
 10
-9.480443
 20
-122.151765
 11
-9.480443
 21
-133.5
  0
LINE
  8
型材断面
  6
CONTINUOUS
 62
    47
 10
-149.480452
 20
-122.151765
 11
-149.480452
 21
-133.5
  0
LINE
  8
型材断面
  6
CONTINUOUS
 62
    47
 10
-159.48045
 20
-122.151765
 11
-159.48045
 21
-133.5
  0
LINE
  8
型材断面
  6
CONTINUOUS
 10
-50.980447
 20
-65.651768
 11
-51.280447
 21
-65.351768
  0
LINE
  8
型材断面
  6
CONTINUOUS
 10
-50.980447
 20
-65.651768
 11
-51.280447
 21
-65.951768
  0
LINE
  8
型材断面
  6
CONTINUOUS
 10
-166.553107
 20
-89.351707
 11
-177.680452
 21
-90.865635
  0
LINE
  8
型材断面
  6
CONTINUOUS
 10
-106.586678
 20
-81.193012
 11
-165.066795
 21
-89.149492
  0
LINE
  8
型材断面
  6
CONTINUOUS
 10
-105.100372
 20
-80.990798
 11
-50.980447
 21
-73.627538
  0
LINE
  8
型材断面
  6
CONTINUOUS
 10
-179.480445
 20
-89.29395
 11
-51.280447
 21
-71.85177
  0
LINE
  8
型材断面
  6
CONTINUOUS
 10
-49.480447
 20
-60.15177
 11
-51.280447
 21
-60.15177
  0
LINE
  8
型材断面
  6
CONTINUOUS
 10
-51.280447
 20
-71.85177
 11
-51.280447
 21
-65.951768
  0
LINE
  8
型材断面
  6
CONTINUOUS
 10
-51.280447
 20
-65.351768
 11
-51.280447
 21
-60.15177
  0
LINE
  8
型材断面
  6
CONTINUOUS
 10
-164.819167
 20
-90.932385
 11
-161.053838
 21
-90.420097
  0
LINE
  8
型材断面
  6
CONTINUOUS
 10
-161.053838
 20
-90.420097
 11
-160.847483
 21
-91.905847
  0
LINE
  8
型材断面
  6
CONTINUOUS
 10
-160.847483
 20
-91.905847
 11
-166.099118
 21
-92.620357
  0
LINE
  8
型材断面
  6
CONTINUOUS
 10
-106.350097
 20
-82.97739
 11
-110.11542
 21
-83.489678
  0
LINE
  8
型材断面
  6
CONTINUOUS
 10
-110.11542
 20
-83.489678
 11
-109.917338
 21
-84.976552
  0
LINE
  8
型材断面
  6
CONTINUOUS
 10
-109.917338
 20
-84.976552
 11
-104.665703
 21
-84.262043
  0
LINE
  8
型材断面
  6
CONTINUOUS
 10
-164.81751
 20
-90.93216
 11
-165.065138
 21
-89.149268
  0
LINE
  8
型材断面
  6
CONTINUOUS
 10
-166.097468
 20
-92.620132
 11
-166.551458
 21
-89.351483
  0
LINE
  8
型材断面
  6
CONTINUOUS
 10
-106.350097
 20
-82.97739
 11
-106.587788
 21
-81.193163
  0
LINE
  8
型材断面
  6
CONTINUOUS
 10
-104.665703
 20
-84.262043
 11
-105.101475
 21
-80.990948
  0
LINE
  8
型材断面
  6
CONTINUOUS
 10
-54.759847
 20
-77.472157
 11
-54.96207
 21
-75.985845
  0
LINE
  8
型材断面
  6
CONTINUOUS
 62
    47
 10
-49.480447
 20
-60.15177
 11
-49.480447
 21
-76.753867
  0
LINE
  8
型材断面
  6
CONTINUOUS
 10
-54.759847
 20
-77.472157
 11
-49.480447
 21
-76.753867
  0
LINE
  8
型材断面
  6
CONTINUOUS
 10
-54.96207
 20
-75.985845
 11
-50.980447
 21
-75.444128
  0
LINE
  8
型材断面
  6
CONTINUOUS
 10
-50.980447
 20
-73.627538
 11
-50.980447
 21
-75.444128
  0
LINE
  8
型材断面
  6
CONTINUOUS
 62
    47
 10
-179.480533
 20
-133.5
 11
-179.480445
 21
-89.29395
  0
LINE
  8
型材断面
  6
CONTINUOUS
 10
-177.68053
 20
-133.5
 11
-177.680452
 21
-90.865635
  0
INSERT
  2
*GRP_0043
  8
型材断面
  6
DOT
 10
0.0
 20
0.0
  0
LINE
  8
型材断面
  6
CONTINUOUS
 62
    47
 10
-30.94379
 20
-133.5
 11
-19.595555
 21
-122.151765
  0
LINE
  8
型材断面
  6
CONTINUOUS
 62
    47
 10
-38.01485
 20
-133.5
 11
-26.666615
 21
-122.151765
  0
LINE
  8
型材断面
  6
CONTINUOUS
 62
    47
 10
-45.085925
 20
-133.5
 11
-33.73769
 21
-122.151765
  0
LINE
  8
型材断面
  6
CONTINUOUS
 62
    47
 10
-125.052567
 20
-133.5
 11
-113.704332
 21
-122.151765
  0
LINE
  8
型材断面
  6
CONTINUOUS
 62
    47
 10
-132.123628
 20
-133.5
 11
-120.775393
 21
-122.151765
  0
LINE
  8
型材断面
  6
CONTINUOUS
 62
    47
 10
-139.194703
 20
-133.5
 11
-127.846468
 21
-122.151765
  0
INSERT
  2
*GRP_0044
  8
型材断面
  6
DOT
 10
0.0
 20
0.0
  0
INSERT
  2
*GRP_0004
  8
ガラス
  6
DOT
 62
     7
 10
0.0
 20
0.0
  0
INSERT
  2
*GRP_0005
  8
ガラス
  6
DOT
 62
     7
 10
0.0
 20
0.0
  0
INSERT
  2
*GRP_0006
  8
ガラス
  6
DOT
 62
     7
 10
0.0
 20
0.0
  0
INSERT
  2
*GRP_0007
  8
ガラス
  6
DOT
 62
     7
 10
0.0
 20
0.0
  0
INSERT
  2
*GRP_0008
  8
ガラス
  6
DOT
 62
     7
 10
0.0
 20
0.0
  0
INSERT
  2
*GRP_0009
  8
ガラス
  6
DOT
 62
     7
 10
0.0
 20
0.0
  0
INSERT
  2
*GRP_0010
  8
ガラス
  6
DOT
 62
     7
 10
0.0
 20
0.0
  0
INSERT
  2
*GRP_0011
  8
ガラス
  6
DOT
 62
     7
 10
0.0
 20
0.0
  0
INSERT
  2
*GRP_0012
  8
ガラス
  6
DOT
 62
     7
 10
0.0
 20
0.0
  0
LINE
  8
ガラス
  6
CONTINUOUS
 62
    48
 10
-1.98045
 20
70.648237
 11
-1.98045
 21
63.848235
  0
LINE
  8
ガラス
  6
CONTINUOUS
 10
85.300815
 20
63.848235
 11
-1.98045
 21
63.848235
  0
LINE
  8
ガラス
  6
CONTINUOUS
 10
85.300815
 20
64.348237
 11
-1.98045
 21
64.348237
  0
LINE
  8
ガラス
  6
CONTINUOUS
 10
85.300815
 20
70.148235
 11
-1.98045
 21
70.148235
  0
LINE
  8
ガラス
  6
CONTINUOUS
 10
85.300815
 20
70.648237
 11
-1.98045
 21
70.648237
  0
INSERT
  2
*GRP_0013
  8
ボルト／ビス
  6
CONTINUOUS
 10
0.0
 20
0.0
  0
INSERT
  2
*GRP_0014
  8
ボルト／ビス
  6
CONTINUOUS
 10
0.0
 20
0.0
  0
INSERT
  2
*GRP_0015
  8
ボルト／ビス
  6
CONTINUOUS
 10
0.0
 20
0.0
  0
INSERT
  2
*GRP_0016
  8
ボルト／ビス
  6
CONTINUOUS
 10
0.0
 20
0.0
  0
INSERT
  2
*GRP_0017
  8
ボルト／ビス
  6
CONTINUOUS
 10
0.0
 20
0.0
  0
INSERT
  2
*GRP_0018
  8
ボルト／ビス
  6
CONTINUOUS
 10
0.0
 20
0.0
  0
INSERT
  2
*GRP_0019
  8
ボルト／ビス
  6
CONTINUOUS
 62
    64
 10
0.0
 20
0.0
  0
INSERT
  2
*GRP_0020
  8
ボルト／ビス
  6
CONTINUOUS
 62
    64
 10
0.0
 20
0.0
  0
INSERT
  2
*GRP_0021
  8
ボルト／ビス
  6
CONTINUOUS
 10
0.0
 20
0.0
  0
INSERT
  2
*GRP_0022
  8
ボルト／ビス
  6
CONTINUOUS
 10
0.0
 20
0.0
  0
TEXT
  7
TextStyle03
  8
文字
  6
CONTINUOUS
 10
105.0
 20
125.05
  1
シリーズ：ＴＤＲ２Ｋ
 40
5.0
 72
     5
 11
160.625
 21
125.05
  0
TEXT
  7
TextStyle03
  8
文字
  6
CONTINUOUS
 10
105.0
 20
119.425
  1
　　　　　（固定）
 40
5.0
 72
     5
 11
155.0
 21
119.425
  0
TEXT
  7
TextStyle03
  8
文字
  6
CONTINUOUS
 10
105.0
 20
113.8
  1
図面名　：下枠断面詳細図
 40
5.0
 72
     5
 11
171.875
 21
113.8
  0
TEXT
  7
TextStyle03
  8
文字
  6
CONTINUOUS
 10
47.7
 20
121.875
  1
呼称寸法
 40
4.0
 72
     5
 11
65.2
 21
121.875
  0
TEXT
  7
TextStyle03
  8
文字
  6
CONTINUOUS
 10
38.425
 20
14.3
  1
バッフル材
 40
3.0
 72
     5
 11
54.925
 21
14.3
  0
TEXT
  7
TextStyle03
  8
文字
  6
CONTINUOUS
 10
-115.675
 20
95.6
  1
M6×20ゴムパッキン付
 40
3.0
 72
     5
 11
-82.3
 21
95.6
  0
TEXT
  7
TextStyle03
  8
文字
  6
CONTINUOUS
 10
-107.45
 20
12.8
  1
φ8穴加工
 40
3.0
 72
     5
 11
-92.6375
 21
12.8
  0
TEXT
  7
TextStyle03
  8
文字
  6
CONTINUOUS
 10
-107.45
 20
9.425
  1
裏面バッフル材付き
 40
3.0
 72
     5
 11
-77.45
 21
9.425
  0
TEXT
  7
TextStyle03
  8
文字
  6
CONTINUOUS
 10
-112.125
 20
-54.575
  1
AL-2.0t
 40
3.0
 72
     5
 11
-100.5
 21
-54.575
  0
TEXT
  7
TextStyle03
  8
文字
  6
CONTINUOUS
 10
82.475
 20
89.0
  1
網入りガラス6.8t
 40
3.0
 72
     5
 11
109.2875
 21
89.0
  0
TEXT
  7
TextStyle03
  8
文字
  6
CONTINUOUS
 10
34.375
 20
-72.375
  1
アンカー：St-3.2t
 40
3.0
 72
     5
 11
62.875
 21
-72.375
  0
TEXT
  7
TextStyle03
  8
文字
  6
CONTINUOUS
 10
-101.4
 20
-20.575
  1
シーリング
 40
3.0
 72
     5
 11
-84.9
 21
-20.575
  0
TEXT
  7
TextStyle03
  8
文字
  6
CONTINUOUS
 10
55.675
 20
101.975
  1
アクリルドーム
 40
3.0
 72
     5
 11
78.925
 21
101.975
  0
TEXT
  7
TextStyle03
  8
文字
  6
CONTINUOUS
 10
-99.9
 20
86.975
  1
TKR-1701
 40
4.0
 72
     5
 11
-82.15
 21
86.975
  0
INSERT
  2
*DIM_0023
  8
寸法
  6
CONTINUOUS
 10
0.0
 20
0.0
  0
INSERT
  2
*DIM_0024
  8
寸法
  6
CONTINUOUS
 10
0.0
 20
0.0
  0
INSERT
  2
*DIM_0025
  8
寸法
  6
CONTINUOUS
 10
0.0
 20
0.0
  0
INSERT
  2
*DIM_0026
  8
寸法
  6
CONTINUOUS
 10
0.0
 20
0.0
  0
INSERT
  2
*DIM_0027
  8
寸法
  6
CONTINUOUS
 10
0.0
 20
0.0
  0
INSERT
  2
*DIM_0028
  8
寸法
  6
CONTINUOUS
 10
0.0
 20
0.0
  0
INSERT
  2
*DIM_0029
  8
寸法
  6
CONTINUOUS
 10
0.0
 20
0.0
  0
INSERT
  2
*DIM_0030
  8
寸法
  6
CONTINUOUS
 10
0.0
 20
0.0
  0
INSERT
  2
*DIM_0031
  8
寸法
  6
CONTINUOUS
 10
0.0
 20
0.0
  0
INSERT
  2
*DIM_0032
  8
寸法
  6
CONTINUOUS
 10
0.0
 20
0.0
  0
INSERT
  2
*DIM_0033
  8
寸法
  6
CONTINUOUS
 10
0.0
 20
0.0
  0
INSERT
  2
*DIM_0034
  8
寸法
  6
CONTINUOUS
 10
0.0
 20
0.0
  0
INSERT
  2
*DIM_0035
  8
寸法
  6
CONTINUOUS
 10
0.0
 20
0.0
  0
INSERT
  2
*DIM_0036
  8
寸法
  6
CONTINUOUS
 10
0.0
 20
0.0
  0
INSERT
  2
*GRP_0037
  8
寸法
  6
CONTINUOUS
 10
0.0
 20
0.0
  0
INSERT
  2
*DIM_0045
  8
寸法
  6
CONTINUOUS
 10
0.0
 20
0.0
  0
INSERT
  2
*DIM_0046
  8
寸法
  6
CONTINUOUS
 10
0.0
 20
0.0
  0
INSERT
  2
*DIM_0047
  8
寸法
  6
CONTINUOUS
 10
0.0
 20
0.0
  0
INSERT
  2
*DIM_0048
  8
寸法
  6
CONTINUOUS
 10
0.0
 20
0.0
  0
INSERT
  2
*GRP_0049
  8
寸法
  6
CONTINUOUS
 10
0.0
 20
0.0
  0
POLYLINE
  8
寸法
  6
CONTINUOUS
 66
     1
  0
VERTEX
  8
寸法
 10
-17.980443
 20
-4.618275
  0
VERTEX
  8
寸法
 10
-27.2803
 20
14.043147
  0
VERTEX
  8
寸法
 10
-92.12636
 20
14.043147
  0
SEQEND
  0
INSERT
  2
*GRP_0050
  8
寸法
  6
CONTINUOUS
 10
0.0
 20
0.0
  0
INSERT
  2
*GRP_0051
  8
寸法
  6
CONTINUOUS
 10
0.0
 20
0.0
  0
INSERT
  2
*GRP_0052
  8
寸法
  6
CONTINUOUS
 10
0.0
 20
0.0
  0
INSERT
  2
*GRP_0053
  8
寸法
  6
CONTINUOUS
 10
0.0
 20
0.0
  0
INSERT
  2
*GRP_0054
  8
寸法
  6
CONTINUOUS
 10
0.0
 20
0.0
  0
INSERT
  2
*DIM_0055
  8
寸法
  6
CONTINUOUS
 10
0.0
 20
0.0
  0
INSERT
  2
*GRP_0056
  8
寸法
  6
CONTINUOUS
 10
0.0
 20
0.0
  0
INSERT
  2
*DIM_0057
  8
寸法
  6
CONTINUOUS
 10
0.0
 20
0.0
  0
INSERT
  2
*DIM_0058
  8
寸法
  6
CONTINUOUS
 10
0.0
 20
0.0
  0
INSERT
  2
*DIM_0059
  8
寸法
  6
CONTINUOUS
 10
0.0
 20
0.0
  0
INSERT
  2
*DIM_0060
  8
寸法
  6
CONTINUOUS
 10
0.0
 20
0.0
  0
INSERT
  2
*DIM_0061
  8
寸法
  6
CONTINUOUS
 10
0.0
 20
0.0
  0
INSERT
  2
*DIM_0062
  8
寸法
  6
CONTINUOUS
 10
0.0
 20
0.0
  0
INSERT
  2
*HAT_0001
  8
ﾊｯﾁﾝｸﾞ
 10
0.0
 20
0.0
  0
INSERT
  2
*HAT_0002
  8
ﾊｯﾁﾝｸﾞ
 10
0.0
 20
0.0
  0
INSERT
  2
*HAT_0003
  8
ﾊｯﾁﾝｸﾞ
 10
0.0
 20
0.0
  0
INSERT
  2
*HAT_0004
  8
ﾊｯﾁﾝｸﾞ
 10
0.0
 20
0.0
  0
ARC
  8
別途部材
  6
CONTINUOUS
 62
    96
 10
-34.05768
 20
77.842297
 40
5.005952
 50
90.001373
 51
158.200992
  0
LINE
  8
別途部材
  6
CONTINUOUS
 62
    96
 10
-39.480445
 20
85.851817
 11
10.51955
 21
85.851817
  0
LINE
  8
別途部材
  6
CONTINUOUS
 62
    96
 10
-34.05769
 20
82.848233
 11
12.184115
 21
82.848233
  0
LINE
  8
別途部材
  6
CONTINUOUS
 10
-51.480422
 20
55.851817
 11
-48.245478
 21
55.851817
  0
LINE
  8
別途部材
  6
CONTINUOUS
 62
    96
 10
-39.480445
 20
85.851817
 11
-51.480422
 21
55.851817
  0
LINE
  8
別途部材
  6
CONTINUOUS
 62
    96
 10
-38.705635
 20
79.701435
 11
-48.245478
 21
55.851817
  0
LINE
  8
別途部材
  6
CONTINUOUS
 62
    96
 10
-147.480443
 20
-122.151765
 11
-129.480443
 21
-122.151765
  0
ARC
  8
別途部材
  6
CONTINUOUS
 10
203.93991
 20
-17.089585
 40
216.235628
 50
136.752118
 51
152.472719
  0
ARC
  8
別途部材
  6
CONTINUOUS
 10
202.275345
 20
-14.086
 40
216.235628
 50
137.83517
 51
152.472719
  0
LINE
  8
別途部材
  6
DOT
 10
0.019557
 20
2.64828
 11
0.019557
 21
-7.85172
  0
INSERT
  2
*GRP_0038
  8
曲げ物
  6
CONTINUOUS
 10
0.0
 20
0.0
  0
INSERT
  2
*GRP_0042
  8
曲げ物
  6
CONTINUOUS
 10
0.0
 20
0.0
  0
INSERT
  2
*GRP_0039
  8
St
  6
CONTINUOUS
 10
0.0
 20
0.0
  0
INSERT
  2
*GRP_0040
  8
St
  6
CONTINUOUS
 10
0.0
 20
0.0
  0
INSERT
  2
*GRP_0041
  8
St
  6
CONTINUOUS
 10
0.0
 20
0.0
  0
INSERT
  2
*GRP_0063
  8
St
  6
DOT
 10
0.0
 20
0.0
  0
LINE
  8
その他部品等
  6
CONTINUOUS
 10
11.519563
 20
76.64823
 11
11.519563
 21
70.648237
  0
LINE
  8
その他部品等
  6
CONTINUOUS
 10
-1.480435
 20
76.64823
 11
-1.480435
 21
70.648237
  0
LINE
  8
その他部品等
  6
CONTINUOUS
 10
-60.480443
 20
-60.15177
 11
-60.480443
 21
-73.103467
  0
LINE
  8
その他部品等
  6
CONTINUOUS
 10
-51.280447
 20
-60.15177
 11
-60.480443
 21
-73.103467
  0
LINE
  8
断面線08
  6
CONTINUOUS
 10
-54.480437
 20
-24.851715
 11
-54.480437
 21
-35.151765
  0
LINE
  8
断面線08
  6
CONTINUOUS
 10
-44.745543
 20
-24.851715
 11
-44.745543
 21
-35.151765
  0
LINE
  8
断面線08
  6
CONTINUOUS
 10
-44.745543
 20
-35.151765
 11
-39.480437
 21
-24.851715
  0
POLYLINE
  8
断面線08
  6
CONTINUOUS
 66
     1
  0
VERTEX
  8
断面線08
 10
-72.480443
 20
-60.15177
  0
VERTEX
  8
断面線08
 10
-72.480443
 20
-71.816168
  0
VERTEX
  8
断面線08
 10
-73.316842
 20
-74.87712
  0
SEQEND
  0
ENDSEC
  0
EOF
