  0
SECTION
  2
HEADER
  9
$EXTMIN
 10
-210.0
 20
-148.5
  9
$EXTMAX
 10
210.0
 20
148.5
  9
$PDMODE
 70
    32
  9
$PDSIZE
 40
1.5
  9
$LTSCALE
 40
10.0
  0
ENDSEC
  0
SECTION
  2
TABLES
  0
TABLE
  2
LTYPE
 70
    15
  0
LTYPE
  2
CONTINUOUS
 70
    64
  3
実線
 72
    65
 73
     0
 40
0.0
  0
LTYPE
  2
DASHED
 70
    64
  3
破線A
 72
    65
 73
     2
 40
0.6
 49
0.4
 49
-0.2
  0
LTYPE
  2
DASHEDX2
 70
    64
  3
破線B
 72
    65
 73
     2
 40
1.3
 49
0.9
 49
-0.4
  0
LTYPE
  2
DASHDOT
 70
    64
  3
１点鎖線A
 72
    65
 73
     4
 40
0.5375
 49
0.375
 49
-0.05
 49
0.0625
 49
-0.05
  0
LTYPE
  2
DASHDOTX2
 70
    64
  3
１点鎖線B
 72
    65
 73
     4
 40
1.075
 49
0.75
 49
-0.1
 49
0.125
 49
-0.1
  0
LTYPE
  2
DIVIDE2
 70
    64
  3
２点鎖線A
 72
    65
 73
     6
 40
0.5125
 49
0.3
 49
-0.0375
 49
0.05
 49
-0.0375
 49
0.05
 49
-0.0375
  0
LTYPE
  2
DIVIDE
 70
    64
  3
２点鎖線B
 72
    65
 73
     6
 40
1.05
 49
0.55
 49
-0.1
 49
0.1
 49
-0.1
 49
0.1
 49
-0.1
  0
LTYPE
  2
DOT
 70
    64
  3
点線A
 72
    65
 73
     2
 40
0.1125
 49
0.0625
 49
-0.05
  0
LTYPE
  2
DOTX2
 70
    64
  3
点線B
 72
    65
 73
     2
 40
0.275
 49
0.15
 49
-0.125
  0
LTYPE
  2
CONTINUOUS
 70
    64
  3
実線
 72
    65
 73
     0
 40
0.0
  0
LTYPE
  2
CONTINUOUS
 70
    64
  3
実線
 72
    65
 73
     0
 40
0.0
  0
LTYPE
  2
CONTINUOUS
 70
    64
  3
実線
 72
    65
 73
     0
 40
0.0
  0
LTYPE
  2
CONTINUOUS
 70
    64
  3
実線
 72
    65
 73
     0
 40
0.0
  0
LTYPE
  2
CONTINUOUS
 70
    64
  3
実線
 72
    65
 73
     0
 40
0.0
  0
LTYPE
  2
CONTINUOUS
 70
    64
  3
実線
 72
    65
 73
     0
 40
0.0
  0
ENDTAB
  0
TABLE
  2
LAYER
 70
    34
  0
LAYER
  2
通り芯
 70
     0
 62
    15
  6
CONTINUOUS
  0
LAYER
  2
補助線
 70
     0
 62
    16
  6
DOT
  0
LAYER
  2
躯体
 70
     0
 62
    31
  6
CONTINUOUS
  0
LAYER
  2
型材
 70
     0
 62
    32
  6
CONTINUOUS
  0
LAYER
  2
型材断面
 70
     0
 62
    47
  6
CONTINUOUS
  0
LAYER
  2
ガラス
 70
     0
 62
    48
  6
CONTINUOUS
  0
LAYER
  2
ゴム等
 70
     0
 62
    63
  6
CONTINUOUS
  0
LAYER
  2
ボルト／ビス
 70
     0
 62
    64
  6
CONTINUOUS
  0
LAYER
  2
文字
 70
     0
 62
    79
  6
CONTINUOUS
  0
LAYER
  2
寸法
 70
     0
 62
    80
  6
CONTINUOUS
  0
LAYER
  2
ﾊｯﾁﾝｸﾞ
 70
     0
 62
    95
  6
CONTINUOUS
  0
LAYER
  2
別途部材
 70
     0
 62
    96
  6
CONTINUOUS
  0
LAYER
  2
曲げ物
 70
     0
 62
   111
  6
CONTINUOUS
  0
LAYER
  2
鉄骨等
 70
     0
 62
   112
  6
CONTINUOUS
  0
LAYER
  2
St
 70
     0
 62
   127
  6
CONTINUOUS
  0
LAYER
  2
その他部品等
 70
     0
 62
   128
  6
CONTINUOUS
  0
LAYER
  2
ｶﾞｽｹｯﾄ
 70
     0
 62
   143
  6
CONTINUOUS
  0
LAYER
  2
ｽｹｯﾁ
 70
     0
 62
    14
  6
CONTINUOUS
  0
LAYER
  2
0
 70
     0
 62
    17
  6
CONTINUOUS
  0
LAYER
  2
1
 70
     0
 62
    30
  6
CONTINUOUS
  0
LAYER
  2
4
 70
     0
 62
    33
  6
CONTINUOUS
  0
LAYER
  2
ﾚｲﾔ3
 70
     0
 62
    46
  6
CONTINUOUS
  0
LAYER
  2
外形線
 70
     0
 62
    49
  6
CONTINUOUS
  0
LAYER
  2
部品
 70
     0
 62
    14
  6
CONTINUOUS
  0
LAYER
  2
サッシ芯
 70
     0
 62
    17
  6
DASHDOTX2
  0
LAYER
  2
寸法線
 70
     0
 62
    62
  6
CONTINUOUS
  0
LAYER
  2
姿図外形線
 70
     0
 62
    65
  6
CONTINUOUS
  0
LAYER
  2
姿補助線
 70
     0
 62
    30
  6
CONTINUOUS
  0
LAYER
  2
透視線
 70
     0
 62
    78
  6
DOT
  0
LAYER
  2
用紙
 70
     0
 62
    81
  6
CONTINUOUS
  0
LAYER
  2
実線図枠
 70
     0
 62
    94
  6
CONTINUOUS
  0
LAYER
  2
補助図枠
 70
     0
 62
    97
  6
CONTINUOUS
  0
LAYER
  2
建具記号
 70
     0
 62
   110
  6
CONTINUOUS
  0
LAYER
  2
補助文字
 70
     0
 62
   113
  6
CONTINUOUS
  0
ENDTAB
  0
TABLE
  2
STYLE
 70
    10
  0
STYLE
  2
STANDARD
 70
     0
 40
1.0
 41
1.0
 42
1.0
 50
0.0
 71
     0
  3
TXT
  4
BIGFONT
  0
STYLE
  2
TATE
 70
     4
 40
1.0
 41
1.0
 42
1.0
 50
0.0
 71
     0
  3
TXT
  4
BIGFONT
  0
STYLE
  2
TextStyle03
 70
     0
 40
1.0
 41
1.0
 42
1.0
 50
0.0
 71
     0
  3
MONOTXT
  4
BIGFONT
  0
STYLE
  2
TextStyle04
 70
     0
 40
1.0
 41
1.0
 42
1.0
 50
0.0
 71
     0
  3
MONOTXT
  4
BIGFONT
  0
STYLE
  2
TextStyle05
 70
     0
 40
1.0
 41
1.0
 42
1.0
 50
0.0
 71
     0
  3
MONOTXT
  4
BIGFONT
  0
STYLE
  2
TextStyle06
 70
     0
 40
1.0
 41
1.0
 42
1.0
 50
0.0
 71
     0
  3
MONOTXT
  4
BIGFONT
  0
STYLE
  2
TextStyle07
 70
     0
 40
1.0
 41
1.0
 42
1.0
 50
0.0
 71
     0
  3
MONOTXT
  4
BIGFONT
  0
STYLE
  2
TextStyle08
 70
     0
 40
1.0
 41
1.0
 42
1.0
 50
0.0
 71
     0
  3
MONOTXT
  4
BIGFONT
  0
STYLE
  2
TextStyle09
 70
     0
 40
1.0
 41
1.0
 42
1.0
 50
0.0
 71
     0
  3
MONOTXT
  4
BIGFONT
  0
STYLE
  2
TextStyle10
 70
     0
 40
1.0
 41
1.0
 42
1.0
 50
0.0
 71
     0
  3
MONOTXT
  4
BIGFONT
  0
ENDTAB
  0
ENDSEC
  0
SECTION
  2
BLOCKS
  0
BLOCK
  2
*GRP_0001
 70
    65
 10
0.0
 20
0.0
  0
LINE
  8
型材断面
  6
CONTINUOUS
 10
195.0
 20
133.5
 11
195.0
 21
-133.5
  0
LINE
  8
型材断面
  6
CONTINUOUS
 10
195.0
 20
-133.5
 11
-185.0
 21
-133.5
  0
LINE
  8
型材断面
  6
CONTINUOUS
 10
-185.0
 20
-133.5
 11
-185.0
 21
133.5
  0
LINE
  8
型材断面
  6
CONTINUOUS
 10
195.0
 20
133.5
 11
-185.0
 21
133.5
  0
LINE
  8
型材断面
  6
CONTINUOUS
 10
145.0
 20
-133.5
 11
145.0
 21
-118.5
  0
LINE
  8
型材断面
  6
CONTINUOUS
 10
195.0
 20
-118.5
 11
145.0
 21
-118.5
  0
ENDBLK
  0
BLOCK
  2
*DIM_0002
 70
    65
 10
0.0
 20
0.0
  0
LINE
  8
寸法
  6
BYBLOCK
 62
     0
 10
-70.616773
 20
-59.58055
 11
-70.616773
 21
-43.240905
  0
LINE
  8
寸法
  6
BYBLOCK
 62
     0
 10
-60.366767
 20
-59.58055
 11
-60.366767
 21
-43.240905
  0
LINE
  8
寸法
  6
BYBLOCK
 62
     0
 10
-70.616773
 20
-43.240905
 11
-60.366767
 21
-43.240905
  0
POINT
  8
寸法
 62
     0
 10
-70.616773
 20
-43.240905
  0
POINT
  8
寸法
 62
     0
 10
-60.366767
 20
-43.240905
  0
TEXT
  7
TextStyle03
  8
寸法
  6
CONTINUOUS
 62
     0
 10
-67.9625
 20
-42.825
  1
205
 40
3.0
 72
     5
 11
-63.0875
 21
-42.825
  0
ENDBLK
  0
BLOCK
  2
*DIM_0003
 70
    65
 10
0.0
 20
0.0
  0
LINE
  8
寸法
  6
BYBLOCK
 62
     0
 10
-50.999675
 20
-55.880552
 11
-50.278283
 21
-55.880552
  0
LINE
  8
寸法
  6
BYBLOCK
 62
     0
 10
-59.366767
 20
-61.00555
 11
-50.278283
 21
-61.00555
  0
LINE
  8
寸法
  6
BYBLOCK
 62
     0
 10
-50.278283
 20
-55.880552
 11
-50.278283
 21
-61.00555
  0
POINT
  8
寸法
 62
     0
 10
-50.278283
 20
-55.880552
  0
POINT
  8
寸法
 62
     0
 10
-50.278283
 20
-61.00555
  0
TEXT
  7
TextStyle03
  8
寸法
  6
CONTINUOUS
 62
     0
 10
-47.3
 20
-62.525
  1
102.5
 40
3.0
 50
90.0
 72
     5
 11
-47.3
 21
-54.275
  0
ENDBLK
  0
BLOCK
  2
*DIM_0004
 70
    65
 10
0.0
 20
0.0
  0
LINE
  8
寸法
  6
BYBLOCK
 62
     0
 10
-97.99177
 20
-26.436913
 11
-32.99177
 21
-26.436913
  0
POINT
  8
寸法
 62
     0
 10
-97.99177
 20
-26.436913
  0
POINT
  8
寸法
 62
     0
 10
-32.99177
 20
-26.436913
  0
TEXT
  7
TextStyle03
  8
寸法
  6
CONTINUOUS
 62
     0
 10
-77.24375
 20
-26.05
  1
呼称寸法　1300
 40
3.0
 72
     5
 11
-53.80625
 21
-26.05
  0
ENDBLK
  0
BLOCK
  2
*DIM_0005
 70
    65
 10
0.0
 20
0.0
  0
LINE
  8
寸法
  6
BYBLOCK
 62
     0
 10
-82.99177
 20
86.881233
 11
-82.99177
 21
97.23677
  0
LINE
  8
寸法
  6
BYBLOCK
 62
     0
 10
-47.99177
 20
86.881233
 11
-47.99177
 21
97.23677
  0
LINE
  8
寸法
  6
BYBLOCK
 62
     0
 10
-82.99177
 20
97.23677
 11
-47.99177
 21
97.23677
  0
POINT
  8
寸法
 62
     0
 10
-82.99177
 20
97.23677
  0
POINT
  8
寸法
 62
     0
 10
-47.99177
 20
97.23677
  0
TEXT
  7
TextStyle03
  8
寸法
  6
CONTINUOUS
 62
     0
 10
-67.9375
 20
97.6
  1
700
 40
3.0
 72
     5
 11
-63.0625
 21
97.6
  0
ENDBLK
  0
BLOCK
  2
*DIM_0006
 70
    65
 10
0.0
 20
0.0
  0
LINE
  8
寸法
  6
BYBLOCK
 62
     0
 10
-126.140205
 20
49.0128
 11
-136.495742
 21
49.0128
  0
LINE
  8
寸法
  6
BYBLOCK
 62
     0
 10
-126.140208
 20
14.0128
 11
-136.495745
 21
14.0128
  0
LINE
  8
寸法
  6
BYBLOCK
 62
     0
 10
-136.495742
 20
49.0128
 11
-136.495745
 21
14.0128
  0
POINT
  8
寸法
 62
     0
 10
-136.495742
 20
49.0128
  0
POINT
  8
寸法
 62
     0
 10
-136.495745
 20
14.0128
  0
TEXT
  7
TextStyle03
  8
寸法
  6
CONTINUOUS
 62
     0
 10
-136.875
 20
29.0625
  1
700
 40
3.0
 50
90.0
 72
     5
 11
-136.875
 21
33.9375
  0
ENDBLK
  0
BLOCK
  2
*DIM_0007
 70
    65
 10
0.0
 20
0.0
  0
LINE
  8
寸法
  6
CONTINUOUS
 10
-103.538465
 20
-89.10398
 11
-103.538465
 21
-26.436913
  0
LINE
  8
寸法
  6
CONTINUOUS
 10
-97.99177
 20
-26.436913
 11
-103.538465
 21
-26.436913
  0
POINT
  8
寸法
 10
-97.99177
 20
-26.436913
  0
POINT
  8
寸法
 10
-103.538465
 20
-26.436913
  0
TEXT
  7
TextStyle03
  8
寸法
  6
CONTINUOUS
 10
-106.275
 20
-26.075
  1
110.9
 40
4.0
 72
     5
 11
-95.275
 21
-26.075
  0
ENDBLK
  0
BLOCK
  2
*DIM_0008
 70
    65
 10
0.0
 20
0.0
  0
LINE
  8
寸法
  6
CONTINUOUS
 10
-23.194945
 20
-96.054105
 11
-15.24983
 21
-96.054105
  0
LINE
  8
寸法
  6
CONTINUOUS
 10
-22.444942
 20
-94.104155
 11
-15.24983
 21
-94.104155
  0
LINE
  8
寸法
  6
CONTINUOUS
 10
-15.24983
 20
-96.054105
 11
-15.24983
 21
-94.104155
  0
POINT
  8
寸法
 10
-15.24983
 20
-96.054105
  0
POINT
  8
寸法
 10
-15.24983
 20
-94.104155
  0
TEXT
  7
TextStyle03
  8
寸法
  6
CONTINUOUS
 10
-11.125
 20
-97.225
  1
39
 40
4.0
 50
90.0
 72
     5
 11
-11.125
 21
-92.975
  0
ENDBLK
  0
BLOCK
  2
*DIM_0009
 70
    65
 10
0.0
 20
0.0
  0
LINE
  8
寸法
  6
CONTINUOUS
 10
-60.49177
 20
-55.880552
 11
-15.24983
 21
-55.880552
  0
LINE
  8
寸法
  6
CONTINUOUS
 10
-15.24983
 20
-94.104155
 11
-15.24983
 21
-55.880552
  0
POINT
  8
寸法
 10
-15.24983
 20
-55.880552
  0
TEXT
  7
TextStyle03
  8
寸法
  6
CONTINUOUS
 10
-15.625
 20
-80.5
  1
764.5
 40
4.0
 50
90.0
 72
     5
 11
-15.625
 21
-69.5
  0
ENDBLK
  0
BLOCK
  2
*DIM_0010
 70
    65
 10
0.0
 20
0.0
  0
LINE
  8
寸法
  6
CONTINUOUS
 10
-27.444942
 20
-89.104155
 11
-27.444942
 21
-26.436913
  0
LINE
  8
寸法
  6
CONTINUOUS
 10
-32.99177
 20
-26.436913
 11
-27.444942
 21
-26.436913
  0
POINT
  8
寸法
 10
-32.99177
 20
-26.436913
  0
POINT
  8
寸法
 10
-27.444942
 20
-26.436913
  0
TEXT
  7
TextStyle03
  8
寸法
  6
CONTINUOUS
 10
-35.725
 20
-26.075
  1
110.9
 40
4.0
 72
     5
 11
-24.725
 21
-26.075
  0
ENDBLK
  0
BLOCK
  2
*DIM_0011
 70
    65
 10
0.0
 20
0.0
  0
LINE
  8
寸法
  6
BYBLOCK
 62
     0
 10
161.256025
 20
-72.966758
 11
168.005
 21
-72.966758
  0
LINE
  8
寸法
  6
BYBLOCK
 62
     0
 10
126.711545
 20
-24.113485
 11
168.005
 21
-24.113485
  0
LINE
  8
寸法
  6
BYBLOCK
 62
     0
 10
168.005
 20
-72.966758
 11
168.005
 21
-24.113485
  0
POINT
  8
寸法
 62
     0
 10
168.005
 20
-72.966758
  0
POINT
  8
寸法
 62
     0
 10
168.005
 20
-24.113485
  0
TEXT
  7
TextStyle03
  8
寸法
  6
CONTINUOUS
 62
     0
 10
167.625
 20
-52.675
  1
977.1
 40
3.0
 50
90.0
 72
     5
 11
167.625
 21
-44.425
  0
ENDBLK
  0
BLOCK
  2
*DIM_0012
 70
    65
 10
0.0
 20
0.0
  0
LINE
  8
寸法
  6
BYBLOCK
 62
     0
 10
89.167065
 20
-75.966758
 11
89.167065
 21
-87.83
  0
LINE
  8
寸法
  6
BYBLOCK
 62
     0
 10
158.256025
 20
-75.966758
 11
158.256025
 21
-87.83
  0
LINE
  8
寸法
  6
BYBLOCK
 62
     0
 10
89.167065
 20
-87.83
 11
158.256025
 21
-87.83
  0
POINT
  8
寸法
 62
     0
 10
89.167065
 20
-87.83
  0
POINT
  8
寸法
 62
     0
 10
158.256025
 20
-87.83
  0
TEXT
  7
TextStyle03
  8
寸法
  6
CONTINUOUS
 62
     0
 10
118.73125
 20
-87.475
  1
1381.8
 40
3.0
 72
     5
 11
128.66875
 21
-87.475
  0
ENDBLK
  0
ENDSEC
  0
SECTION
  2
ENTITIES
  0
POLYLINE
  8
通り芯
  6
CONTINUOUS
 66
     1
 70
     1
  0
VERTEX
  8
通り芯
 10
-210.0
 20
-148.5
  0
VERTEX
  8
通り芯
 10
210.0
 20
-148.5
  0
VERTEX
  8
通り芯
 10
210.0
 20
148.5
  0
VERTEX
  8
通り芯
 10
-210.0
 20
148.5
  0
SEQEND
  0
INSERT
  2
*GRP_0001
  8
型材断面
  6
CONTINUOUS
 10
0.0
 20
0.0
  0
LINE
  8
型材断面
  6
DASHDOT
 10
-97.99177
 20
-104.502455
 11
-97.99177
 21
64.012797
  0
LINE
  8
型材断面
  6
DASHDOT
 10
-32.99177
 20
-104.502455
 11
-32.99177
 21
64.012797
  0
LINE
  8
型材断面
  6
DASHDOT
 10
-97.99177
 20
64.012797
 11
-32.99177
 21
64.012797
  0
LINE
  8
型材断面
  6
DASHDOT
 10
-97.99177
 20
31.512797
 11
-32.99177
 21
31.512797
  0
LINE
  8
型材断面
  6
DASHDOT
 10
-97.99177
 20
-0.987202
 11
-32.99177
 21
-0.987202
  0
LINE
  8
型材断面
  6
DASHDOT
 10
-65.49177
 20
-104.502455
 11
-65.49177
 21
64.012797
  0
LINE
  8
型材断面
  6
CONTINUOUS
 10
-24.967895
 20
31.512797
 11
-21.082135
 21
29.269353
  0
LINE
  8
型材断面
  6
CONTINUOUS
 10
-24.967895
 20
31.512797
 11
-21.082135
 21
33.756243
  0
LINE
  8
型材断面
  6
CONTINUOUS
 10
-21.082135
 20
33.756243
 11
-21.082135
 21
29.269353
  0
LINE
  8
型材断面
  6
CONTINUOUS
 10
-65.49177
 20
72.036672
 11
-67.735215
 21
75.922432
  0
LINE
  8
型材断面
  6
CONTINUOUS
 10
-65.49177
 20
72.036672
 11
-63.248325
 21
75.922432
  0
LINE
  8
型材断面
  6
CONTINUOUS
 10
-63.248325
 20
75.922432
 11
-67.735215
 21
75.922432
  0
LINE
  8
型材断面
  6
CONTINUOUS
 10
-65.49177
 20
-9.011078
 11
-67.735215
 21
-12.896838
  0
LINE
  8
型材断面
  6
CONTINUOUS
 10
-65.49177
 20
-9.011078
 11
-63.248325
 21
-12.896838
  0
LINE
  8
型材断面
  6
CONTINUOUS
 10
-63.248325
 20
-12.896838
 11
-67.735215
 21
-12.896838
  0
LINE
  8
型材断面
  6
CONTINUOUS
 10
-106.015645
 20
31.512797
 11
-109.901405
 21
29.269353
  0
LINE
  8
型材断面
  6
CONTINUOUS
 10
-106.015645
 20
31.512797
 11
-109.901405
 21
33.756243
  0
LINE
  8
型材断面
  6
CONTINUOUS
 10
-109.901405
 20
33.756243
 11
-109.901405
 21
29.269353
  0
LINE
  8
型材断面
  6
CONTINUOUS
 10
-12.851667
 20
-6.773
 11
-15.095112
 21
-10.65876
  0
LINE
  8
型材断面
  6
CONTINUOUS
 10
-12.851667
 20
-6.773
 11
-10.608223
 21
-10.65876
  0
LINE
  8
型材断面
  6
CONTINUOUS
 10
-10.608223
 20
-10.65876
 11
-15.095112
 21
-10.65876
  0
LINE
  8
型材断面
  6
CONTINUOUS
 10
-21.885548
 20
-12.066652
 11
30.771133
 21
-12.066652
  0
LINE
  8
型材断面
  6
CONTINUOUS
 10
-21.885548
 20
-18.739433
 11
30.771133
 21
-18.739433
  0
LINE
  8
型材断面
  6
CONTINUOUS
 10
-70.61677
 20
-61.005555
 11
-65.49177
 21
-61.005555
  0
LINE
  8
型材断面
  6
CONTINUOUS
 10
-70.61677
 20
-61.005555
 11
-70.54606
 21
-61.076265
  0
LINE
  8
型材断面
  6
CONTINUOUS
 10
-65.49177
 20
-61.076265
 11
-70.54606
 21
-61.076265
  0
LINE
  8
型材断面
  6
CONTINUOUS
 10
-70.61677
 20
-61.005555
 11
-65.49177
 21
-55.880552
  0
LINE
  8
型材断面
  6
CONTINUOUS
 10
-60.36677
 20
-61.005555
 11
-65.49177
 21
-61.005555
  0
LINE
  8
型材断面
  6
CONTINUOUS
 10
-60.36677
 20
-61.005555
 11
-60.43748
 21
-61.076265
  0
LINE
  8
型材断面
  6
CONTINUOUS
 10
-65.49177
 20
-61.076265
 11
-60.43748
 21
-61.076265
  0
LINE
  8
型材断面
  6
CONTINUOUS
 10
-60.36677
 20
-61.005555
 11
-65.49177
 21
-55.880552
  0
LINE
  8
型材断面
  6
CONTINUOUS
 10
-70.61677
 20
31.512797
 11
-70.61677
 21
26.387797
  0
LINE
  8
型材断面
  6
CONTINUOUS
 10
-65.49177
 20
26.387797
 11
-70.61677
 21
26.387797
  0
LINE
  8
型材断面
  6
CONTINUOUS
 10
-103.36677
 20
-6.362202
 11
-103.36677
 21
31.512797
  0
LINE
  8
型材断面
  6
CONTINUOUS
 10
-103.36677
 20
-6.362202
 11
-65.49177
 21
-6.362202
  0
LINE
  8
型材断面
  6
CONTINUOUS
 10
-60.36677
 20
31.512797
 11
-60.36677
 21
26.387797
  0
LINE
  8
型材断面
  6
CONTINUOUS
 10
-65.49177
 20
26.387797
 11
-60.36677
 21
26.387797
  0
LINE
  8
型材断面
  6
CONTINUOUS
 10
-27.61677
 20
-6.362202
 11
-27.61677
 21
31.512797
  0
LINE
  8
型材断面
  6
CONTINUOUS
 10
-27.61677
 20
-6.362202
 11
-65.49177
 21
-6.362202
  0
LINE
  8
型材断面
  6
CONTINUOUS
 10
-60.36677
 20
31.512797
 11
-60.36677
 21
36.637797
  0
LINE
  8
型材断面
  6
CONTINUOUS
 10
-65.49177
 20
36.637797
 11
-60.36677
 21
36.637797
  0
LINE
  8
型材断面
  6
CONTINUOUS
 10
-27.61677
 20
69.387797
 11
-27.61677
 21
31.512797
  0
LINE
  8
型材断面
  6
CONTINUOUS
 10
-27.61677
 20
69.387797
 11
-65.49177
 21
69.387797
  0
LINE
  8
型材断面
  6
CONTINUOUS
 10
-70.61677
 20
31.512797
 11
-70.61677
 21
36.637797
  0
LINE
  8
型材断面
  6
CONTINUOUS
 10
-65.49177
 20
36.637797
 11
-70.61677
 21
36.637797
  0
LINE
  8
型材断面
  6
CONTINUOUS
 10
-103.36677
 20
69.387797
 11
-103.36677
 21
31.512797
  0
LINE
  8
型材断面
  6
CONTINUOUS
 10
-103.36677
 20
69.387797
 11
-65.49177
 21
69.387797
  0
LINE
  8
型材断面
  6
CONTINUOUS
 10
83.483072
 20
-25.810232
 11
107.414695
 21
-25.810232
  0
LINE
  8
型材断面
  6
CONTINUOUS
 62
    47
 10
-102.788595
 20
-96.054105
 11
-102.788595
 21
-95.309108
  0
LINE
  8
型材断面
  6
CONTINUOUS
 62
    47
 10
-102.038595
 20
-96.804105
 11
-102.038595
 21
-96.054105
  0
LINE
  8
型材断面
  6
CONTINUOUS
 62
    47
 10
-102.788595
 20
-95.309108
 11
-102.561122
 21
-95.081635
  0
LINE
  8
型材断面
  6
CONTINUOUS
 62
    47
 10
-102.561122
 20
-95.081635
 11
-103.538598
 21
-94.104155
  0
LINE
  8
型材断面
  6
CONTINUOUS
 62
    47
 10
-65.49177
 20
-56.057327
 11
-103.538422
 21
-94.10398
  0
LINE
  8
型材断面
  6
CONTINUOUS
 62
    47
 10
-102.038595
 20
-96.804105
 11
-65.49177
 21
-96.804105
  0
LINE
  8
型材断面
  6
CONTINUOUS
 62
    47
 10
-102.788595
 20
-96.054105
 11
-65.49177
 21
-96.054105
  0
LINE
  8
型材断面
  6
CONTINUOUS
 10
-102.788595
 20
-95.309108
 11
-65.49177
 21
-95.309108
  0
LINE
  8
型材断面
  6
CONTINUOUS
 10
-103.538465
 20
-94.10398
 11
-65.49177
 21
-94.10398
  0
LINE
  8
型材断面
  6
CONTINUOUS
 10
-102.561122
 20
-95.081635
 11
-65.49177
 21
-95.081635
  0
LINE
  8
型材断面
  6
CONTINUOUS
 62
    47
 10
-28.194945
 20
-96.054105
 11
-28.194945
 21
-95.309108
  0
LINE
  8
型材断面
  6
CONTINUOUS
 62
    47
 10
-28.944945
 20
-96.804105
 11
-28.944945
 21
-96.054105
  0
LINE
  8
型材断面
  6
CONTINUOUS
 62
    47
 10
-28.194945
 20
-95.309108
 11
-28.422418
 21
-95.081635
  0
LINE
  8
型材断面
  6
CONTINUOUS
 62
    47
 10
-28.422418
 20
-95.081635
 11
-27.444942
 21
-94.104155
  0
LINE
  8
型材断面
  6
CONTINUOUS
 62
    47
 10
-28.944945
 20
-96.804105
 11
-65.49177
 21
-96.804105
  0
LINE
  8
型材断面
  6
CONTINUOUS
 62
    47
 10
-28.194945
 20
-96.054105
 11
-65.49177
 21
-96.054105
  0
LINE
  8
型材断面
  6
CONTINUOUS
 10
-28.194945
 20
-95.309108
 11
-65.49177
 21
-95.309108
  0
LINE
  8
型材断面
  6
CONTINUOUS
 10
-27.445075
 20
-94.10398
 11
-65.49177
 21
-94.10398
  0
LINE
  8
型材断面
  6
CONTINUOUS
 10
-28.422418
 20
-95.081635
 11
-65.49177
 21
-95.081635
  0
LINE
  8
型材断面
  6
CONTINUOUS
 62
    47
 10
-65.49177
 20
-56.057327
 11
-27.445118
 21
-94.10398
  0
LINE
  8
型材断面
  6
CONTINUOUS
 10
-65.49177
 20
-92.601397
 11
-28.9477
 21
-92.601397
  0
LINE
  8
型材断面
  6
CONTINUOUS
 10
-29.4477
 20
-92.101397
 11
-33.121945
 21
-92.101397
  0
LINE
  8
型材断面
  6
CONTINUOUS
 10
-64.147077
 20
-61.076265
 11
-32.621945
 21
-92.601397
  0
LINE
  8
型材断面
  6
CONTINUOUS
 10
-65.49177
 20
-92.601397
 11
-102.03584
 21
-92.601397
  0
LINE
  8
型材断面
  6
CONTINUOUS
 10
-66.836463
 20
-61.076265
 11
-98.361595
 21
-92.601397
  0
LINE
  8
型材断面
  6
CONTINUOUS
 10
-97.861595
 20
-92.101397
 11
-101.53584
 21
-92.101397
  0
LINE
  8
型材断面
  6
CONTINUOUS
 10
-29.4477
 20
-0.882972
 11
-29.4477
 21
-4.531272
  0
LINE
  8
型材断面
  6
CONTINUOUS
 10
-29.4477
 20
-4.531272
 11
-33.095995
 21
-4.531272
  0
LINE
  8
型材断面
  6
CONTINUOUS
 10
-27.61677
 20
-6.362202
 11
-28.9477
 21
-5.031272
  0
LINE
  8
型材断面
  6
CONTINUOUS
 10
-65.49177
 20
31.512797
 11
-29.4477
 21
-4.531272
  0
LINE
  8
型材断面
  6
CONTINUOUS
 10
-60.36677
 20
30.036097
 11
-28.9477
 21
-1.382972
  0
LINE
  8
型材断面
  6
CONTINUOUS
 10
-64.015065
 20
26.387797
 11
-32.595995
 21
-5.031272
  0
LINE
  8
型材断面
  6
CONTINUOUS
 10
-28.9477
 20
-5.031272
 11
-65.49177
 21
-5.031272
  0
LINE
  8
型材断面
  6
CONTINUOUS
 10
-28.9477
 20
-5.031272
 11
-28.9477
 21
31.512797
  0
LINE
  8
型材断面
  6
CONTINUOUS
 10
-29.4477
 20
63.908568
 11
-29.4477
 21
67.556868
  0
LINE
  8
型材断面
  6
CONTINUOUS
 10
-29.4477
 20
67.556868
 11
-33.095995
 21
67.556868
  0
LINE
  8
型材断面
  6
CONTINUOUS
 10
-27.61677
 20
69.387797
 11
-28.9477
 21
68.056868
  0
LINE
  8
型材断面
  6
CONTINUOUS
 10
-28.9477
 20
68.056868
 11
-65.49177
 21
68.056868
  0
LINE
  8
型材断面
  6
CONTINUOUS
 10
-28.9477
 20
68.056868
 11
-28.9477
 21
31.512797
  0
LINE
  8
型材断面
  6
CONTINUOUS
 10
-101.53584
 20
63.908568
 11
-101.53584
 21
67.556868
  0
LINE
  8
型材断面
  6
CONTINUOUS
 10
-101.53584
 20
67.556868
 11
-97.887545
 21
67.556868
  0
LINE
  8
型材断面
  6
CONTINUOUS
 10
-103.36677
 20
69.387797
 11
-102.03584
 21
68.056868
  0
LINE
  8
型材断面
  6
CONTINUOUS
 10
-102.03584
 20
68.056868
 11
-65.49177
 21
68.056868
  0
LINE
  8
型材断面
  6
CONTINUOUS
 10
-102.03584
 20
68.056868
 11
-102.03584
 21
31.512797
  0
LINE
  8
型材断面
  6
CONTINUOUS
 10
-101.53584
 20
-0.882972
 11
-101.53584
 21
-4.531272
  0
LINE
  8
型材断面
  6
CONTINUOUS
 10
-101.53584
 20
-4.531272
 11
-97.887545
 21
-4.531272
  0
LINE
  8
型材断面
  6
CONTINUOUS
 10
-103.36677
 20
-6.362202
 11
-102.03584
 21
-5.031272
  0
LINE
  8
型材断面
  6
CONTINUOUS
 10
-102.03584
 20
-5.031272
 11
-65.49177
 21
-5.031272
  0
LINE
  8
型材断面
  6
CONTINUOUS
 10
-102.03584
 20
-5.031272
 11
-102.03584
 21
31.512797
  0
LINE
  8
型材断面
  6
CONTINUOUS
 10
-60.36677
 20
32.989497
 11
-28.9477
 21
64.408568
  0
LINE
  8
型材断面
  6
CONTINUOUS
 10
-64.015065
 20
36.637797
 11
-32.595995
 21
68.056868
  0
LINE
  8
型材断面
  6
CONTINUOUS
 10
-65.49177
 20
31.512797
 11
-29.4477
 21
67.556868
  0
LINE
  8
型材断面
  6
CONTINUOUS
 10
-66.968475
 20
36.637797
 11
-98.387545
 21
68.056868
  0
LINE
  8
型材断面
  6
CONTINUOUS
 10
-70.61677
 20
32.989497
 11
-102.03584
 21
64.408568
  0
LINE
  8
型材断面
  6
CONTINUOUS
 10
-65.49177
 20
31.512797
 11
-101.53584
 21
67.556868
  0
LINE
  8
型材断面
  6
CONTINUOUS
 10
-66.968475
 20
26.387797
 11
-98.387545
 21
-5.031272
  0
LINE
  8
型材断面
  6
CONTINUOUS
 10
-70.61677
 20
30.036097
 11
-102.03584
 21
-1.382972
  0
LINE
  8
型材断面
  6
CONTINUOUS
 10
-65.49177
 20
31.512797
 11
-101.53584
 21
-4.531272
  0
LINE
  8
ガラス
  6
CONTINUOUS
 10
-63.521555
 20
-76.611942
 11
-67.39419
 21
-80.484577
  0
LINE
  8
ガラス
  6
CONTINUOUS
 10
-64.401877
 20
-78.2103
 11
-65.795832
 21
-79.604255
  0
LINE
  8
ガラス
  6
CONTINUOUS
 10
-65.119913
 20
-77.492265
 11
-66.513868
 21
-78.88622
  0
LINE
  8
ガラス
  6
CONTINUOUS
 10
-63.678545
 20
56.472513
 11
-67.55118
 21
52.599878
  0
LINE
  8
ガラス
  6
CONTINUOUS
 10
-64.558867
 20
54.874155
 11
-65.952822
 21
53.4802
  0
LINE
  8
ガラス
  6
CONTINUOUS
 10
-65.276902
 20
55.59219
 11
-66.670857
 21
54.198235
  0
LINE
  8
ガラス
  6
CONTINUOUS
 10
-63.678545
 20
12.725245
 11
-67.55118
 21
8.85261
  0
LINE
  8
ガラス
  6
CONTINUOUS
 10
-64.558867
 20
11.126887
 11
-65.952822
 21
9.732933
  0
LINE
  8
ガラス
  6
CONTINUOUS
 10
-65.276902
 20
11.844923
 11
-66.670857
 21
10.450967
  0
LINE
  8
ガラス
  6
CONTINUOUS
 10
-43.527507
 20
33.4005
 11
-47.400143
 21
29.527865
  0
LINE
  8
ガラス
  6
CONTINUOUS
 10
-44.40783
 20
31.802143
 11
-45.801785
 21
30.408187
  0
LINE
  8
ガラス
  6
CONTINUOUS
 10
-45.125865
 20
32.520177
 11
-46.51982
 21
31.126223
  0
LINE
  8
ガラス
  6
CONTINUOUS
 10
-83.38583
 20
33.4005
 11
-87.258465
 21
29.527865
  0
LINE
  8
ガラス
  6
CONTINUOUS
 10
-84.266153
 20
31.802143
 11
-85.660107
 21
30.408187
  0
LINE
  8
ガラス
  6
CONTINUOUS
 10
-84.984188
 20
32.520177
 11
-86.378143
 21
31.126223
  0
TEXT
  7
TextStyle03
  8
文字
  6
CONTINUOUS
 10
-8.575
 20
-10.325
  1
は排水穴位置を示す
 40
3.0
 72
     5
 11
21.425
 21
-10.325
  0
TEXT
  7
TextStyle03
  8
文字
  6
CONTINUOUS
 10
69.85
 20
94.275
  1
ＮＳコード：ＮＳ４ＣＫＺ
 40
5.0
 72
     5
 11
136.725
 21
94.275
  0
TEXT
  7
TextStyle03
  8
文字
  6
CONTINUOUS
 10
-14.175
 20
-17.35
  1
アンカー数量　８ヶ所
 40
3.0
 72
     5
 11
19.2
 21
-17.35
  0
TEXT
  7
TextStyle03
  8
文字
  6
CONTINUOUS
 10
-112.475
 20
90.925
  1
アンカーピッチ
 40
3.0
 72
     5
 11
-89.225
 21
90.925
  0
TEXT
  7
TextStyle03
  8
文字
  6
CONTINUOUS
 10
-129.475
 20
-11.875
  1
アンカーピッチ
 40
3.0
 50
90.0
 72
     5
 11
-129.475
 21
11.375
  0
TEXT
  7
TextStyle03
  8
文字
  6
CONTINUOUS
 10
87.075
 20
-24.6
  1
ガラス寸法
 40
3.0
 72
     5
 11
103.575
 21
-24.6
  0
TEXT
  7
TextStyle03
  8
文字
  6
CONTINUOUS
 10
136.225
 20
-69.925
  1
×４枚
 40
3.0
 72
     5
 11
145.975
 21
-69.925
  0
TEXT
  7
TextStyle03
  8
文字
  6
CONTINUOUS
 10
69.6
 20
117.825
  1
シリーズ：ＴＦ２４Ｋ
 40
5.0
 72
     5
 11
125.225
 21
117.825
  0
TEXT
  7
TextStyle03
  8
文字
  6
CONTINUOUS
 10
69.6
 20
112.2
  1
　　　　　四角錘（固定）1300×1300タイプ
 40
5.0
 72
     5
 11
181.475
 21
112.2
  0
TEXT
  7
TextStyle03
  8
文字
  6
CONTINUOUS
 10
69.6
 20
106.575
  1
図面名　：外観姿図
 40
5.0
 72
     5
 11
119.6
 21
106.575
  0
TEXT
  7
TextStyle03
  8
文字
  6
CONTINUOUS
 10
69.6
 20
100.95
  1
　　　　　　
 40
5.0
 72
     5
 11
102.725
 21
100.95
  0
INSERT
  2
*DIM_0002
  8
寸法
  6
CONTINUOUS
 10
0.0
 20
0.0
  0
INSERT
  2
*DIM_0003
  8
寸法
  6
CONTINUOUS
 10
0.0
 20
0.0
  0
INSERT
  2
*DIM_0004
  8
寸法
  6
CONTINUOUS
 10
0.0
 20
0.0
  0
INSERT
  2
*DIM_0005
  8
寸法
  6
CONTINUOUS
 10
0.0
 20
0.0
  0
INSERT
  2
*DIM_0006
  8
寸法
  6
CONTINUOUS
 10
0.0
 20
0.0
  0
INSERT
  2
*DIM_0007
  8
寸法
  6
CONTINUOUS
 10
0.0
 20
0.0
  0
INSERT
  2
*DIM_0008
  8
寸法
  6
CONTINUOUS
 10
0.0
 20
0.0
  0
INSERT
  2
*DIM_0009
  8
寸法
  6
CONTINUOUS
 10
0.0
 20
0.0
  0
INSERT
  2
*DIM_0010
  8
寸法
  6
CONTINUOUS
 10
0.0
 20
0.0
  0
INSERT
  2
*DIM_0011
  8
寸法
  6
CONTINUOUS
 10
0.0
 20
0.0
  0
INSERT
  2
*DIM_0012
  8
寸法
  6
CONTINUOUS
 10
0.0
 20
0.0
  0
LINE
  8
曲げ物
  6
CONTINUOUS
 10
89.167065
 20
-72.966758
 11
123.711545
 21
-24.113485
  0
LINE
  8
曲げ物
  6
CONTINUOUS
 10
123.711545
 20
-24.113485
 11
158.256025
 21
-72.966758
  0
LINE
  8
曲げ物
  6
CONTINUOUS
 10
89.167065
 20
-72.966758
 11
158.256025
 21
-72.966758
  0
ENDSEC
  0
EOF
