  0
SECTION
  2
HEADER
  9
$EXTMIN
 10
-210.0
 20
-148.5
  9
$EXTMAX
 10
210.0
 20
148.5
  9
$PDMODE
 70
    32
  9
$PDSIZE
 40
1.5
  9
$LTSCALE
 40
10.0
  0
ENDSEC
  0
SECTION
  2
TABLES
  0
TABLE
  2
LTYPE
 70
    15
  0
LTYPE
  2
CONTINUOUS
 70
    64
  3
実線
 72
    65
 73
     0
 40
0.0
  0
LTYPE
  2
DASHED
 70
    64
  3
破線A
 72
    65
 73
     2
 40
0.6
 49
0.4
 49
-0.2
  0
LTYPE
  2
DASHEDX2
 70
    64
  3
破線B
 72
    65
 73
     2
 40
1.3
 49
0.9
 49
-0.4
  0
LTYPE
  2
DASHDOT
 70
    64
  3
１点鎖線A
 72
    65
 73
     4
 40
0.5375
 49
0.375
 49
-0.05
 49
0.0625
 49
-0.05
  0
LTYPE
  2
DASHDOTX2
 70
    64
  3
１点鎖線B
 72
    65
 73
     4
 40
1.075
 49
0.75
 49
-0.1
 49
0.125
 49
-0.1
  0
LTYPE
  2
DIVIDE2
 70
    64
  3
２点鎖線A
 72
    65
 73
     6
 40
0.5125
 49
0.3
 49
-0.0375
 49
0.05
 49
-0.0375
 49
0.05
 49
-0.0375
  0
LTYPE
  2
DIVIDE
 70
    64
  3
２点鎖線B
 72
    65
 73
     6
 40
1.05
 49
0.55
 49
-0.1
 49
0.1
 49
-0.1
 49
0.1
 49
-0.1
  0
LTYPE
  2
DOT
 70
    64
  3
点線A
 72
    65
 73
     2
 40
0.1125
 49
0.0625
 49
-0.05
  0
LTYPE
  2
DOTX2
 70
    64
  3
点線B
 72
    65
 73
     2
 40
0.275
 49
0.15
 49
-0.125
  0
LTYPE
  2
CONTINUOUS
 70
    64
  3
実線
 72
    65
 73
     0
 40
0.0
  0
LTYPE
  2
CONTINUOUS
 70
    64
  3
実線
 72
    65
 73
     0
 40
0.0
  0
LTYPE
  2
CONTINUOUS
 70
    64
  3
実線
 72
    65
 73
     0
 40
0.0
  0
LTYPE
  2
CONTINUOUS
 70
    64
  3
実線
 72
    65
 73
     0
 40
0.0
  0
LTYPE
  2
CONTINUOUS
 70
    64
  3
実線
 72
    65
 73
     0
 40
0.0
  0
LTYPE
  2
CONTINUOUS
 70
    64
  3
実線
 72
    65
 73
     0
 40
0.0
  0
ENDTAB
  0
TABLE
  2
LAYER
 70
    34
  0
LAYER
  2
通り芯
 70
     0
 62
    15
  6
CONTINUOUS
  0
LAYER
  2
補助線
 70
     0
 62
    16
  6
DOT
  0
LAYER
  2
躯体
 70
     0
 62
    31
  6
CONTINUOUS
  0
LAYER
  2
型材
 70
     0
 62
    32
  6
CONTINUOUS
  0
LAYER
  2
型材断面
 70
     0
 62
    47
  6
CONTINUOUS
  0
LAYER
  2
ガラス
 70
     0
 62
    48
  6
CONTINUOUS
  0
LAYER
  2
ゴム等
 70
     0
 62
    63
  6
CONTINUOUS
  0
LAYER
  2
ボルト／ビス
 70
     0
 62
    64
  6
CONTINUOUS
  0
LAYER
  2
文字
 70
     0
 62
    79
  6
CONTINUOUS
  0
LAYER
  2
寸法
 70
     0
 62
    80
  6
CONTINUOUS
  0
LAYER
  2
ﾊｯﾁﾝｸﾞ
 70
     0
 62
    95
  6
CONTINUOUS
  0
LAYER
  2
別途部材
 70
     0
 62
    96
  6
CONTINUOUS
  0
LAYER
  2
曲げ物
 70
     0
 62
   111
  6
CONTINUOUS
  0
LAYER
  2
鉄骨等
 70
     0
 62
   112
  6
CONTINUOUS
  0
LAYER
  2
St
 70
     0
 62
   127
  6
CONTINUOUS
  0
LAYER
  2
その他部品等
 70
     0
 62
   128
  6
CONTINUOUS
  0
LAYER
  2
ｶﾞｽｹｯﾄ
 70
     0
 62
   143
  6
CONTINUOUS
  0
LAYER
  2
ｽｹｯﾁ
 70
     0
 62
    14
  6
CONTINUOUS
  0
LAYER
  2
0
 70
     0
 62
    17
  6
CONTINUOUS
  0
LAYER
  2
1
 70
     0
 62
    30
  6
CONTINUOUS
  0
LAYER
  2
4
 70
     0
 62
    33
  6
CONTINUOUS
  0
LAYER
  2
ﾚｲﾔ3
 70
     0
 62
    46
  6
CONTINUOUS
  0
LAYER
  2
外形線
 70
     0
 62
    49
  6
CONTINUOUS
  0
LAYER
  2
部品
 70
     0
 62
    14
  6
CONTINUOUS
  0
LAYER
  2
サッシ芯
 70
     0
 62
    17
  6
DASHDOTX2
  0
LAYER
  2
寸法線
 70
     0
 62
    62
  6
CONTINUOUS
  0
LAYER
  2
姿図外形線
 70
     0
 62
    65
  6
CONTINUOUS
  0
LAYER
  2
姿補助線
 70
     0
 62
    30
  6
CONTINUOUS
  0
LAYER
  2
透視線
 70
     0
 62
    78
  6
DOT
  0
LAYER
  2
用紙
 70
     0
 62
    81
  6
CONTINUOUS
  0
LAYER
  2
実線図枠
 70
     0
 62
    94
  6
CONTINUOUS
  0
LAYER
  2
補助図枠
 70
     0
 62
    97
  6
CONTINUOUS
  0
LAYER
  2
建具記号
 70
     0
 62
   110
  6
CONTINUOUS
  0
LAYER
  2
補助文字
 70
     0
 62
   113
  6
CONTINUOUS
  0
ENDTAB
  0
TABLE
  2
STYLE
 70
    10
  0
STYLE
  2
STANDARD
 70
     0
 40
1.0
 41
1.0
 42
1.0
 50
0.0
 71
     0
  3
TXT
  4
BIGFONT
  0
STYLE
  2
TATE
 70
     4
 40
1.0
 41
1.0
 42
1.0
 50
0.0
 71
     0
  3
TXT
  4
BIGFONT
  0
STYLE
  2
TextStyle03
 70
     0
 40
1.0
 41
1.0
 42
1.0
 50
0.0
 71
     0
  3
MONOTXT
  4
BIGFONT
  0
STYLE
  2
TextStyle04
 70
     0
 40
1.0
 41
1.0
 42
1.0
 50
0.0
 71
     0
  3
MONOTXT
  4
BIGFONT
  0
STYLE
  2
TextStyle05
 70
     0
 40
1.0
 41
1.0
 42
1.0
 50
0.0
 71
     0
  3
MONOTXT
  4
BIGFONT
  0
STYLE
  2
TextStyle06
 70
     0
 40
1.0
 41
1.0
 42
1.0
 50
0.0
 71
     0
  3
MONOTXT
  4
BIGFONT
  0
STYLE
  2
TextStyle07
 70
     0
 40
1.0
 41
1.0
 42
1.0
 50
0.0
 71
     0
  3
MONOTXT
  4
BIGFONT
  0
STYLE
  2
TextStyle08
 70
     0
 40
1.0
 41
1.0
 42
1.0
 50
0.0
 71
     0
  3
MONOTXT
  4
BIGFONT
  0
STYLE
  2
TextStyle09
 70
     0
 40
1.0
 41
1.0
 42
1.0
 50
0.0
 71
     0
  3
MONOTXT
  4
BIGFONT
  0
STYLE
  2
TextStyle10
 70
     0
 40
1.0
 41
1.0
 42
1.0
 50
0.0
 71
     0
  3
MONOTXT
  4
BIGFONT
  0
ENDTAB
  0
ENDSEC
  0
SECTION
  2
BLOCKS
  0
BLOCK
  2
*GRP_0001
 70
    65
 10
0.0
 20
0.0
  0
LINE
  8
型材断面
  6
CONTINUOUS
 10
195.0
 20
133.5
 11
195.0
 21
-133.5
  0
LINE
  8
型材断面
  6
CONTINUOUS
 10
195.0
 20
-133.5
 11
-185.0
 21
-133.5
  0
LINE
  8
型材断面
  6
CONTINUOUS
 10
-185.0
 20
-133.5
 11
-185.0
 21
133.5
  0
LINE
  8
型材断面
  6
CONTINUOUS
 10
195.0
 20
133.5
 11
-185.0
 21
133.5
  0
LINE
  8
型材断面
  6
CONTINUOUS
 10
145.0
 20
-133.5
 11
145.0
 21
-118.5
  0
LINE
  8
型材断面
  6
CONTINUOUS
 10
195.0
 20
-118.5
 11
145.0
 21
-118.5
  0
ENDBLK
  0
BLOCK
  2
*DIM_0002
 70
    65
 10
0.0
 20
0.0
  0
LINE
  8
寸法
  6
BYBLOCK
 62
     0
 10
-92.719982
 20
-21.031012
 11
-12.719982
 21
-21.031012
  0
POINT
  8
寸法
 62
     0
 10
-92.719982
 20
-21.031012
  0
POINT
  8
寸法
 62
     0
 10
-12.719982
 20
-21.031012
  0
TEXT
  7
TextStyle03
  8
寸法
  6
CONTINUOUS
 62
     0
 10
-64.44375
 20
-20.65
  1
呼称寸法　1600
 40
3.0
 72
     5
 11
-41.00625
 21
-20.65
  0
ENDBLK
  0
BLOCK
  2
*DIM_0003
 70
    65
 10
0.0
 20
0.0
  0
LINE
  8
寸法
  6
BYBLOCK
 62
     0
 10
-57.844985
 20
-47.95624
 11
-57.844985
 21
-31.616595
  0
LINE
  8
寸法
  6
BYBLOCK
 62
     0
 10
-47.59498
 20
-47.95624
 11
-47.59498
 21
-31.616595
  0
LINE
  8
寸法
  6
BYBLOCK
 62
     0
 10
-57.844985
 20
-31.616595
 11
-47.59498
 21
-31.616595
  0
POINT
  8
寸法
 62
     0
 10
-57.844985
 20
-31.616595
  0
POINT
  8
寸法
 62
     0
 10
-47.59498
 20
-31.616595
  0
TEXT
  7
TextStyle03
  8
寸法
  6
CONTINUOUS
 62
     0
 10
-55.1625
 20
-31.225
  1
205
 40
3.0
 72
     5
 11
-50.2875
 21
-31.225
  0
ENDBLK
  0
BLOCK
  2
*DIM_0004
 70
    65
 10
0.0
 20
0.0
  0
LINE
  8
寸法
  6
BYBLOCK
 62
     0
 10
-38.227887
 20
-44.256243
 11
-37.506495
 21
-44.256243
  0
LINE
  8
寸法
  6
BYBLOCK
 62
     0
 10
-46.59498
 20
-49.38124
 11
-37.506495
 21
-49.38124
  0
LINE
  8
寸法
  6
BYBLOCK
 62
     0
 10
-37.506495
 20
-44.256243
 11
-37.506495
 21
-49.38124
  0
POINT
  8
寸法
 62
     0
 10
-37.506495
 20
-44.256243
  0
POINT
  8
寸法
 62
     0
 10
-37.506495
 20
-49.38124
  0
TEXT
  7
TextStyle03
  8
寸法
  6
CONTINUOUS
 62
     0
 10
-34.5
 20
-50.925
  1
102.5
 40
3.0
 50
90.0
 72
     5
 11
-34.5
 21
-42.675
  0
ENDBLK
  0
BLOCK
  2
*DIM_0005
 70
    65
 10
0.0
 20
0.0
  0
LINE
  8
寸法
  6
BYBLOCK
 62
     0
 10
-117.314983
 20
60.637107
 11
-128.138282
 21
60.637107
  0
LINE
  8
寸法
  6
BYBLOCK
 62
     0
 10
-117.314983
 20
25.637107
 11
-128.138282
 21
25.637107
  0
LINE
  8
寸法
  6
BYBLOCK
 62
     0
 10
-128.138282
 20
60.637107
 11
-128.138282
 21
25.637107
  0
POINT
  8
寸法
 62
     0
 10
-128.138282
 20
60.637107
  0
POINT
  8
寸法
 62
     0
 10
-128.138282
 20
25.637107
  0
TEXT
  7
TextStyle03
  8
寸法
  6
CONTINUOUS
 62
     0
 10
-128.45
 20
40.6875
  1
700
 40
3.0
 50
90.0
 72
     5
 11
-128.45
 21
45.5625
  0
ENDBLK
  0
BLOCK
  2
*DIM_0006
 70
    65
 10
0.0
 20
0.0
  0
LINE
  8
寸法
  6
BYBLOCK
 62
     0
 10
-82.719982
 20
112.238933
 11
-82.719982
 21
120.014443
  0
LINE
  8
寸法
  6
BYBLOCK
 62
     0
 10
-52.719982
 20
112.238933
 11
-52.719982
 21
120.014443
  0
LINE
  8
寸法
  6
BYBLOCK
 62
     0
 10
-82.719982
 20
120.014443
 11
-52.719982
 21
120.014443
  0
POINT
  8
寸法
 62
     0
 10
-82.719982
 20
120.014443
  0
POINT
  8
寸法
 62
     0
 10
-52.719982
 20
120.014443
  0
TEXT
  7
TextStyle03
  8
寸法
  6
CONTINUOUS
 62
     0
 10
-70.1625
 20
120.375
  1
600
 40
3.0
 72
     5
 11
-65.2875
 21
120.375
  0
ENDBLK
  0
BLOCK
  2
*DIM_0007
 70
    65
 10
0.0
 20
0.0
  0
LINE
  8
寸法
  6
BYBLOCK
 62
     0
 10
-22.719982
 20
112.238933
 11
-22.719982
 21
120.014443
  0
LINE
  8
寸法
  6
BYBLOCK
 62
     0
 10
-52.719982
 20
120.014443
 11
-22.719982
 21
120.014443
  0
POINT
  8
寸法
 62
     0
 10
-22.719982
 20
120.014443
  0
TEXT
  7
TextStyle03
  8
寸法
  6
CONTINUOUS
 62
     0
 10
-40.1625
 20
120.375
  1
600
 40
3.0
 72
     5
 11
-35.2875
 21
120.375
  0
ENDBLK
  0
BLOCK
  2
*DIM_0008
 70
    65
 10
0.0
 20
0.0
  0
LINE
  8
寸法
  6
CONTINUOUS
 10
-2.923157
 20
-91.929795
 11
14.394335
 21
-91.929795
  0
LINE
  8
寸法
  6
CONTINUOUS
 10
-2.173287
 20
-89.97967
 11
14.394335
 21
-89.97967
  0
LINE
  8
寸法
  6
CONTINUOUS
 10
14.394335
 20
-91.929795
 11
14.394335
 21
-89.97967
  0
POINT
  8
寸法
 10
14.394335
 20
-91.929795
  0
POINT
  8
寸法
 10
14.394335
 20
-89.97967
  0
TEXT
  7
TextStyle03
  8
寸法
  6
CONTINUOUS
 10
18.5
 20
-93.1
  1
39
 40
4.0
 50
90.0
 72
     5
 11
18.5
 21
-88.85
  0
ENDBLK
  0
BLOCK
  2
*DIM_0009
 70
    65
 10
0.0
 20
0.0
  0
LINE
  8
寸法
  6
CONTINUOUS
 10
-47.719982
 20
-44.256243
 11
14.394335
 21
-44.256243
  0
LINE
  8
寸法
  6
CONTINUOUS
 10
14.394335
 20
-89.97967
 11
14.394335
 21
-44.256243
  0
POINT
  8
寸法
 10
14.394335
 20
-89.97967
  0
POINT
  8
寸法
 10
14.394335
 20
-44.256243
  0
TEXT
  7
TextStyle03
  8
寸法
  6
CONTINUOUS
 10
14.0
 20
-72.625
  1
914.5
 40
4.0
 50
90.0
 72
     5
 11
14.0
 21
-61.625
  0
ENDBLK
  0
BLOCK
  2
*DIM_0010
 70
    65
 10
0.0
 20
0.0
  0
LINE
  8
寸法
  6
CONTINUOUS
 10
-98.266677
 20
-84.97967
 11
-98.266677
 21
-21.031012
  0
LINE
  8
寸法
  6
CONTINUOUS
 10
-92.719982
 20
-21.031012
 11
-98.266677
 21
-21.031012
  0
POINT
  8
寸法
 10
-92.719982
 20
-21.031012
  0
POINT
  8
寸法
 10
-98.266677
 20
-21.031012
  0
TEXT
  7
TextStyle03
  8
寸法
  6
CONTINUOUS
 10
-101.0
 20
-20.675
  1
110.9
 40
4.0
 72
     5
 11
-90.0
 21
-20.675
  0
ENDBLK
  0
BLOCK
  2
*DIM_0011
 70
    65
 10
0.0
 20
0.0
  0
LINE
  8
寸法
  6
CONTINUOUS
 10
-7.173287
 20
-84.97967
 11
-7.173287
 21
-21.031012
  0
LINE
  8
寸法
  6
CONTINUOUS
 10
-12.719982
 20
-21.031012
 11
-7.173287
 21
-21.031012
  0
POINT
  8
寸法
 10
-12.719982
 20
-21.031012
  0
POINT
  8
寸法
 10
-7.173287
 20
-21.031012
  0
TEXT
  7
TextStyle03
  8
寸法
  6
CONTINUOUS
 10
-15.45
 20
-20.675
  1
110.9
 40
4.0
 72
     5
 11
-4.45
 21
-20.675
  0
ENDBLK
  0
BLOCK
  2
*DIM_0012
 70
    65
 10
0.0
 20
0.0
  0
LINE
  8
寸法
  6
BYBLOCK
 62
     0
 10
171.976663
 20
-88.02332
 11
184.1525
 21
-88.02332
  0
LINE
  8
寸法
  6
BYBLOCK
 62
     0
 10
129.932183
 20
-28.563447
 11
184.1525
 21
-28.563447
  0
LINE
  8
寸法
  6
BYBLOCK
 62
     0
 10
184.1525
 20
-88.02332
 11
184.1525
 21
-28.563447
  0
POINT
  8
寸法
 62
     0
 10
184.1525
 20
-88.02332
  0
POINT
  8
寸法
 62
     0
 10
184.1525
 20
-28.563447
  0
TEXT
  7
TextStyle03
  8
寸法
  6
CONTINUOUS
 62
     0
 10
183.775
 20
-63.26875
  1
1189.2
 40
3.0
 50
90.0
 72
     5
 11
183.775
 21
-53.33125
  0
ENDBLK
  0
BLOCK
  2
*DIM_0013
 70
    65
 10
0.0
 20
0.0
  0
LINE
  8
寸法
  6
BYBLOCK
 62
     0
 10
84.887702
 20
-91.02332
 11
84.887702
 21
-104.205
  0
LINE
  8
寸法
  6
BYBLOCK
 62
     0
 10
168.976663
 20
-91.02332
 11
168.976663
 21
-104.205
  0
LINE
  8
寸法
  6
BYBLOCK
 62
     0
 10
84.887702
 20
-104.205
 11
168.976663
 21
-104.205
  0
POINT
  8
寸法
 62
     0
 10
84.887702
 20
-104.205
  0
POINT
  8
寸法
 62
     0
 10
168.976663
 20
-104.205
  0
TEXT
  7
TextStyle03
  8
寸法
  6
CONTINUOUS
 62
     0
 10
121.95625
 20
-103.825
  1
1681.8
 40
3.0
 72
     5
 11
131.89375
 21
-103.825
  0
ENDBLK
  0
ENDSEC
  0
SECTION
  2
ENTITIES
  0
POLYLINE
  8
通り芯
  6
CONTINUOUS
 66
     1
 70
     1
  0
VERTEX
  8
通り芯
 10
-210.0
 20
-148.5
  0
VERTEX
  8
通り芯
 10
210.0
 20
-148.5
  0
VERTEX
  8
通り芯
 10
210.0
 20
148.5
  0
VERTEX
  8
通り芯
 10
-210.0
 20
148.5
  0
SEQEND
  0
INSERT
  2
*GRP_0001
  8
型材断面
  6
CONTINUOUS
 10
0.0
 20
0.0
  0
LINE
  8
型材断面
  6
CONTINUOUS
 10
82.527518
 20
-39.588792
 11
106.45914
 21
-39.588792
  0
LINE
  8
型材断面
  6
DASHDOT
 10
-92.719982
 20
43.137107
 11
-12.719982
 21
43.137107
  0
LINE
  8
型材断面
  6
DASHDOT
 10
-92.719982
 20
83.137107
 11
-12.719982
 21
83.137107
  0
LINE
  8
型材断面
  6
DASHDOT
 10
-92.719982
 20
-100.378145
 11
-92.719982
 21
83.137107
  0
LINE
  8
型材断面
  6
DASHDOT
 10
-52.719982
 20
-100.378145
 11
-52.719982
 21
83.137107
  0
LINE
  8
型材断面
  6
DASHDOT
 10
-12.719982
 20
-100.378145
 11
-12.719982
 21
83.137107
  0
LINE
  8
型材断面
  6
DASHDOT
 10
-92.719982
 20
3.137107
 11
-12.719982
 21
3.137107
  0
LINE
  8
型材断面
  6
CONTINUOUS
 10
-52.719982
 20
-4.88677
 11
-54.963428
 21
-8.77253
  0
LINE
  8
型材断面
  6
CONTINUOUS
 10
-52.719982
 20
-4.88677
 11
-50.476537
 21
-8.77253
  0
LINE
  8
型材断面
  6
CONTINUOUS
 10
-50.476537
 20
-8.77253
 11
-54.963428
 21
-8.77253
  0
LINE
  8
型材断面
  6
CONTINUOUS
 10
-4.696105
 20
43.13711
 11
-0.810345
 21
40.893665
  0
LINE
  8
型材断面
  6
CONTINUOUS
 10
-4.696105
 20
43.13711
 11
-0.810345
 21
45.380555
  0
LINE
  8
型材断面
  6
CONTINUOUS
 10
-0.810345
 20
45.380555
 11
-0.810345
 21
40.893665
  0
LINE
  8
型材断面
  6
CONTINUOUS
 10
-100.74386
 20
43.13711
 11
-104.62962
 21
40.893665
  0
LINE
  8
型材断面
  6
CONTINUOUS
 10
-100.74386
 20
43.13711
 11
-104.62962
 21
45.380555
  0
LINE
  8
型材断面
  6
CONTINUOUS
 10
-104.62962
 20
45.380555
 11
-104.62962
 21
40.893665
  0
LINE
  8
型材断面
  6
CONTINUOUS
 10
21.013337
 20
-2.648693
 11
18.769893
 21
-6.534453
  0
LINE
  8
型材断面
  6
CONTINUOUS
 10
21.013337
 20
-2.648693
 11
23.256783
 21
-6.534453
  0
LINE
  8
型材断面
  6
CONTINUOUS
 10
23.256783
 20
-6.534453
 11
18.769893
 21
-6.534453
  0
LINE
  8
型材断面
  6
CONTINUOUS
 10
11.979457
 20
-7.942345
 11
64.636138
 21
-7.942345
  0
LINE
  8
型材断面
  6
CONTINUOUS
 10
-52.719982
 20
91.160985
 11
-54.963428
 21
95.046745
  0
LINE
  8
型材断面
  6
CONTINUOUS
 10
-52.719982
 20
91.160985
 11
-50.476537
 21
95.046745
  0
LINE
  8
型材断面
  6
CONTINUOUS
 10
-50.476537
 20
95.046745
 11
-54.963428
 21
95.046745
  0
LINE
  8
型材断面
  6
CONTINUOUS
 10
11.979457
 20
-16.119603
 11
64.636138
 21
-16.119603
  0
LINE
  8
型材断面
  6
CONTINUOUS
 10
-57.844982
 20
-49.381245
 11
-52.719982
 21
-49.381245
  0
LINE
  8
型材断面
  6
CONTINUOUS
 10
-57.844982
 20
-49.381245
 11
-57.774273
 21
-49.451955
  0
LINE
  8
型材断面
  6
CONTINUOUS
 10
-52.719982
 20
-49.451955
 11
-57.774273
 21
-49.451955
  0
LINE
  8
型材断面
  6
CONTINUOUS
 10
-57.844982
 20
-49.381245
 11
-52.719982
 21
-44.256243
  0
LINE
  8
型材断面
  6
CONTINUOUS
 10
-47.594982
 20
-49.381245
 11
-52.719982
 21
-49.381245
  0
LINE
  8
型材断面
  6
CONTINUOUS
 10
-47.594982
 20
-49.381245
 11
-47.665693
 21
-49.451955
  0
LINE
  8
型材断面
  6
CONTINUOUS
 10
-52.719982
 20
-49.451955
 11
-47.665693
 21
-49.451955
  0
LINE
  8
型材断面
  6
CONTINUOUS
 10
-47.594982
 20
-49.381245
 11
-52.719982
 21
-44.256243
  0
LINE
  8
型材断面
  6
CONTINUOUS
 10
-57.844982
 20
43.137107
 11
-57.844982
 21
38.012107
  0
LINE
  8
型材断面
  6
CONTINUOUS
 10
-52.719982
 20
38.012107
 11
-57.844982
 21
38.012107
  0
LINE
  8
型材断面
  6
CONTINUOUS
 10
-98.094982
 20
-2.237892
 11
-52.719982
 21
-2.237892
  0
LINE
  8
型材断面
  6
CONTINUOUS
 10
-98.094982
 20
-2.237892
 11
-98.094982
 21
43.137107
  0
LINE
  8
型材断面
  6
CONTINUOUS
 10
-47.594982
 20
43.137107
 11
-47.594982
 21
38.012107
  0
LINE
  8
型材断面
  6
CONTINUOUS
 10
-52.719982
 20
38.012107
 11
-47.594982
 21
38.012107
  0
LINE
  8
型材断面
  6
CONTINUOUS
 10
-7.344982
 20
-2.237892
 11
-52.719982
 21
-2.237892
  0
LINE
  8
型材断面
  6
CONTINUOUS
 10
-7.344982
 20
-2.237892
 11
-7.344982
 21
43.137107
  0
LINE
  8
型材断面
  6
CONTINUOUS
 10
-47.594982
 20
43.137107
 11
-47.594982
 21
48.262107
  0
LINE
  8
型材断面
  6
CONTINUOUS
 10
-52.719982
 20
48.262107
 11
-47.594982
 21
48.262107
  0
LINE
  8
型材断面
  6
CONTINUOUS
 10
-7.344982
 20
88.512107
 11
-52.719982
 21
88.512107
  0
LINE
  8
型材断面
  6
CONTINUOUS
 10
-7.344982
 20
88.512107
 11
-7.344982
 21
43.137107
  0
LINE
  8
型材断面
  6
CONTINUOUS
 10
-57.844982
 20
43.137107
 11
-57.844982
 21
48.262107
  0
LINE
  8
型材断面
  6
CONTINUOUS
 10
-52.719982
 20
48.262107
 11
-57.844982
 21
48.262107
  0
LINE
  8
型材断面
  6
CONTINUOUS
 10
-98.094982
 20
88.512107
 11
-52.719982
 21
88.512107
  0
LINE
  8
型材断面
  6
CONTINUOUS
 10
-98.094982
 20
88.512107
 11
-98.094982
 21
43.137107
  0
LINE
  8
型材断面
  6
CONTINUOUS
 62
    47
 10
-96.766807
 20
-92.679795
 11
-52.741807
 21
-92.679795
  0
LINE
  8
型材断面
  6
CONTINUOUS
 62
    47
 10
-97.516807
 20
-91.929795
 11
-52.741807
 21
-91.929795
  0
LINE
  8
型材断面
  6
CONTINUOUS
 10
-97.516807
 20
-91.184797
 11
-52.741807
 21
-91.184797
  0
LINE
  8
型材断面
  6
CONTINUOUS
 62
    47
 10
-97.516807
 20
-91.929795
 11
-97.516807
 21
-91.184797
  0
LINE
  8
型材断面
  6
CONTINUOUS
 62
    47
 10
-96.766807
 20
-92.679795
 11
-96.766807
 21
-91.929795
  0
LINE
  8
型材断面
  6
CONTINUOUS
 62
    47
 10
-97.516807
 20
-91.184797
 11
-97.289335
 21
-90.957325
  0
LINE
  8
型材断面
  6
CONTINUOUS
 10
-97.289335
 20
-90.957325
 11
-53.142602
 21
-90.957325
  0
LINE
  8
型材断面
  6
CONTINUOUS
 10
-98.266677
 20
-89.97967
 11
-52.891677
 21
-89.97967
  0
LINE
  8
型材断面
  6
CONTINUOUS
 62
    47
 10
-52.719982
 20
-44.433018
 11
-98.26681
 21
-89.979845
  0
LINE
  8
型材断面
  6
CONTINUOUS
 62
    47
 10
-97.289335
 20
-90.957325
 11
-98.26681
 21
-89.979845
  0
LINE
  8
型材断面
  6
CONTINUOUS
 62
    47
 10
-8.673157
 20
-92.679795
 11
-52.698157
 21
-92.679795
  0
LINE
  8
型材断面
  6
CONTINUOUS
 62
    47
 10
-7.923157
 20
-91.929795
 11
-52.698157
 21
-91.929795
  0
LINE
  8
型材断面
  6
CONTINUOUS
 10
-7.923157
 20
-91.184797
 11
-52.698157
 21
-91.184797
  0
LINE
  8
型材断面
  6
CONTINUOUS
 62
    47
 10
-7.923157
 20
-91.929795
 11
-7.923157
 21
-91.184797
  0
LINE
  8
型材断面
  6
CONTINUOUS
 62
    47
 10
-8.673157
 20
-92.679795
 11
-8.673157
 21
-91.929795
  0
LINE
  8
型材断面
  6
CONTINUOUS
 62
    47
 10
-7.923157
 20
-91.184797
 11
-8.15063
 21
-90.957325
  0
LINE
  8
型材断面
  6
CONTINUOUS
 10
-8.15063
 20
-90.957325
 11
-52.297362
 21
-90.957325
  0
LINE
  8
型材断面
  6
CONTINUOUS
 10
-7.173287
 20
-89.97967
 11
-52.548287
 21
-89.97967
  0
LINE
  8
型材断面
  6
CONTINUOUS
 62
    47
 10
-8.15063
 20
-90.957325
 11
-7.173155
 21
-89.979845
  0
LINE
  8
型材断面
  6
CONTINUOUS
 62
    47
 10
-52.719982
 20
-44.433018
 11
-7.17333
 21
-89.97967
  0
LINE
  8
型材断面
  6
CONTINUOUS
 10
-9.175912
 20
-87.977088
 11
-12.850158
 21
-87.977088
  0
LINE
  8
型材断面
  6
CONTINUOUS
 10
-52.719982
 20
-88.477088
 11
-8.675912
 21
-88.477088
  0
LINE
  8
型材断面
  6
CONTINUOUS
 10
-51.37529
 20
-49.451955
 11
-12.350158
 21
-88.477088
  0
LINE
  8
型材断面
  6
CONTINUOUS
 10
-54.064675
 20
-49.451955
 11
-93.089808
 21
-88.477088
  0
LINE
  8
型材断面
  6
CONTINUOUS
 10
-92.589808
 20
-87.977088
 11
-96.264052
 21
-87.977088
  0
LINE
  8
型材断面
  6
CONTINUOUS
 10
-52.719982
 20
-88.477088
 11
-96.764052
 21
-88.477088
  0
LINE
  8
型材断面
  6
CONTINUOUS
 10
-9.175912
 20
3.241338
 11
-9.175912
 21
-0.406963
  0
LINE
  8
型材断面
  6
CONTINUOUS
 10
-9.175912
 20
-0.406963
 11
-12.824208
 21
-0.406963
  0
LINE
  8
型材断面
  6
CONTINUOUS
 10
-7.344982
 20
-2.237892
 11
-8.675912
 21
-0.906963
  0
LINE
  8
型材断面
  6
CONTINUOUS
 10
-52.719982
 20
43.137107
 11
-9.175912
 21
-0.406963
  0
LINE
  8
型材断面
  6
CONTINUOUS
 10
-47.594982
 20
41.660407
 11
-8.675912
 21
2.741338
  0
LINE
  8
型材断面
  6
CONTINUOUS
 10
-51.243278
 20
38.012107
 11
-12.324208
 21
-0.906963
  0
LINE
  8
型材断面
  6
CONTINUOUS
 10
-8.675912
 20
-0.906963
 11
-8.675912
 21
43.137107
  0
LINE
  8
型材断面
  6
CONTINUOUS
 10
-8.675912
 20
-0.906963
 11
-52.719982
 21
-0.906963
  0
LINE
  8
型材断面
  6
CONTINUOUS
 10
-9.175912
 20
83.032877
 11
-9.175912
 21
86.681178
  0
LINE
  8
型材断面
  6
CONTINUOUS
 10
-9.175912
 20
86.681178
 11
-12.824208
 21
86.681178
  0
LINE
  8
型材断面
  6
CONTINUOUS
 10
-7.344982
 20
88.512107
 11
-8.675912
 21
87.181178
  0
LINE
  8
型材断面
  6
CONTINUOUS
 10
-8.675912
 20
87.181178
 11
-8.675912
 21
43.137107
  0
LINE
  8
型材断面
  6
CONTINUOUS
 10
-8.675912
 20
87.181178
 11
-52.719982
 21
87.181178
  0
LINE
  8
型材断面
  6
CONTINUOUS
 10
-96.264052
 20
83.032877
 11
-96.264052
 21
86.681178
  0
LINE
  8
型材断面
  6
CONTINUOUS
 10
-96.264052
 20
86.681178
 11
-92.615758
 21
86.681178
  0
LINE
  8
型材断面
  6
CONTINUOUS
 10
-98.094982
 20
88.512107
 11
-96.764052
 21
87.181178
  0
LINE
  8
型材断面
  6
CONTINUOUS
 10
-96.764052
 20
87.181178
 11
-96.764052
 21
43.137107
  0
LINE
  8
型材断面
  6
CONTINUOUS
 10
-96.764052
 20
87.181178
 11
-52.719982
 21
87.181178
  0
LINE
  8
型材断面
  6
CONTINUOUS
 10
-96.264052
 20
3.241338
 11
-96.264052
 21
-0.406963
  0
LINE
  8
型材断面
  6
CONTINUOUS
 10
-96.264052
 20
-0.406963
 11
-92.615758
 21
-0.406963
  0
LINE
  8
型材断面
  6
CONTINUOUS
 10
-98.094982
 20
-2.237892
 11
-96.764052
 21
-0.906963
  0
LINE
  8
型材断面
  6
CONTINUOUS
 10
-96.764052
 20
-0.906963
 11
-96.764052
 21
43.137107
  0
LINE
  8
型材断面
  6
CONTINUOUS
 10
-96.764052
 20
-0.906963
 11
-52.719982
 21
-0.906963
  0
LINE
  8
型材断面
  6
CONTINUOUS
 10
-52.719982
 20
43.137107
 11
-96.264052
 21
-0.406963
  0
LINE
  8
型材断面
  6
CONTINUOUS
 10
-54.196688
 20
38.012107
 11
-93.115758
 21
-0.906963
  0
LINE
  8
型材断面
  6
CONTINUOUS
 10
-57.844982
 20
41.660407
 11
-96.764052
 21
2.741338
  0
LINE
  8
型材断面
  6
CONTINUOUS
 10
-57.844982
 20
44.613808
 11
-96.764052
 21
83.532877
  0
LINE
  8
型材断面
  6
CONTINUOUS
 10
-52.719982
 20
43.137107
 11
-96.264052
 21
86.681178
  0
LINE
  8
型材断面
  6
CONTINUOUS
 10
-54.196688
 20
48.262107
 11
-93.115758
 21
87.181178
  0
LINE
  8
型材断面
  6
CONTINUOUS
 10
-47.594982
 20
44.613808
 11
-8.675912
 21
83.532877
  0
LINE
  8
型材断面
  6
CONTINUOUS
 10
-51.243278
 20
48.262107
 11
-12.324208
 21
87.181178
  0
LINE
  8
型材断面
  6
CONTINUOUS
 10
-52.719982
 20
43.137107
 11
-9.175912
 21
86.681178
  0
LINE
  8
ガラス
  6
CONTINUOUS
 10
-50.832157
 20
-69.200072
 11
-54.704792
 21
-73.072707
  0
LINE
  8
ガラス
  6
CONTINUOUS
 10
-51.71248
 20
-70.79843
 11
-53.106435
 21
-72.192385
  0
LINE
  8
ガラス
  6
CONTINUOUS
 10
-52.430515
 20
-70.080395
 11
-53.82447
 21
-71.47435
  0
LINE
  8
ガラス
  6
CONTINUOUS
 10
-50.382882
 20
16.849553
 11
-54.255518
 21
12.976917
  0
LINE
  8
ガラス
  6
CONTINUOUS
 10
-51.98124
 20
15.96923
 11
-53.375195
 21
14.575275
  0
LINE
  8
ガラス
  6
CONTINUOUS
 10
-50.382882
 20
71.865582
 11
-54.255518
 21
67.992948
  0
LINE
  8
ガラス
  6
CONTINUOUS
 10
-51.98124
 20
70.98526
 11
-53.375195
 21
69.591305
  0
LINE
  8
ガラス
  6
CONTINUOUS
 10
-23.633472
 20
44.952167
 11
-27.506107
 21
41.079532
  0
LINE
  8
ガラス
  6
CONTINUOUS
 10
-25.23183
 20
44.071845
 11
-26.625785
 21
42.67789
  0
LINE
  8
ガラス
  6
CONTINUOUS
 10
-76.95881
 20
44.952167
 11
-80.831445
 21
41.079532
  0
LINE
  8
ガラス
  6
CONTINUOUS
 10
-78.557168
 20
44.071845
 11
-79.951123
 21
42.67789
  0
TEXT
  7
TextStyle03
  8
文字
  6
CONTINUOUS
 10
75.7
 20
96.675
  1
ＮＳコード：ＮＳ４ＣＫＺ
 40
5.0
 72
     5
 11
142.575
 21
96.675
  0
TEXT
  7
TextStyle03
  8
文字
  6
CONTINUOUS
 10
86.125
 20
-38.375
  1
ガラス寸法
 40
3.0
 72
     5
 11
102.625
 21
-38.375
  0
TEXT
  7
TextStyle03
  8
文字
  6
CONTINUOUS
 10
25.325
 20
-6.2
  1
は排水穴位置を示す
 40
3.0
 72
     5
 11
55.325
 21
-6.2
  0
TEXT
  7
TextStyle03
  8
文字
  6
CONTINUOUS
 10
19.725
 20
-14.725
  1
アンカー数量　１０ヶ所
 40
3.0
 72
     5
 11
56.475
 21
-14.725
  0
TEXT
  7
TextStyle03
  8
文字
  6
CONTINUOUS
 10
-112.95
 20
116.075
  1
アンカーピッチ
 40
3.0
 72
     5
 11
-89.7
 21
116.075
  0
TEXT
  7
TextStyle03
  8
文字
  6
CONTINUOUS
 10
-124.95
 20
0.05
  1
アンカーピッチ
 40
3.0
 50
90.0
 72
     5
 11
-124.95
 21
23.3
  0
TEXT
  7
TextStyle03
  8
文字
  6
CONTINUOUS
 10
146.925
 20
-84.925
  1
×４枚
 40
3.0
 72
     5
 11
156.675
 21
-84.925
  0
TEXT
  7
TextStyle03
  8
文字
  6
CONTINUOUS
 10
76.05
 20
117.825
  1
シリーズ：ＴＦ２４Ｋ
 40
5.0
 72
     5
 11
131.675
 21
117.825
  0
TEXT
  7
TextStyle03
  8
文字
  6
CONTINUOUS
 10
76.05
 20
112.2
  1
　　　　　四角錘（固定）1600×1600タイプ
 40
5.0
 72
     5
 11
187.925
 21
112.2
  0
TEXT
  7
TextStyle03
  8
文字
  6
CONTINUOUS
 10
76.05
 20
106.575
  1
図面名　：外観姿図
 40
5.0
 72
     5
 11
126.05
 21
106.575
  0
TEXT
  7
TextStyle03
  8
文字
  6
CONTINUOUS
 10
76.05
 20
100.95
  1
　　　　　　
 40
5.0
 72
     5
 11
109.175
 21
100.95
  0
INSERT
  2
*DIM_0002
  8
寸法
  6
CONTINUOUS
 10
0.0
 20
0.0
  0
INSERT
  2
*DIM_0003
  8
寸法
  6
CONTINUOUS
 10
0.0
 20
0.0
  0
INSERT
  2
*DIM_0004
  8
寸法
  6
CONTINUOUS
 10
0.0
 20
0.0
  0
INSERT
  2
*DIM_0005
  8
寸法
  6
CONTINUOUS
 10
0.0
 20
0.0
  0
INSERT
  2
*DIM_0006
  8
寸法
  6
CONTINUOUS
 10
0.0
 20
0.0
  0
INSERT
  2
*DIM_0007
  8
寸法
  6
CONTINUOUS
 10
0.0
 20
0.0
  0
INSERT
  2
*DIM_0008
  8
寸法
  6
CONTINUOUS
 10
0.0
 20
0.0
  0
INSERT
  2
*DIM_0009
  8
寸法
  6
CONTINUOUS
 10
0.0
 20
0.0
  0
INSERT
  2
*DIM_0010
  8
寸法
  6
CONTINUOUS
 10
0.0
 20
0.0
  0
INSERT
  2
*DIM_0011
  8
寸法
  6
CONTINUOUS
 10
0.0
 20
0.0
  0
INSERT
  2
*DIM_0012
  8
寸法
  6
CONTINUOUS
 10
0.0
 20
0.0
  0
INSERT
  2
*DIM_0013
  8
寸法
  6
CONTINUOUS
 10
0.0
 20
0.0
  0
LINE
  8
曲げ物
  6
CONTINUOUS
 10
84.887702
 20
-88.02332
 11
126.932183
 21
-28.563447
  0
LINE
  8
曲げ物
  6
CONTINUOUS
 10
126.932183
 20
-28.563447
 11
168.976663
 21
-88.02332
  0
LINE
  8
曲げ物
  6
CONTINUOUS
 10
84.887702
 20
-88.02332
 11
168.976663
 21
-88.02332
  0
ENDSEC
  0
EOF
