  0
SECTION
  2
HEADER
  9
$EXTMIN
 10
-210.0
 20
-148.5
  9
$EXTMAX
 10
210.0
 20
148.5
  9
$PDMODE
 70
    32
  9
$PDSIZE
 40
1.5
  9
$LTSCALE
 40
10.0
  0
ENDSEC
  0
SECTION
  2
TABLES
  0
TABLE
  2
LTYPE
 70
    15
  0
LTYPE
  2
CONTINUOUS
 70
    64
  3
実線
 72
    65
 73
     0
 40
0.0
  0
LTYPE
  2
DASHED
 70
    64
  3
破線A
 72
    65
 73
     2
 40
0.6
 49
0.4
 49
-0.2
  0
LTYPE
  2
DASHEDX2
 70
    64
  3
破線B
 72
    65
 73
     2
 40
1.3
 49
0.9
 49
-0.4
  0
LTYPE
  2
DASHDOT
 70
    64
  3
１点鎖線A
 72
    65
 73
     4
 40
0.5375
 49
0.375
 49
-0.05
 49
0.0625
 49
-0.05
  0
LTYPE
  2
DASHDOTX2
 70
    64
  3
１点鎖線B
 72
    65
 73
     4
 40
1.075
 49
0.75
 49
-0.1
 49
0.125
 49
-0.1
  0
LTYPE
  2
DIVIDE2
 70
    64
  3
２点鎖線A
 72
    65
 73
     6
 40
0.5125
 49
0.3
 49
-0.0375
 49
0.05
 49
-0.0375
 49
0.05
 49
-0.0375
  0
LTYPE
  2
DIVIDE
 70
    64
  3
２点鎖線B
 72
    65
 73
     6
 40
1.05
 49
0.55
 49
-0.1
 49
0.1
 49
-0.1
 49
0.1
 49
-0.1
  0
LTYPE
  2
DOT
 70
    64
  3
点線A
 72
    65
 73
     2
 40
0.1125
 49
0.0625
 49
-0.05
  0
LTYPE
  2
DOTX2
 70
    64
  3
点線B
 72
    65
 73
     2
 40
0.275
 49
0.15
 49
-0.125
  0
LTYPE
  2
CONTINUOUS
 70
    64
  3
実線
 72
    65
 73
     0
 40
0.0
  0
LTYPE
  2
CONTINUOUS
 70
    64
  3
実線
 72
    65
 73
     0
 40
0.0
  0
LTYPE
  2
CONTINUOUS
 70
    64
  3
実線
 72
    65
 73
     0
 40
0.0
  0
LTYPE
  2
CONTINUOUS
 70
    64
  3
実線
 72
    65
 73
     0
 40
0.0
  0
LTYPE
  2
CONTINUOUS
 70
    64
  3
実線
 72
    65
 73
     0
 40
0.0
  0
LTYPE
  2
CONTINUOUS
 70
    64
  3
実線
 72
    65
 73
     0
 40
0.0
  0
ENDTAB
  0
TABLE
  2
LAYER
 70
    34
  0
LAYER
  2
通り芯
 70
     0
 62
    15
  6
CONTINUOUS
  0
LAYER
  2
補助線
 70
     0
 62
    16
  6
DOT
  0
LAYER
  2
躯体
 70
     0
 62
    31
  6
CONTINUOUS
  0
LAYER
  2
型材
 70
     0
 62
    32
  6
CONTINUOUS
  0
LAYER
  2
型材断面
 70
     0
 62
    47
  6
CONTINUOUS
  0
LAYER
  2
ガラス
 70
     0
 62
    48
  6
CONTINUOUS
  0
LAYER
  2
ゴム等
 70
     0
 62
    63
  6
CONTINUOUS
  0
LAYER
  2
ボルト／ビス
 70
     0
 62
    64
  6
CONTINUOUS
  0
LAYER
  2
文字
 70
     0
 62
    79
  6
CONTINUOUS
  0
LAYER
  2
寸法
 70
     0
 62
    80
  6
CONTINUOUS
  0
LAYER
  2
ﾊｯﾁﾝｸﾞ
 70
     0
 62
    95
  6
CONTINUOUS
  0
LAYER
  2
別途部材
 70
     0
 62
    96
  6
CONTINUOUS
  0
LAYER
  2
曲げ物
 70
     0
 62
   111
  6
CONTINUOUS
  0
LAYER
  2
鉄骨等
 70
     0
 62
   112
  6
CONTINUOUS
  0
LAYER
  2
St
 70
     0
 62
   127
  6
CONTINUOUS
  0
LAYER
  2
その他部品等
 70
     0
 62
   128
  6
CONTINUOUS
  0
LAYER
  2
ｶﾞｽｹｯﾄ
 70
     0
 62
   143
  6
CONTINUOUS
  0
LAYER
  2
ｽｹｯﾁ
 70
     0
 62
    14
  6
CONTINUOUS
  0
LAYER
  2
0
 70
     0
 62
    17
  6
CONTINUOUS
  0
LAYER
  2
1
 70
     0
 62
    30
  6
CONTINUOUS
  0
LAYER
  2
4
 70
     0
 62
    33
  6
CONTINUOUS
  0
LAYER
  2
ﾚｲﾔ3
 70
     0
 62
    46
  6
CONTINUOUS
  0
LAYER
  2
外形線
 70
     0
 62
    49
  6
CONTINUOUS
  0
LAYER
  2
部品
 70
     0
 62
    14
  6
CONTINUOUS
  0
LAYER
  2
サッシ芯
 70
     0
 62
    17
  6
DASHDOTX2
  0
LAYER
  2
寸法線
 70
     0
 62
    62
  6
CONTINUOUS
  0
LAYER
  2
姿図外形線
 70
     0
 62
    65
  6
CONTINUOUS
  0
LAYER
  2
姿補助線
 70
     0
 62
    30
  6
CONTINUOUS
  0
LAYER
  2
透視線
 70
     0
 62
    78
  6
DOT
  0
LAYER
  2
用紙
 70
     0
 62
    81
  6
CONTINUOUS
  0
LAYER
  2
実線図枠
 70
     0
 62
    94
  6
CONTINUOUS
  0
LAYER
  2
補助図枠
 70
     0
 62
    97
  6
CONTINUOUS
  0
LAYER
  2
建具記号
 70
     0
 62
   110
  6
CONTINUOUS
  0
LAYER
  2
補助文字
 70
     0
 62
   113
  6
CONTINUOUS
  0
ENDTAB
  0
TABLE
  2
STYLE
 70
    10
  0
STYLE
  2
STANDARD
 70
     0
 40
1.0
 41
1.0
 42
1.0
 50
0.0
 71
     0
  3
TXT
  4
BIGFONT
  0
STYLE
  2
TATE
 70
     4
 40
1.0
 41
1.0
 42
1.0
 50
0.0
 71
     0
  3
TXT
  4
BIGFONT
  0
STYLE
  2
TextStyle03
 70
     0
 40
1.0
 41
1.0
 42
1.0
 50
0.0
 71
     0
  3
MONOTXT
  4
BIGFONT
  0
STYLE
  2
TextStyle04
 70
     0
 40
1.0
 41
1.0
 42
1.0
 50
0.0
 71
     0
  3
MONOTXT
  4
BIGFONT
  0
STYLE
  2
TextStyle05
 70
     0
 40
1.0
 41
1.0
 42
1.0
 50
0.0
 71
     0
  3
MONOTXT
  4
BIGFONT
  0
STYLE
  2
TextStyle06
 70
     0
 40
1.0
 41
1.0
 42
1.0
 50
0.0
 71
     0
  3
MONOTXT
  4
BIGFONT
  0
STYLE
  2
TextStyle07
 70
     0
 40
1.0
 41
1.0
 42
1.0
 50
0.0
 71
     0
  3
MONOTXT
  4
BIGFONT
  0
STYLE
  2
TextStyle08
 70
     0
 40
1.0
 41
1.0
 42
1.0
 50
0.0
 71
     0
  3
MONOTXT
  4
BIGFONT
  0
STYLE
  2
TextStyle09
 70
     0
 40
1.0
 41
1.0
 42
1.0
 50
0.0
 71
     0
  3
MONOTXT
  4
BIGFONT
  0
STYLE
  2
TextStyle10
 70
     0
 40
1.0
 41
1.0
 42
1.0
 50
0.0
 71
     0
  3
MONOTXT
  4
BIGFONT
  0
ENDTAB
  0
ENDSEC
  0
SECTION
  2
BLOCKS
  0
BLOCK
  2
*GRP_0001
 70
    65
 10
0.0
 20
0.0
  0
LINE
  8
型材断面
  6
CONTINUOUS
 10
195.0
 20
133.5
 11
195.0
 21
-133.5
  0
LINE
  8
型材断面
  6
CONTINUOUS
 10
195.0
 20
-133.5
 11
-185.0
 21
-133.5
  0
LINE
  8
型材断面
  6
CONTINUOUS
 10
-185.0
 20
-133.5
 11
-185.0
 21
133.5
  0
LINE
  8
型材断面
  6
CONTINUOUS
 10
195.0
 20
133.5
 11
-185.0
 21
133.5
  0
LINE
  8
型材断面
  6
CONTINUOUS
 10
145.0
 20
-133.5
 11
145.0
 21
-118.5
  0
LINE
  8
型材断面
  6
CONTINUOUS
 10
195.0
 20
-118.5
 11
145.0
 21
-118.5
  0
ENDBLK
  0
BLOCK
  2
*DIM_0002
 70
    65
 10
0.0
 20
0.0
  0
LINE
  8
寸法
  6
CONTINUOUS
 62
     0
 10
-127.750185
 20
-41.3783
 11
-127.750185
 21
-38.09876
  0
LINE
  8
寸法
  6
CONTINUOUS
 62
     0
 10
-27.750185
 20
-41.3783
 11
-27.750185
 21
-38.09876
  0
LINE
  8
寸法
  6
CONTINUOUS
 62
     0
 10
-127.750185
 20
-38.09876
 11
-27.750185
 21
-38.09876
  0
POINT
  8
寸法
 62
     0
 10
-127.750185
 20
-38.09876
  0
POINT
  8
寸法
 62
     0
 10
-27.750185
 20
-38.09876
  0
TEXT
  7
TextStyle03
  8
寸法
  6
CONTINUOUS
 62
     0
 10
-89.49375
 20
-37.725
  1
呼称寸法　2000
 40
3.0
 72
     5
 11
-66.05625
 21
-37.725
  0
ENDBLK
  0
BLOCK
  2
*DIM_0003
 70
    65
 10
0.0
 20
0.0
  0
LINE
  8
寸法
  6
BYBLOCK
 62
     0
 10
-82.875187
 20
-55.023988
 11
-82.875187
 21
-44.087885
  0
LINE
  8
寸法
  6
BYBLOCK
 62
     0
 10
-72.625183
 20
-55.023988
 11
-72.625183
 21
-44.087885
  0
LINE
  8
寸法
  6
BYBLOCK
 62
     0
 10
-82.875187
 20
-44.087885
 11
-72.625183
 21
-44.087885
  0
POINT
  8
寸法
 62
     0
 10
-82.875187
 20
-44.087885
  0
POINT
  8
寸法
 62
     0
 10
-72.625183
 20
-44.087885
  0
TEXT
  7
TextStyle03
  8
寸法
  6
CONTINUOUS
 62
     0
 10
-80.2125
 20
-43.725
  1
205
 40
3.0
 72
     5
 11
-75.3375
 21
-43.725
  0
ENDBLK
  0
BLOCK
  2
*DIM_0004
 70
    65
 10
0.0
 20
0.0
  0
LINE
  8
寸法
  6
BYBLOCK
 62
     0
 10
-63.956
 20
-51.32399
 11
-63.442
 21
-51.32399
  0
LINE
  8
寸法
  6
BYBLOCK
 62
     0
 10
-71.625183
 20
-56.448988
 11
-63.442
 21
-56.448988
  0
LINE
  8
寸法
  6
BYBLOCK
 62
     0
 10
-63.442
 20
-51.32399
 11
-63.442
 21
-56.448988
  0
POINT
  8
寸法
 62
     0
 10
-63.442
 20
-51.32399
  0
POINT
  8
寸法
 62
     0
 10
-63.442
 20
-56.448988
  0
TEXT
  7
TextStyle03
  8
寸法
  6
CONTINUOUS
 62
     0
 10
-59.625
 20
-60.075
  1
102.5
 40
3.0
 50
90.0
 72
     5
 11
-59.625
 21
-51.825
  0
ENDBLK
  0
BLOCK
  2
*DIM_0005
 70
    65
 10
0.0
 20
0.0
  0
LINE
  8
寸法
  6
BYBLOCK
 62
     0
 10
-112.750185
 20
111.32436
 11
-112.750185
 21
122.255115
  0
LINE
  8
寸法
  6
BYBLOCK
 62
     0
 10
-77.750185
 20
111.32436
 11
-77.750185
 21
122.255115
  0
LINE
  8
寸法
  6
BYBLOCK
 62
     0
 10
-112.750185
 20
122.255115
 11
-77.750185
 21
122.255115
  0
POINT
  8
寸法
 62
     0
 10
-112.750185
 20
122.255115
  0
POINT
  8
寸法
 62
     0
 10
-77.750185
 20
122.255115
  0
TEXT
  7
TextStyle03
  8
寸法
  6
CONTINUOUS
 62
     0
 10
-97.7125
 20
122.625
  1
700
 40
3.0
 72
     5
 11
-92.8375
 21
122.625
  0
ENDBLK
  0
BLOCK
  2
*DIM_0006
 70
    65
 10
0.0
 20
0.0
  0
LINE
  8
寸法
  6
BYBLOCK
 62
     0
 10
-42.750185
 20
111.32436
 11
-42.750185
 21
122.255115
  0
LINE
  8
寸法
  6
BYBLOCK
 62
     0
 10
-77.750185
 20
122.255115
 11
-42.750185
 21
122.255115
  0
POINT
  8
寸法
 62
     0
 10
-42.750185
 20
122.255115
  0
TEXT
  7
TextStyle03
  8
寸法
  6
CONTINUOUS
 62
     0
 10
-62.7125
 20
122.625
  1
700
 40
3.0
 72
     5
 11
-57.8375
 21
122.625
  0
ENDBLK
  0
BLOCK
  2
*DIM_0007
 70
    65
 10
0.0
 20
0.0
  0
LINE
  8
寸法
  6
BYBLOCK
 62
     0
 10
-153.005185
 20
71.06936
 11
-163.93594
 21
71.069362
  0
LINE
  8
寸法
  6
BYBLOCK
 62
     0
 10
-153.005188
 20
36.06936
 11
-163.935942
 21
36.069362
  0
LINE
  8
寸法
  6
BYBLOCK
 62
     0
 10
-163.93594
 20
71.069362
 11
-163.935942
 21
36.069362
  0
POINT
  8
寸法
 62
     0
 10
-163.93594
 20
71.069362
  0
POINT
  8
寸法
 62
     0
 10
-163.935942
 20
36.069362
  0
TEXT
  7
TextStyle03
  8
寸法
  6
CONTINUOUS
 62
     0
 10
-164.325
 20
51.1125
  1
700
 40
3.0
 50
90.0
 72
     5
 11
-164.325
 21
55.9875
  0
ENDBLK
  0
BLOCK
  2
*DIM_0008
 70
    65
 10
0.0
 20
0.0
  0
LINE
  8
寸法
  6
BYBLOCK
 62
     0
 10
-153.005188
 20
36.06936
 11
-163.935942
 21
36.069365
  0
LINE
  8
寸法
  6
BYBLOCK
 62
     0
 10
-153.00519
 20
1.06936
 11
-163.935945
 21
1.069365
  0
LINE
  8
寸法
  6
BYBLOCK
 62
     0
 10
-163.935942
 20
36.069365
 11
-163.935945
 21
1.069365
  0
POINT
  8
寸法
 62
     0
 10
-163.935945
 20
1.069365
  0
TEXT
  7
TextStyle03
  8
寸法
  6
CONTINUOUS
 62
     0
 10
-164.325
 20
16.1125
  1
700
 40
3.0
 50
90.0
 72
     5
 11
-164.325
 21
20.9875
  0
ENDBLK
  0
BLOCK
  2
*DIM_0009
 70
    65
 10
0.0
 20
0.0
  0
LINE
  8
寸法
  6
CONTINUOUS
 10
-133.297012
 20
-102.047592
 11
-133.297012
 21
-38.09876
  0
LINE
  8
寸法
  6
CONTINUOUS
 10
-127.750185
 20
-38.09876
 11
-133.297012
 21
-38.09876
  0
POINT
  8
寸法
 10
-127.750185
 20
-38.09876
  0
POINT
  8
寸法
 10
-133.297012
 20
-38.09876
  0
TEXT
  7
TextStyle03
  8
寸法
  6
CONTINUOUS
 10
-136.025
 20
-37.725
  1
110.9
 40
4.0
 72
     5
 11
-125.025
 21
-37.725
  0
ENDBLK
  0
BLOCK
  2
*DIM_0010
 70
    65
 10
0.0
 20
0.0
  0
LINE
  8
寸法
  6
CONTINUOUS
 10
-22.203358
 20
-102.047592
 11
-22.203358
 21
-38.09876
  0
LINE
  8
寸法
  6
CONTINUOUS
 10
-27.750185
 20
-38.09876
 11
-22.203358
 21
-38.09876
  0
POINT
  8
寸法
 10
-27.750185
 20
-38.09876
  0
POINT
  8
寸法
 10
-22.203358
 20
-38.09876
  0
TEXT
  7
TextStyle03
  8
寸法
  6
CONTINUOUS
 10
-30.5
 20
-37.725
  1
110.9
 40
4.0
 72
     5
 11
-19.5
 21
-37.725
  0
ENDBLK
  0
BLOCK
  2
*DIM_0011
 70
    65
 10
0.0
 20
0.0
  0
LINE
  8
寸法
  6
CONTINUOUS
 10
-17.95336
 20
-108.997542
 11
-1.14846
 21
-108.997542
  0
LINE
  8
寸法
  6
CONTINUOUS
 10
-17.203358
 20
-107.047592
 11
-1.14846
 21
-107.047592
  0
LINE
  8
寸法
  6
CONTINUOUS
 10
-1.14846
 20
-108.997542
 11
-1.14846
 21
-107.047592
  0
POINT
  8
寸法
 10
-1.14846
 20
-108.997542
  0
POINT
  8
寸法
 10
-1.14846
 20
-107.047592
  0
TEXT
  7
TextStyle03
  8
寸法
  6
CONTINUOUS
 10
2.975
 20
-110.15
  1
39
 40
4.0
 50
90.0
 72
     5
 11
2.975
 21
-105.9
  0
ENDBLK
  0
BLOCK
  2
*DIM_0012
 70
    65
 10
0.0
 20
0.0
  0
LINE
  8
寸法
  6
CONTINUOUS
 10
-72.750185
 20
-51.32399
 11
-1.14846
 21
-51.32399
  0
LINE
  8
寸法
  6
CONTINUOUS
 10
-1.14846
 20
-107.047592
 11
-1.14846
 21
-51.32399
  0
POINT
  8
寸法
 10
-1.14846
 20
-51.32399
  0
TEXT
  7
TextStyle03
  8
寸法
  6
CONTINUOUS
 10
-1.525
 20
-85.825
  1
1114.5
 40
4.0
 50
90.0
 72
     5
 11
-1.525
 21
-72.575
  0
ENDBLK
  0
BLOCK
  2
*DIM_0013
 70
    65
 10
0.0
 20
0.0
  0
LINE
  8
寸法
  6
BYBLOCK
 62
     0
 10
167.70945
 20
-94.702927
 11
176.165805
 21
-94.702927
  0
LINE
  8
寸法
  6
BYBLOCK
 62
     0
 10
116.51497
 20
-22.303
 11
176.165805
 21
-22.303
  0
LINE
  8
寸法
  6
BYBLOCK
 62
     0
 10
176.165805
 20
-94.702927
 11
176.165805
 21
-22.303
  0
POINT
  8
寸法
 62
     0
 10
176.165805
 20
-94.702927
  0
POINT
  8
寸法
 62
     0
 10
176.165805
 20
-22.303
  0
TEXT
  7
TextStyle03
  8
寸法
  6
CONTINUOUS
 62
     0
 10
175.775
 20
-61.80625
  1
1448
 40
3.0
 50
90.0
 72
     5
 11
175.775
 21
-55.24375
  0
ENDBLK
  0
BLOCK
  2
*DIM_0014
 70
    65
 10
0.0
 20
0.0
  0
LINE
  8
寸法
  6
BYBLOCK
 62
     0
 10
113.51497
 20
-97.702927
 11
113.51497
 21
-107.337655
  0
LINE
  8
寸法
  6
BYBLOCK
 62
     0
 10
164.70945
 20
-97.702927
 11
164.70945
 21
-107.337655
  0
LINE
  8
寸法
  6
BYBLOCK
 62
     0
 10
113.51497
 20
-107.337655
 11
164.70945
 21
-107.337655
  0
POINT
  8
寸法
 62
     0
 10
113.51497
 20
-107.337655
  0
POINT
  8
寸法
 62
     0
 10
164.70945
 20
-107.337655
  0
TEXT
  7
TextStyle03
  8
寸法
  6
CONTINUOUS
 62
     0
 10
134.13125
 20
-107.0
  1
1023.9
 40
3.0
 72
     5
 11
144.06875
 21
-107.0
  0
ENDBLK
  0
ENDSEC
  0
SECTION
  2
ENTITIES
  0
POLYLINE
  8
通り芯
  6
CONTINUOUS
 66
     1
 70
     1
  0
VERTEX
  8
通り芯
 10
-210.0
 20
-148.5
  0
VERTEX
  8
通り芯
 10
210.0
 20
-148.5
  0
VERTEX
  8
通り芯
 10
210.0
 20
148.5
  0
VERTEX
  8
通り芯
 10
-210.0
 20
148.5
  0
SEQEND
  0
INSERT
  2
*GRP_0001
  8
型材断面
  6
CONTINUOUS
 10
0.0
 20
0.0
  0
LINE
  8
型材断面
  6
DASHDOT
 10
-127.750185
 20
-13.93064
 11
-27.750185
 21
-13.93064
  0
LINE
  8
型材断面
  6
DASHDOT
 10
-127.750185
 20
-117.445892
 11
-127.750185
 21
86.06936
  0
LINE
  8
型材断面
  6
DASHDOT
 10
-27.750185
 20
-117.445892
 11
-27.750185
 21
86.06936
  0
LINE
  8
型材断面
  6
DASHDOT
 10
-77.750185
 20
-117.445892
 11
-77.750185
 21
86.06936
  0
LINE
  8
型材断面
  6
DASHDOT
 10
-127.750185
 20
36.06936
 11
-27.750185
 21
36.06936
  0
LINE
  8
型材断面
  6
DASHDOT
 10
-127.750185
 20
86.06936
 11
-27.750185
 21
86.06936
  0
LINE
  8
型材断面
  6
CONTINUOUS
 10
-77.750185
 20
-21.954515
 11
-79.99363
 21
-25.840275
  0
LINE
  8
型材断面
  6
CONTINUOUS
 10
-77.750185
 20
-21.954515
 11
-75.50674
 21
-25.840275
  0
LINE
  8
型材断面
  6
CONTINUOUS
 10
-75.50674
 20
-25.840275
 11
-79.99363
 21
-25.840275
  0
LINE
  8
型材断面
  6
CONTINUOUS
 10
-77.750185
 20
94.093235
 11
-79.99363
 21
97.978995
  0
LINE
  8
型材断面
  6
CONTINUOUS
 10
-77.750185
 20
94.093235
 11
-75.50674
 21
97.978995
  0
LINE
  8
型材断面
  6
CONTINUOUS
 10
-75.50674
 20
97.978995
 11
-79.99363
 21
97.978995
  0
LINE
  8
型材断面
  6
CONTINUOUS
 10
-19.726307
 20
36.06936
 11
-15.840547
 21
33.825915
  0
LINE
  8
型材断面
  6
CONTINUOUS
 10
-19.726307
 20
36.06936
 11
-15.840547
 21
38.312805
  0
LINE
  8
型材断面
  6
CONTINUOUS
 10
-15.840547
 20
38.312805
 11
-15.840547
 21
33.825915
  0
LINE
  8
型材断面
  6
CONTINUOUS
 10
10.516347
 20
-8.161683
 11
8.272903
 21
-12.047443
  0
LINE
  8
型材断面
  6
CONTINUOUS
 10
10.516347
 20
-8.161683
 11
12.759793
 21
-12.047443
  0
LINE
  8
型材断面
  6
CONTINUOUS
 10
12.759793
 20
-12.047443
 11
8.272903
 21
-12.047443
  0
LINE
  8
型材断面
  6
CONTINUOUS
 10
1.482467
 20
-13.455335
 11
54.139148
 21
-13.455335
  0
LINE
  8
型材断面
  6
CONTINUOUS
 10
-135.774063
 20
36.06936
 11
-139.659822
 21
33.825915
  0
LINE
  8
型材断面
  6
CONTINUOUS
 10
-135.774063
 20
36.06936
 11
-139.659822
 21
38.312805
  0
LINE
  8
型材断面
  6
CONTINUOUS
 10
-139.659822
 20
38.312805
 11
-139.659822
 21
33.825915
  0
LINE
  8
型材断面
  6
CONTINUOUS
 10
1.482467
 20
-20.511122
 11
54.139148
 21
-20.511122
  0
LINE
  8
型材断面
  6
CONTINUOUS
 10
-82.875185
 20
36.06936
 11
-82.875185
 21
30.94436
  0
LINE
  8
型材断面
  6
CONTINUOUS
 10
-77.750185
 20
30.94436
 11
-82.875185
 21
30.94436
  0
LINE
  8
型材断面
  6
CONTINUOUS
 10
-133.125185
 20
-19.30564
 11
-77.750185
 21
-19.30564
  0
LINE
  8
型材断面
  6
CONTINUOUS
 10
-133.125185
 20
-19.30564
 11
-133.125185
 21
36.06936
  0
LINE
  8
型材断面
  6
CONTINUOUS
 10
-80.000185
 20
30.171065
 11
-80.000185
 21
30.94436
  0
LINE
  8
型材断面
  6
CONTINUOUS
 10
-83.64848
 20
33.81936
 11
-82.875185
 21
33.81936
  0
LINE
  8
型材断面
  6
CONTINUOUS
 10
-72.625185
 20
36.06936
 11
-72.625185
 21
30.94436
  0
LINE
  8
型材断面
  6
CONTINUOUS
 10
-77.750185
 20
30.94436
 11
-72.625185
 21
30.94436
  0
LINE
  8
型材断面
  6
CONTINUOUS
 10
-22.375185
 20
-19.30564
 11
-77.750185
 21
-19.30564
  0
LINE
  8
型材断面
  6
CONTINUOUS
 10
-22.375185
 20
-19.30564
 11
-22.375185
 21
36.06936
  0
LINE
  8
型材断面
  6
CONTINUOUS
 10
-75.500185
 20
30.171065
 11
-75.500185
 21
30.94436
  0
LINE
  8
型材断面
  6
CONTINUOUS
 10
-71.85189
 20
33.81936
 11
-72.625185
 21
33.81936
  0
LINE
  8
型材断面
  6
CONTINUOUS
 10
-72.625185
 20
36.06936
 11
-72.625185
 21
41.19436
  0
LINE
  8
型材断面
  6
CONTINUOUS
 10
-77.750185
 20
41.19436
 11
-72.625185
 21
41.19436
  0
LINE
  8
型材断面
  6
CONTINUOUS
 10
-22.375185
 20
91.44436
 11
-77.750185
 21
91.44436
  0
LINE
  8
型材断面
  6
CONTINUOUS
 10
-22.375185
 20
91.44436
 11
-22.375185
 21
36.06936
  0
LINE
  8
型材断面
  6
CONTINUOUS
 10
-75.500185
 20
41.967655
 11
-75.500185
 21
41.19436
  0
LINE
  8
型材断面
  6
CONTINUOUS
 10
-71.85189
 20
38.31936
 11
-72.625185
 21
38.31936
  0
LINE
  8
型材断面
  6
CONTINUOUS
 10
-82.875185
 20
36.06936
 11
-82.875185
 21
41.19436
  0
LINE
  8
型材断面
  6
CONTINUOUS
 10
-77.750185
 20
41.19436
 11
-82.875185
 21
41.19436
  0
LINE
  8
型材断面
  6
CONTINUOUS
 10
-133.125185
 20
91.44436
 11
-77.750185
 21
91.44436
  0
LINE
  8
型材断面
  6
CONTINUOUS
 10
-133.125185
 20
91.44436
 11
-133.125185
 21
36.06936
  0
LINE
  8
型材断面
  6
CONTINUOUS
 10
-80.000185
 20
41.967655
 11
-80.000185
 21
41.19436
  0
LINE
  8
型材断面
  6
CONTINUOUS
 10
-83.64848
 20
38.31936
 11
-82.875185
 21
38.31936
  0
LINE
  8
型材断面
  6
CONTINUOUS
 10
-82.875185
 20
-56.448992
 11
-77.750185
 21
-56.448992
  0
LINE
  8
型材断面
  6
CONTINUOUS
 10
-82.875185
 20
-56.448992
 11
-82.804475
 21
-56.519703
  0
LINE
  8
型材断面
  6
CONTINUOUS
 10
-77.750185
 20
-56.519703
 11
-82.804475
 21
-56.519703
  0
LINE
  8
型材断面
  6
CONTINUOUS
 10
-82.875185
 20
-56.448992
 11
-77.750185
 21
-51.32399
  0
LINE
  8
型材断面
  6
CONTINUOUS
 10
-72.625185
 20
-56.448992
 11
-77.750185
 21
-56.448992
  0
LINE
  8
型材断面
  6
CONTINUOUS
 10
-72.625185
 20
-56.448992
 11
-72.695895
 21
-56.519703
  0
LINE
  8
型材断面
  6
CONTINUOUS
 10
-77.750185
 20
-56.519703
 11
-72.695895
 21
-56.519703
  0
LINE
  8
型材断面
  6
CONTINUOUS
 10
-72.625185
 20
-56.448992
 11
-77.750185
 21
-51.32399
  0
LINE
  8
型材断面
  6
CONTINUOUS
 10
-80.000185
 20
-57.42501
 11
-80.000185
 21
-56.519703
  0
LINE
  8
型材断面
  6
CONTINUOUS
 10
-75.500185
 20
-57.42501
 11
-75.500185
 21
-56.519703
  0
LINE
  8
型材断面
  6
CONTINUOUS
 10
82.527518
 20
-39.588792
 11
106.45914
 21
-39.588792
  0
LINE
  8
型材断面
  6
CONTINUOUS
 62
    47
 10
-132.54701
 20
-108.997542
 11
-132.54701
 21
-108.252545
  0
LINE
  8
型材断面
  6
CONTINUOUS
 62
    47
 10
-131.79701
 20
-109.747542
 11
-131.79701
 21
-108.997542
  0
LINE
  8
型材断面
  6
CONTINUOUS
 62
    47
 10
-132.54701
 20
-108.252545
 11
-132.319538
 21
-108.025072
  0
LINE
  8
型材断面
  6
CONTINUOUS
 62
    47
 10
-132.319538
 20
-108.025072
 11
-133.297012
 21
-107.047592
  0
LINE
  8
型材断面
  6
CONTINUOUS
 62
    47
 10
-131.79701
 20
-109.747542
 11
-77.750185
 21
-109.747542
  0
LINE
  8
型材断面
  6
CONTINUOUS
 62
    47
 10
-132.54701
 20
-108.997542
 11
-77.750185
 21
-108.997542
  0
LINE
  8
型材断面
  6
CONTINUOUS
 10
-132.319538
 20
-108.025072
 11
-77.750185
 21
-108.025072
  0
LINE
  8
型材断面
  6
CONTINUOUS
 10
-133.29688
 20
-107.047418
 11
-77.750185
 21
-107.047418
  0
LINE
  8
型材断面
  6
CONTINUOUS
 10
-132.54701
 20
-108.252545
 11
-77.750185
 21
-108.252545
  0
LINE
  8
型材断面
  6
CONTINUOUS
 62
    47
 10
-22.95336
 20
-108.997542
 11
-22.95336
 21
-108.252545
  0
LINE
  8
型材断面
  6
CONTINUOUS
 62
    47
 10
-23.70336
 20
-109.747542
 11
-23.70336
 21
-108.997542
  0
LINE
  8
型材断面
  6
CONTINUOUS
 62
    47
 10
-22.95336
 20
-108.252545
 11
-23.180832
 21
-108.025072
  0
LINE
  8
型材断面
  6
CONTINUOUS
 62
    47
 10
-23.180832
 20
-108.025072
 11
-22.203358
 21
-107.047592
  0
LINE
  8
型材断面
  6
CONTINUOUS
 62
    47
 10
-23.70336
 20
-109.747542
 11
-77.750185
 21
-109.747542
  0
LINE
  8
型材断面
  6
CONTINUOUS
 62
    47
 10
-22.95336
 20
-108.997542
 11
-77.750185
 21
-108.997542
  0
LINE
  8
型材断面
  6
CONTINUOUS
 10
-23.180832
 20
-108.025072
 11
-77.750185
 21
-108.025072
  0
LINE
  8
型材断面
  6
CONTINUOUS
 10
-22.20349
 20
-107.047418
 11
-77.750185
 21
-107.047418
  0
LINE
  8
型材断面
  6
CONTINUOUS
 10
-22.95336
 20
-108.252545
 11
-77.750185
 21
-108.252545
  0
LINE
  8
型材断面
  6
CONTINUOUS
 62
    47
 10
-77.750185
 20
-51.500765
 11
-22.203532
 21
-107.047418
  0
LINE
  8
型材断面
  6
CONTINUOUS
 62
    47
 10
-77.750185
 20
-51.500765
 11
-133.296838
 21
-107.047418
  0
LINE
  8
型材断面
  6
CONTINUOUS
 10
-24.206115
 20
-105.044835
 11
-27.88036
 21
-105.044835
  0
LINE
  8
型材断面
  6
CONTINUOUS
 10
-76.000185
 20
-56.92501
 11
-27.38036
 21
-105.544835
  0
LINE
  8
型材断面
  6
CONTINUOUS
 10
-23.706115
 20
-105.544835
 11
-77.750185
 21
-105.544835
  0
LINE
  8
型材断面
  6
CONTINUOUS
 10
-76.000185
 20
-56.519703
 11
-76.000185
 21
-105.544835
  0
LINE
  8
型材断面
  6
CONTINUOUS
 10
-79.500185
 20
-56.519703
 11
-79.500185
 21
-105.544835
  0
LINE
  8
型材断面
  6
CONTINUOUS
 10
-79.500185
 20
-105.044835
 11
-76.000185
 21
-105.044835
  0
LINE
  8
型材断面
  6
CONTINUOUS
 10
-77.750185
 20
-105.544835
 11
-131.794255
 21
-105.544835
  0
LINE
  8
型材断面
  6
CONTINUOUS
 10
-79.500185
 20
-56.92501
 11
-128.12001
 21
-105.544835
  0
LINE
  8
型材断面
  6
CONTINUOUS
 10
-131.294255
 20
-105.044835
 11
-127.62001
 21
-105.044835
  0
LINE
  8
型材断面
  6
CONTINUOUS
 10
-24.206115
 20
-13.82641
 11
-24.206115
 21
-17.47471
  0
LINE
  8
型材断面
  6
CONTINUOUS
 10
-24.206115
 20
-17.47471
 11
-27.85441
 21
-17.47471
  0
LINE
  8
型材断面
  6
CONTINUOUS
 10
-22.375185
 20
-19.30564
 11
-23.706115
 21
-17.97471
  0
LINE
  8
型材断面
  6
CONTINUOUS
 10
-77.750185
 20
36.06936
 11
-24.206115
 21
-17.47471
  0
LINE
  8
型材断面
  6
CONTINUOUS
 10
-72.351885
 20
34.31936
 11
-23.706115
 21
-14.32641
  0
LINE
  8
型材断面
  6
CONTINUOUS
 10
-76.000185
 20
30.671065
 11
-27.35441
 21
-17.97471
  0
LINE
  8
型材断面
  6
CONTINUOUS
 10
-23.706115
 20
-17.97471
 11
-77.750185
 21
-17.97471
  0
LINE
  8
型材断面
  6
CONTINUOUS
 10
-76.000185
 20
30.94436
 11
-76.000185
 21
-17.97471
  0
LINE
  8
型材断面
  6
CONTINUOUS
 10
-23.706115
 20
-17.97471
 11
-23.706115
 21
36.06936
  0
LINE
  8
型材断面
  6
CONTINUOUS
 10
-72.625185
 20
34.31936
 11
-23.706115
 21
34.31936
  0
LINE
  8
型材断面
  6
CONTINUOUS
 10
-24.206115
 20
85.96513
 11
-24.206115
 21
89.61343
  0
LINE
  8
型材断面
  6
CONTINUOUS
 10
-24.206115
 20
89.61343
 11
-27.85441
 21
89.61343
  0
LINE
  8
型材断面
  6
CONTINUOUS
 10
-22.375185
 20
91.44436
 11
-23.706115
 21
90.11343
  0
LINE
  8
型材断面
  6
CONTINUOUS
 10
-23.706115
 20
90.11343
 11
-77.750185
 21
90.11343
  0
LINE
  8
型材断面
  6
CONTINUOUS
 10
-23.706115
 20
90.11343
 11
-23.706115
 21
36.06936
  0
LINE
  8
型材断面
  6
CONTINUOUS
 10
-131.294255
 20
85.96513
 11
-131.294255
 21
89.61343
  0
LINE
  8
型材断面
  6
CONTINUOUS
 10
-131.294255
 20
89.61343
 11
-127.64596
 21
89.61343
  0
LINE
  8
型材断面
  6
CONTINUOUS
 10
-133.125185
 20
91.44436
 11
-131.794255
 21
90.11343
  0
LINE
  8
型材断面
  6
CONTINUOUS
 10
-131.794255
 20
90.11343
 11
-77.750185
 21
90.11343
  0
LINE
  8
型材断面
  6
CONTINUOUS
 10
-131.794255
 20
90.11343
 11
-131.794255
 21
36.06936
  0
LINE
  8
型材断面
  6
CONTINUOUS
 10
-131.294255
 20
-13.82641
 11
-131.294255
 21
-17.47471
  0
LINE
  8
型材断面
  6
CONTINUOUS
 10
-131.294255
 20
-17.47471
 11
-127.64596
 21
-17.47471
  0
LINE
  8
型材断面
  6
CONTINUOUS
 10
-133.125185
 20
-19.30564
 11
-131.794255
 21
-17.97471
  0
LINE
  8
型材断面
  6
CONTINUOUS
 10
-131.794255
 20
-17.97471
 11
-77.750185
 21
-17.97471
  0
LINE
  8
型材断面
  6
CONTINUOUS
 10
-131.794255
 20
-17.97471
 11
-131.794255
 21
36.06936
  0
LINE
  8
型材断面
  6
CONTINUOUS
 10
-79.500185
 20
-17.47471
 11
-76.000185
 21
-17.47471
  0
LINE
  8
型材断面
  6
CONTINUOUS
 10
-79.500185
 20
30.94436
 11
-79.500185
 21
-17.97471
  0
LINE
  8
型材断面
  6
CONTINUOUS
 10
-24.206115
 20
37.81936
 11
-24.206115
 21
34.31936
  0
LINE
  8
型材断面
  6
CONTINUOUS
 10
-72.625185
 20
37.81936
 11
-23.706115
 21
37.81936
  0
LINE
  8
型材断面
  6
CONTINUOUS
 10
-72.351885
 20
37.81936
 11
-23.706115
 21
86.46513
  0
LINE
  8
型材断面
  6
CONTINUOUS
 10
-77.750185
 20
36.06936
 11
-24.206115
 21
89.61343
  0
LINE
  8
型材断面
  6
CONTINUOUS
 10
-76.000185
 20
41.467655
 11
-27.35441
 21
90.11343
  0
LINE
  8
型材断面
  6
CONTINUOUS
 10
-76.000185
 20
41.19436
 11
-76.000185
 21
90.11343
  0
LINE
  8
型材断面
  6
CONTINUOUS
 10
-79.500185
 20
41.19436
 11
-79.500185
 21
90.11343
  0
LINE
  8
型材断面
  6
CONTINUOUS
 10
-79.500185
 20
89.61343
 11
-76.000185
 21
89.61343
  0
LINE
  8
型材断面
  6
CONTINUOUS
 10
-79.500185
 20
41.467655
 11
-128.14596
 21
90.11343
  0
LINE
  8
型材断面
  6
CONTINUOUS
 10
-77.750185
 20
36.06936
 11
-131.294255
 21
89.61343
  0
LINE
  8
型材断面
  6
CONTINUOUS
 10
-83.148485
 20
37.81936
 11
-131.794255
 21
86.46513
  0
LINE
  8
型材断面
  6
CONTINUOUS
 10
-131.294255
 20
34.31936
 11
-131.294255
 21
37.81936
  0
LINE
  8
型材断面
  6
CONTINUOUS
 10
-82.875185
 20
37.81936
 11
-131.794255
 21
37.81936
  0
LINE
  8
型材断面
  6
CONTINUOUS
 10
-82.875185
 20
34.31936
 11
-131.794255
 21
34.31936
  0
LINE
  8
型材断面
  6
CONTINUOUS
 10
-79.500185
 20
30.671065
 11
-128.14596
 21
-17.97471
  0
LINE
  8
型材断面
  6
CONTINUOUS
 10
-77.750185
 20
36.06936
 11
-131.294255
 21
-17.47471
  0
LINE
  8
型材断面
  6
CONTINUOUS
 10
-83.148485
 20
34.31936
 11
-131.794255
 21
-14.32641
  0
LINE
  8
ガラス
  6
CONTINUOUS
 10
-91.45359
 20
-86.26782
 11
-95.326225
 21
-90.140455
  0
LINE
  8
ガラス
  6
CONTINUOUS
 10
-92.333913
 20
-87.866177
 11
-93.727867
 21
-89.260132
  0
LINE
  8
ガラス
  6
CONTINUOUS
 10
-93.051948
 20
-87.148142
 11
-94.445903
 21
-88.542097
  0
LINE
  8
ガラス
  6
CONTINUOUS
 10
-62.367043
 20
-86.26782
 11
-66.239678
 21
-90.140455
  0
LINE
  8
ガラス
  6
CONTINUOUS
 10
-63.247365
 20
-87.866177
 11
-64.64132
 21
-89.260132
  0
LINE
  8
ガラス
  6
CONTINUOUS
 10
-63.9654
 20
-87.148142
 11
-65.359355
 21
-88.542097
  0
LINE
  8
ガラス
  6
CONTINUOUS
 10
-112.563682
 20
23.046318
 11
-116.436318
 21
19.173682
  0
LINE
  8
ガラス
  6
CONTINUOUS
 10
-113.444005
 20
21.44796
 11
-114.83796
 21
20.054005
  0
LINE
  8
ガラス
  6
CONTINUOUS
 10
-114.16204
 20
22.165995
 11
-115.555995
 21
20.77204
  0
LINE
  8
ガラス
  6
CONTINUOUS
 10
-90.773228
 20
1.255862
 11
-94.645863
 21
-2.616773
  0
LINE
  8
ガラス
  6
CONTINUOUS
 10
-92.371585
 20
0.37554
 11
-93.76554
 21
-1.018415
  0
LINE
  8
ガラス
  6
CONTINUOUS
 10
-91.65355
 20
-0.342495
 11
-93.047505
 21
-1.73645
  0
LINE
  8
ガラス
  6
CONTINUOUS
 10
-39.064052
 20
23.046318
 11
-42.936687
 21
19.173682
  0
LINE
  8
ガラス
  6
CONTINUOUS
 10
-39.944375
 20
21.44796
 11
-41.33833
 21
20.054005
  0
LINE
  8
ガラス
  6
CONTINUOUS
 10
-40.66241
 20
22.165995
 11
-42.056365
 21
20.77204
  0
LINE
  8
ガラス
  6
CONTINUOUS
 10
-64.727142
 20
-2.616773
 11
-60.854507
 21
1.255862
  0
LINE
  8
ガラス
  6
CONTINUOUS
 10
-63.128785
 20
-1.73645
 11
-61.73483
 21
-0.342495
  0
LINE
  8
ガラス
  6
CONTINUOUS
 10
-63.84682
 20
-1.018415
 11
-62.452865
 21
0.37554
  0
LINE
  8
ガラス
  6
CONTINUOUS
 10
-112.563682
 20
52.481317
 11
-116.436318
 21
48.608683
  0
LINE
  8
ガラス
  6
CONTINUOUS
 10
-113.444005
 20
50.88296
 11
-114.83796
 21
49.489005
  0
LINE
  8
ガラス
  6
CONTINUOUS
 10
-114.16204
 20
51.600995
 11
-115.555995
 21
50.20704
  0
LINE
  8
ガラス
  6
CONTINUOUS
 10
-39.064052
 20
52.481317
 11
-42.936687
 21
48.608683
  0
LINE
  8
ガラス
  6
CONTINUOUS
 10
-39.944375
 20
50.88296
 11
-41.33833
 21
49.489005
  0
LINE
  8
ガラス
  6
CONTINUOUS
 10
-40.66241
 20
51.600995
 11
-42.056365
 21
50.20704
  0
LINE
  8
ガラス
  6
CONTINUOUS
 10
-90.773228
 20
71.946318
 11
-94.645863
 21
68.073682
  0
LINE
  8
ガラス
  6
CONTINUOUS
 10
-92.371585
 20
71.065995
 11
-93.76554
 21
69.67204
  0
LINE
  8
ガラス
  6
CONTINUOUS
 10
-91.65355
 20
70.34796
 11
-93.047505
 21
68.954005
  0
LINE
  8
ガラス
  6
CONTINUOUS
 10
-64.727142
 20
68.073682
 11
-60.854507
 21
71.946318
  0
LINE
  8
ガラス
  6
CONTINUOUS
 10
-63.128785
 20
68.954005
 11
-61.73483
 21
70.34796
  0
LINE
  8
ガラス
  6
CONTINUOUS
 10
-63.84682
 20
69.67204
 11
-62.452865
 21
71.065995
  0
TEXT
  7
TextStyle03
  8
文字
  6
CONTINUOUS
 10
14.825
 20
-11.7
  1
は排水穴位置を示す
 40
3.0
 72
     5
 11
44.825
 21
-11.7
  0
TEXT
  7
TextStyle03
  8
文字
  6
CONTINUOUS
 10
66.95
 20
95.35
  1
ＮＳコード：ＮＳ４ＣＫＺ
 40
5.0
 72
     5
 11
133.825
 21
95.35
  0
TEXT
  7
TextStyle03
  8
文字
  6
CONTINUOUS
 10
9.225
 20
-19.1
  1
アンカー数量　１２ヶ所
 40
3.0
 72
     5
 11
45.975
 21
-19.1
  0
TEXT
  7
TextStyle03
  8
文字
  6
CONTINUOUS
 10
-140.0
 20
117.825
  1
アンカーピッチ
 40
3.0
 72
     5
 11
-116.75
 21
117.825
  0
TEXT
  7
TextStyle03
  8
文字
  6
CONTINUOUS
 10
-160.725
 20
-23.675
  1
アンカーピッチ
 40
3.0
 50
90.0
 72
     5
 11
-160.725
 21
-0.425
  0
TEXT
  7
TextStyle03
  8
文字
  6
CONTINUOUS
 10
86.125
 20
-38.375
  1
ガラス寸法
 40
3.0
 72
     5
 11
102.625
 21
-38.375
  0
TEXT
  7
TextStyle03
  8
文字
  6
CONTINUOUS
 10
137.225
 20
-88.25
  1
本図×４枚
 40
3.0
 72
     5
 11
153.725
 21
-88.25
  0
TEXT
  7
TextStyle03
  8
文字
  6
CONTINUOUS
 10
137.225
 20
-91.625
  1
逆図×４枚
 40
3.0
 72
     5
 11
153.725
 21
-91.625
  0
TEXT
  7
TextStyle03
  8
文字
  6
CONTINUOUS
 10
66.775
 20
117.825
  1
シリーズ：ＴＦ２４Ｋ
 40
5.0
 72
     5
 11
122.4
 21
117.825
  0
TEXT
  7
TextStyle03
  8
文字
  6
CONTINUOUS
 10
66.775
 20
112.2
  1
　　　　　四角錘（固定）2000×2000タイプ
 40
5.0
 72
     5
 11
178.65
 21
112.2
  0
TEXT
  7
TextStyle03
  8
文字
  6
CONTINUOUS
 10
66.775
 20
106.575
  1
図面名　：外観姿図
 40
5.0
 72
     5
 11
116.775
 21
106.575
  0
TEXT
  7
TextStyle03
  8
文字
  6
CONTINUOUS
 10
66.775
 20
100.95
  1
　　　　　　
 40
5.0
 72
     5
 11
99.9
 21
100.95
  0
INSERT
  2
*DIM_0002
  8
寸法
  6
CONTINUOUS
 10
0.0
 20
0.0
  0
INSERT
  2
*DIM_0003
  8
寸法
  6
CONTINUOUS
 10
0.0
 20
0.0
  0
INSERT
  2
*DIM_0004
  8
寸法
  6
CONTINUOUS
 10
0.0
 20
0.0
  0
INSERT
  2
*DIM_0005
  8
寸法
  6
CONTINUOUS
 10
0.0
 20
0.0
  0
INSERT
  2
*DIM_0006
  8
寸法
  6
CONTINUOUS
 10
0.0
 20
0.0
  0
INSERT
  2
*DIM_0007
  8
寸法
  6
CONTINUOUS
 10
0.0
 20
0.0
  0
INSERT
  2
*DIM_0008
  8
寸法
  6
CONTINUOUS
 10
0.0
 20
0.0
  0
INSERT
  2
*DIM_0009
  8
寸法
  6
CONTINUOUS
 10
0.0
 20
0.0
  0
INSERT
  2
*DIM_0010
  8
寸法
  6
CONTINUOUS
 10
0.0
 20
0.0
  0
INSERT
  2
*DIM_0011
  8
寸法
  6
CONTINUOUS
 10
0.0
 20
0.0
  0
INSERT
  2
*DIM_0012
  8
寸法
  6
CONTINUOUS
 10
0.0
 20
0.0
  0
INSERT
  2
*DIM_0013
  8
寸法
  6
CONTINUOUS
 10
0.0
 20
0.0
  0
INSERT
  2
*DIM_0014
  8
寸法
  6
CONTINUOUS
 10
0.0
 20
0.0
  0
LINE
  8
曲げ物
  6
CONTINUOUS
 10
164.70945
 20
-94.702927
 11
113.51497
 21
-22.303
  0
LINE
  8
曲げ物
  6
CONTINUOUS
 10
113.51497
 20
-22.303
 11
113.51497
 21
-94.702927
  0
LINE
  8
曲げ物
  6
CONTINUOUS
 10
164.70945
 20
-94.702927
 11
113.51497
 21
-94.702927
  0
ENDSEC
  0
EOF
