  0
SECTION
  2
HEADER
  9
$EXTMIN
 10
-210.0
 20
-148.5
  9
$EXTMAX
 10
210.0
 20
148.5
  9
$PDMODE
 70
    32
  9
$PDSIZE
 40
1.5
  9
$LTSCALE
 40
10.0
  0
ENDSEC
  0
SECTION
  2
TABLES
  0
TABLE
  2
LTYPE
 70
    15
  0
LTYPE
  2
CONTINUOUS
 70
    64
  3
実線
 72
    65
 73
     0
 40
0.0
  0
LTYPE
  2
DASHED
 70
    64
  3
破線A
 72
    65
 73
     2
 40
0.6
 49
0.4
 49
-0.2
  0
LTYPE
  2
DASHEDX2
 70
    64
  3
破線B
 72
    65
 73
     2
 40
1.3
 49
0.9
 49
-0.4
  0
LTYPE
  2
DASHDOT
 70
    64
  3
１点鎖線A
 72
    65
 73
     4
 40
0.5375
 49
0.375
 49
-0.05
 49
0.0625
 49
-0.05
  0
LTYPE
  2
DASHDOTX2
 70
    64
  3
１点鎖線B
 72
    65
 73
     4
 40
1.075
 49
0.75
 49
-0.1
 49
0.125
 49
-0.1
  0
LTYPE
  2
DIVIDE2
 70
    64
  3
２点鎖線A
 72
    65
 73
     6
 40
0.5125
 49
0.3
 49
-0.0375
 49
0.05
 49
-0.0375
 49
0.05
 49
-0.0375
  0
LTYPE
  2
DIVIDE
 70
    64
  3
２点鎖線B
 72
    65
 73
     6
 40
1.05
 49
0.55
 49
-0.1
 49
0.1
 49
-0.1
 49
0.1
 49
-0.1
  0
LTYPE
  2
DOT
 70
    64
  3
点線A
 72
    65
 73
     2
 40
0.1125
 49
0.0625
 49
-0.05
  0
LTYPE
  2
DOTX2
 70
    64
  3
点線B
 72
    65
 73
     2
 40
0.275
 49
0.15
 49
-0.125
  0
LTYPE
  2
CONTINUOUS
 70
    64
  3
実線
 72
    65
 73
     0
 40
0.0
  0
LTYPE
  2
CONTINUOUS
 70
    64
  3
実線
 72
    65
 73
     0
 40
0.0
  0
LTYPE
  2
CONTINUOUS
 70
    64
  3
実線
 72
    65
 73
     0
 40
0.0
  0
LTYPE
  2
CONTINUOUS
 70
    64
  3
実線
 72
    65
 73
     0
 40
0.0
  0
LTYPE
  2
CONTINUOUS
 70
    64
  3
実線
 72
    65
 73
     0
 40
0.0
  0
LTYPE
  2
CONTINUOUS
 70
    64
  3
実線
 72
    65
 73
     0
 40
0.0
  0
ENDTAB
  0
TABLE
  2
LAYER
 70
    34
  0
LAYER
  2
通り芯
 70
     0
 62
    15
  6
CONTINUOUS
  0
LAYER
  2
補助線
 70
     0
 62
    16
  6
DOT
  0
LAYER
  2
躯体
 70
     0
 62
    31
  6
CONTINUOUS
  0
LAYER
  2
型材
 70
     0
 62
    32
  6
CONTINUOUS
  0
LAYER
  2
型材断面
 70
     0
 62
    47
  6
CONTINUOUS
  0
LAYER
  2
ガラス
 70
     0
 62
    48
  6
CONTINUOUS
  0
LAYER
  2
ゴム等
 70
     0
 62
    63
  6
CONTINUOUS
  0
LAYER
  2
ボルト／ビス
 70
     0
 62
    64
  6
CONTINUOUS
  0
LAYER
  2
文字
 70
     0
 62
    79
  6
CONTINUOUS
  0
LAYER
  2
寸法
 70
     0
 62
    80
  6
CONTINUOUS
  0
LAYER
  2
ﾊｯﾁﾝｸﾞ
 70
     0
 62
    95
  6
CONTINUOUS
  0
LAYER
  2
別途部材
 70
     0
 62
    96
  6
CONTINUOUS
  0
LAYER
  2
曲げ物
 70
     0
 62
   111
  6
CONTINUOUS
  0
LAYER
  2
鉄骨等
 70
     0
 62
   112
  6
CONTINUOUS
  0
LAYER
  2
St
 70
     0
 62
   127
  6
CONTINUOUS
  0
LAYER
  2
その他部品等
 70
     0
 62
   128
  6
CONTINUOUS
  0
LAYER
  2
ｶﾞｽｹｯﾄ
 70
     0
 62
   143
  6
CONTINUOUS
  0
LAYER
  2
ｽｹｯﾁ
 70
     0
 62
    14
  6
CONTINUOUS
  0
LAYER
  2
0
 70
     0
 62
    17
  6
CONTINUOUS
  0
LAYER
  2
1
 70
     0
 62
    30
  6
CONTINUOUS
  0
LAYER
  2
4
 70
     0
 62
    33
  6
CONTINUOUS
  0
LAYER
  2
ﾚｲﾔ3
 70
     0
 62
    46
  6
CONTINUOUS
  0
LAYER
  2
外形線
 70
     0
 62
    49
  6
CONTINUOUS
  0
LAYER
  2
部品
 70
     0
 62
    14
  6
CONTINUOUS
  0
LAYER
  2
サッシ芯
 70
     0
 62
    17
  6
DASHDOTX2
  0
LAYER
  2
寸法線
 70
     0
 62
    62
  6
CONTINUOUS
  0
LAYER
  2
姿図外形線
 70
     0
 62
    65
  6
CONTINUOUS
  0
LAYER
  2
姿補助線
 70
     0
 62
    30
  6
CONTINUOUS
  0
LAYER
  2
透視線
 70
     0
 62
    78
  6
DOT
  0
LAYER
  2
用紙
 70
     0
 62
    81
  6
CONTINUOUS
  0
LAYER
  2
実線図枠
 70
     0
 62
    94
  6
CONTINUOUS
  0
LAYER
  2
補助図枠
 70
     0
 62
    97
  6
CONTINUOUS
  0
LAYER
  2
建具記号
 70
     0
 62
   110
  6
CONTINUOUS
  0
LAYER
  2
補助文字
 70
     0
 62
   113
  6
CONTINUOUS
  0
ENDTAB
  0
TABLE
  2
STYLE
 70
    10
  0
STYLE
  2
STANDARD
 70
     0
 40
1.0
 41
1.0
 42
1.0
 50
0.0
 71
     0
  3
TXT
  4
BIGFONT
  0
STYLE
  2
TATE
 70
     4
 40
1.0
 41
1.0
 42
1.0
 50
0.0
 71
     0
  3
TXT
  4
BIGFONT
  0
STYLE
  2
TextStyle03
 70
     0
 40
1.0
 41
1.0
 42
1.0
 50
0.0
 71
     0
  3
MONOTXT
  4
BIGFONT
  0
STYLE
  2
TextStyle04
 70
     0
 40
1.0
 41
1.0
 42
1.0
 50
0.0
 71
     0
  3
MONOTXT
  4
BIGFONT
  0
STYLE
  2
TextStyle05
 70
     0
 40
1.0
 41
1.0
 42
1.0
 50
0.0
 71
     0
  3
MONOTXT
  4
BIGFONT
  0
STYLE
  2
TextStyle06
 70
     0
 40
1.0
 41
1.0
 42
1.0
 50
0.0
 71
     0
  3
MONOTXT
  4
BIGFONT
  0
STYLE
  2
TextStyle07
 70
     0
 40
1.0
 41
1.0
 42
1.0
 50
0.0
 71
     0
  3
MONOTXT
  4
BIGFONT
  0
STYLE
  2
TextStyle08
 70
     0
 40
1.0
 41
1.0
 42
1.0
 50
0.0
 71
     0
  3
MONOTXT
  4
BIGFONT
  0
STYLE
  2
TextStyle09
 70
     0
 40
1.0
 41
1.0
 42
1.0
 50
0.0
 71
     0
  3
MONOTXT
  4
BIGFONT
  0
STYLE
  2
TextStyle10
 70
     0
 40
1.0
 41
1.0
 42
1.0
 50
0.0
 71
     0
  3
MONOTXT
  4
BIGFONT
  0
ENDTAB
  0
ENDSEC
  0
SECTION
  2
BLOCKS
  0
BLOCK
  2
*GRP_0001
 70
    65
 10
0.0
 20
0.0
  0
LINE
  8
型材断面
  6
CONTINUOUS
 10
195.0
 20
133.5
 11
195.0
 21
-133.5
  0
LINE
  8
型材断面
  6
CONTINUOUS
 10
195.0
 20
-133.5
 11
-185.0
 21
-133.5
  0
LINE
  8
型材断面
  6
CONTINUOUS
 10
-185.0
 20
-133.5
 11
-185.0
 21
133.5
  0
LINE
  8
型材断面
  6
CONTINUOUS
 10
195.0
 20
133.5
 11
-185.0
 21
133.5
  0
LINE
  8
型材断面
  6
CONTINUOUS
 10
145.0
 20
-133.5
 11
145.0
 21
-118.5
  0
LINE
  8
型材断面
  6
CONTINUOUS
 10
195.0
 20
-118.5
 11
145.0
 21
-118.5
  0
ENDBLK
  0
BLOCK
  2
*DIM_0002
 70
    65
 10
0.0
 20
0.0
  0
LINE
  8
寸法
  6
BYBLOCK
 62
     0
 10
-61.101115
 20
-52.151897
 11
-61.101115
 21
-35.812252
  0
LINE
  8
寸法
  6
BYBLOCK
 62
     0
 10
-50.85111
 20
-52.151897
 11
-50.85111
 21
-35.812252
  0
LINE
  8
寸法
  6
BYBLOCK
 62
     0
 10
-61.101115
 20
-35.812252
 11
-50.85111
 21
-35.812252
  0
POINT
  8
寸法
 62
     0
 10
-61.101115
 20
-35.812252
  0
POINT
  8
寸法
 62
     0
 10
-50.85111
 20
-35.812252
  0
TEXT
  7
TextStyle03
  8
寸法
  6
CONTINUOUS
 62
     0
 10
-58.4625
 20
-35.425
  1
205
 40
3.0
 72
     5
 11
-53.5875
 21
-35.425
  0
ENDBLK
  0
BLOCK
  2
*DIM_0003
 70
    65
 10
0.0
 20
0.0
  0
LINE
  8
寸法
  6
BYBLOCK
 62
     0
 10
-70.976112
 20
-19.13943
 11
-40.976112
 21
-19.13943
  0
POINT
  8
寸法
 62
     0
 10
-70.976112
 20
-19.13943
  0
POINT
  8
寸法
 62
     0
 10
-40.976112
 20
-19.13943
  0
TEXT
  7
TextStyle03
  8
寸法
  6
CONTINUOUS
 62
     0
 10
-66.875
 20
-18.8
  1
呼称寸法　600
 40
3.0
 72
     5
 11
-45.125
 21
-18.8
  0
ENDBLK
  0
BLOCK
  2
*DIM_0004
 70
    65
 10
0.0
 20
0.0
  0
LINE
  8
寸法
  6
BYBLOCK
 62
     0
 10
-49.85111
 20
-53.576897
 11
-47.424377
 21
-53.576897
  0
LINE
  8
寸法
  6
BYBLOCK
 62
     0
 10
-47.424377
 20
-48.4519
 11
-47.424377
 21
-53.576897
  0
POINT
  8
寸法
 62
     0
 10
-47.424377
 20
-48.4519
  0
POINT
  8
寸法
 62
     0
 10
-47.424377
 20
-53.576897
  0
TEXT
  7
TextStyle03
  8
寸法
  6
CONTINUOUS
 62
     0
 10
-44.425
 20
-55.175
  1
102.5
 40
3.0
 50
90.0
 72
     5
 11
-44.425
 21
-46.925
  0
ENDBLK
  0
BLOCK
  2
*DIM_0005
 70
    65
 10
0.0
 20
0.0
  0
LINE
  8
寸法
  6
BYBLOCK
 62
     0
 10
-65.97611
 20
54.941453
 11
-65.97611
 21
74.530632
  0
LINE
  8
寸法
  6
BYBLOCK
 62
     0
 10
-45.97611
 20
54.941453
 11
-45.97611
 21
74.530632
  0
LINE
  8
寸法
  6
BYBLOCK
 62
     0
 10
-65.97611
 20
74.530632
 11
-45.97611
 21
74.530632
  0
POINT
  8
寸法
 62
     0
 10
-65.97611
 20
74.530632
  0
POINT
  8
寸法
 62
     0
 10
-45.97611
 20
74.530632
  0
TEXT
  7
TextStyle03
  8
寸法
  6
CONTINUOUS
 62
     0
 10
-58.4375
 20
74.9
  1
400
 40
3.0
 72
     5
 11
-53.5625
 21
74.9
  0
ENDBLK
  0
BLOCK
  2
*DIM_0006
 70
    65
 10
0.0
 20
0.0
  0
LINE
  8
寸法
  6
CONTINUOUS
 10
-31.179288
 20
-71.125453
 11
-20.615715
 21
-71.125453
  0
LINE
  8
寸法
  6
CONTINUOUS
 10
-30.429285
 20
-69.175503
 11
-20.615715
 21
-69.175503
  0
LINE
  8
寸法
  6
CONTINUOUS
 10
-20.615715
 20
-71.125453
 11
-20.615715
 21
-69.175503
  0
POINT
  8
寸法
 10
-20.615715
 20
-71.125453
  0
POINT
  8
寸法
 10
-20.615715
 20
-69.175503
  0
TEXT
  7
TextStyle03
  8
寸法
  6
CONTINUOUS
 10
-16.5
 20
-72.3
  1
39
 40
4.0
 50
90.0
 72
     5
 11
-16.5
 21
-68.05
  0
ENDBLK
  0
BLOCK
  2
*DIM_0007
 70
    65
 10
0.0
 20
0.0
  0
LINE
  8
寸法
  6
CONTINUOUS
 10
-50.976112
 20
-48.4519
 11
-20.615715
 21
-48.4519
  0
LINE
  8
寸法
  6
CONTINUOUS
 10
-20.615715
 20
-69.175503
 11
-20.615715
 21
-48.4519
  0
POINT
  8
寸法
 10
-20.615715
 20
-48.4519
  0
TEXT
  7
TextStyle03
  8
寸法
  6
CONTINUOUS
 10
-21.0
 20
-64.325
  1
414.5
 40
4.0
 50
90.0
 72
     5
 11
-21.0
 21
-53.325
  0
ENDBLK
  0
BLOCK
  2
*DIM_0008
 70
    65
 10
0.0
 20
0.0
  0
LINE
  8
寸法
  6
CONTINUOUS
 10
-76.52294
 20
-64.175503
 11
-76.52294
 21
-19.13943
  0
LINE
  8
寸法
  6
CONTINUOUS
 10
-70.976112
 20
-19.13943
 11
-76.52294
 21
-19.13943
  0
POINT
  8
寸法
 10
-70.976112
 20
-19.13943
  0
POINT
  8
寸法
 10
-76.52294
 20
-19.13943
  0
TEXT
  7
TextStyle03
  8
寸法
  6
CONTINUOUS
 10
-77.875
 20
-18.775
  1
110.9
 40
3.0
 72
     5
 11
-69.625
 21
-18.775
  0
ENDBLK
  0
BLOCK
  2
*DIM_0009
 70
    65
 10
0.0
 20
0.0
  0
LINE
  8
寸法
  6
CONTINUOUS
 10
-35.429285
 20
-64.175503
 11
-35.429285
 21
-19.13943
  0
LINE
  8
寸法
  6
CONTINUOUS
 10
-40.976112
 20
-19.13943
 11
-35.429285
 21
-19.13943
  0
POINT
  8
寸法
 10
-40.976112
 20
-19.13943
  0
POINT
  8
寸法
 10
-35.429285
 20
-19.13943
  0
TEXT
  7
TextStyle03
  8
寸法
  6
CONTINUOUS
 10
-42.35
 20
-18.775
  1
110.9
 40
3.0
 72
     5
 11
-34.1
 21
-18.775
  0
ENDBLK
  0
BLOCK
  2
*DIM_0010
 70
    65
 10
0.0
 20
0.0
  0
LINE
  8
寸法
  6
BYBLOCK
 62
     0
 10
111.74567
 20
-88.775265
 11
111.74567
 21
-94.53735
  0
LINE
  8
寸法
  6
BYBLOCK
 62
     0
 10
145.83463
 20
-88.775265
 11
145.83463
 21
-94.53735
  0
LINE
  8
寸法
  6
BYBLOCK
 62
     0
 10
111.74567
 20
-94.53735
 11
145.83463
 21
-94.53735
  0
POINT
  8
寸法
 62
     0
 10
111.74567
 20
-94.53735
  0
POINT
  8
寸法
 62
     0
 10
145.83463
 20
-94.53735
  0
TEXT
  7
TextStyle03
  8
寸法
  6
CONTINUOUS
 62
     0
 10
124.675
 20
-94.175
  1
681.8
 40
3.0
 72
     5
 11
132.925
 21
-94.175
  0
ENDBLK
  0
BLOCK
  2
*DIM_0011
 70
    65
 10
0.0
 20
0.0
  0
LINE
  8
寸法
  6
BYBLOCK
 62
     0
 10
148.83463
 20
-85.775265
 11
155.68579
 21
-85.775265
  0
LINE
  8
寸法
  6
BYBLOCK
 62
     0
 10
131.79015
 20
-61.67073
 11
155.68579
 21
-61.67073
  0
LINE
  8
寸法
  6
BYBLOCK
 62
     0
 10
155.68579
 20
-85.775265
 11
155.68579
 21
-61.67073
  0
POINT
  8
寸法
 62
     0
 10
155.68579
 20
-85.775265
  0
POINT
  8
寸法
 62
     0
 10
155.68579
 20
-61.67073
  0
TEXT
  7
TextStyle03
  8
寸法
  6
CONTINUOUS
 62
     0
 10
155.3
 20
-77.85
  1
482.1
 40
3.0
 50
90.0
 72
     5
 11
155.3
 21
-69.6
  0
ENDBLK
  0
ENDSEC
  0
SECTION
  2
ENTITIES
  0
POLYLINE
  8
通り芯
  6
CONTINUOUS
 66
     1
 70
     1
  0
VERTEX
  8
通り芯
 10
-210.0
 20
-148.5
  0
VERTEX
  8
通り芯
 10
210.0
 20
-148.5
  0
VERTEX
  8
通り芯
 10
210.0
 20
148.5
  0
VERTEX
  8
通り芯
 10
-210.0
 20
148.5
  0
SEQEND
  0
INSERT
  2
*GRP_0001
  8
型材断面
  6
CONTINUOUS
 10
0.0
 20
0.0
  0
LINE
  8
型材断面
  6
DASHDOT
 10
-70.976112
 20
23.94145
 11
-40.976112
 21
23.94145
  0
LINE
  8
型材断面
  6
DASHDOT
 10
-70.976112
 20
-79.573802
 11
-70.976112
 21
53.94145
  0
LINE
  8
型材断面
  6
DASHDOT
 10
-55.976112
 20
-79.573802
 11
-55.976112
 21
53.94145
  0
LINE
  8
型材断面
  6
DASHDOT
 10
-40.976112
 20
-79.573802
 11
-40.976112
 21
53.94145
  0
LINE
  8
型材断面
  6
DASHDOT
 10
-70.976112
 20
38.94145
 11
-40.976112
 21
38.94145
  0
LINE
  8
型材断面
  6
DASHDOT
 10
-70.976112
 20
53.94145
 11
-40.976112
 21
53.94145
  0
LINE
  8
型材断面
  6
CONTINUOUS
 10
-78.999985
 20
38.94145
 11
-82.885745
 21
36.698005
  0
LINE
  8
型材断面
  6
CONTINUOUS
 10
-78.999985
 20
38.94145
 11
-82.885745
 21
41.184895
  0
LINE
  8
型材断面
  6
CONTINUOUS
 10
-82.885745
 20
41.184895
 11
-82.885745
 21
36.698005
  0
LINE
  8
型材断面
  6
CONTINUOUS
 10
-32.952235
 20
38.94145
 11
-29.066475
 21
36.698005
  0
LINE
  8
型材断面
  6
CONTINUOUS
 10
-32.952235
 20
38.94145
 11
-29.066475
 21
41.184895
  0
LINE
  8
型材断面
  6
CONTINUOUS
 10
-29.066475
 20
41.184895
 11
-29.066475
 21
36.698005
  0
LINE
  8
型材断面
  6
CONTINUOUS
 10
-55.976112
 20
61.965322
 11
-58.219557
 21
65.851082
  0
LINE
  8
型材断面
  6
CONTINUOUS
 10
-55.976112
 20
61.965322
 11
-53.732668
 21
65.851082
  0
LINE
  8
型材断面
  6
CONTINUOUS
 10
-53.732668
 20
65.851082
 11
-58.219557
 21
65.851082
  0
LINE
  8
型材断面
  6
CONTINUOUS
 10
-55.976112
 20
15.917572
 11
-58.219557
 21
12.031812
  0
LINE
  8
型材断面
  6
CONTINUOUS
 10
-55.976112
 20
15.917572
 11
-53.732668
 21
12.031812
  0
LINE
  8
型材断面
  6
CONTINUOUS
 10
-53.732668
 20
12.031812
 11
-58.219557
 21
12.031812
  0
LINE
  8
型材断面
  6
CONTINUOUS
 10
-14.025428
 20
16.067432
 11
-16.268872
 21
12.181673
  0
LINE
  8
型材断面
  6
CONTINUOUS
 10
-14.025428
 20
16.067432
 11
-11.781982
 21
12.181673
  0
LINE
  8
型材断面
  6
CONTINUOUS
 10
-11.781982
 20
12.181673
 11
-16.268872
 21
12.181673
  0
LINE
  8
型材断面
  6
CONTINUOUS
 10
-23.059307
 20
10.77378
 11
29.597372
 21
10.77378
  0
LINE
  8
型材断面
  6
CONTINUOUS
 10
-23.059307
 20
3.76667
 11
29.597372
 21
3.76667
  0
LINE
  8
型材断面
  6
CONTINUOUS
 10
-61.101112
 20
-53.576902
 11
-55.976112
 21
-53.576902
  0
LINE
  8
型材断面
  6
CONTINUOUS
 10
-61.101112
 20
-53.576902
 11
-61.030403
 21
-53.647613
  0
LINE
  8
型材断面
  6
CONTINUOUS
 10
-55.976112
 20
-53.647613
 11
-61.030403
 21
-53.647613
  0
LINE
  8
型材断面
  6
CONTINUOUS
 10
-61.101112
 20
-53.576902
 11
-55.976112
 21
-48.4519
  0
LINE
  8
型材断面
  6
CONTINUOUS
 10
-50.851112
 20
-53.576902
 11
-55.976112
 21
-53.576902
  0
LINE
  8
型材断面
  6
CONTINUOUS
 10
-50.851112
 20
-53.576902
 11
-50.921822
 21
-53.647613
  0
LINE
  8
型材断面
  6
CONTINUOUS
 10
-55.976112
 20
-53.647613
 11
-50.921822
 21
-53.647613
  0
LINE
  8
型材断面
  6
CONTINUOUS
 10
-50.851112
 20
-53.576902
 11
-55.976112
 21
-48.4519
  0
LINE
  8
型材断面
  6
CONTINUOUS
 10
-76.351112
 20
18.56645
 11
-76.351112
 21
38.94145
  0
LINE
  8
型材断面
  6
CONTINUOUS
 10
-76.351112
 20
18.56645
 11
-55.976112
 21
18.56645
  0
LINE
  8
型材断面
  6
CONTINUOUS
 10
-61.101112
 20
38.94145
 11
-61.101112
 21
33.81645
  0
LINE
  8
型材断面
  6
CONTINUOUS
 10
-55.976112
 20
33.81645
 11
-61.101112
 21
33.81645
  0
LINE
  8
型材断面
  6
CONTINUOUS
 10
-35.601112
 20
18.56645
 11
-35.601112
 21
38.94145
  0
LINE
  8
型材断面
  6
CONTINUOUS
 10
-35.601112
 20
18.56645
 11
-55.976112
 21
18.56645
  0
LINE
  8
型材断面
  6
CONTINUOUS
 10
-50.851112
 20
38.94145
 11
-50.851112
 21
33.81645
  0
LINE
  8
型材断面
  6
CONTINUOUS
 10
-55.976112
 20
33.81645
 11
-50.851112
 21
33.81645
  0
LINE
  8
型材断面
  6
CONTINUOUS
 10
-55.976112
 20
38.94145
 11
-36.306123
 21
19.27146
  0
LINE
  8
型材断面
  6
CONTINUOUS
 10
-35.601112
 20
59.31645
 11
-35.601112
 21
38.94145
  0
LINE
  8
型材断面
  6
CONTINUOUS
 10
-35.601112
 20
59.31645
 11
-55.976112
 21
59.31645
  0
LINE
  8
型材断面
  6
CONTINUOUS
 10
-50.851112
 20
38.94145
 11
-50.851112
 21
44.06645
  0
LINE
  8
型材断面
  6
CONTINUOUS
 10
-55.976112
 20
44.06645
 11
-50.851112
 21
44.06645
  0
LINE
  8
型材断面
  6
CONTINUOUS
 10
-55.976112
 20
38.94145
 11
-36.306123
 21
58.61144
  0
LINE
  8
型材断面
  6
CONTINUOUS
 10
-76.351112
 20
59.31645
 11
-76.351112
 21
38.94145
  0
LINE
  8
型材断面
  6
CONTINUOUS
 10
-76.351112
 20
59.31645
 11
-55.976112
 21
59.31645
  0
LINE
  8
型材断面
  6
CONTINUOUS
 10
-61.101112
 20
38.94145
 11
-61.101112
 21
44.06645
  0
LINE
  8
型材断面
  6
CONTINUOUS
 10
-55.976112
 20
44.06645
 11
-61.101112
 21
44.06645
  0
LINE
  8
型材断面
  6
CONTINUOUS
 10
-55.976112
 20
38.94145
 11
-75.646102
 21
58.61144
  0
LINE
  8
型材断面
  6
CONTINUOUS
 10
98.389745
 20
-57.689055
 11
122.321368
 21
-57.689055
  0
LINE
  8
型材断面
  6
CONTINUOUS
 62
    47
 10
-75.772937
 20
-71.125453
 11
-75.772937
 21
-70.380455
  0
LINE
  8
型材断面
  6
CONTINUOUS
 62
    47
 10
-75.022937
 20
-71.875453
 11
-75.022937
 21
-71.125453
  0
LINE
  8
型材断面
  6
CONTINUOUS
 62
    47
 10
-75.772937
 20
-70.380455
 11
-75.545465
 21
-70.152982
  0
LINE
  8
型材断面
  6
CONTINUOUS
 62
    47
 10
-75.545465
 20
-70.152982
 11
-76.52294
 21
-69.175503
  0
LINE
  8
型材断面
  6
CONTINUOUS
 62
    47
 10
-55.976112
 20
-48.628675
 11
-76.522765
 21
-69.175328
  0
LINE
  8
型材断面
  6
CONTINUOUS
 62
    47
 10
-75.022937
 20
-71.875453
 11
-55.976112
 21
-71.875453
  0
LINE
  8
型材断面
  6
CONTINUOUS
 62
    47
 10
-75.772937
 20
-71.125453
 11
-55.976112
 21
-71.125453
  0
LINE
  8
型材断面
  6
CONTINUOUS
 10
-76.522807
 20
-69.175328
 11
-55.976112
 21
-69.175328
  0
LINE
  8
型材断面
  6
CONTINUOUS
 10
-75.545465
 20
-70.152982
 11
-55.976112
 21
-70.152982
  0
LINE
  8
型材断面
  6
CONTINUOUS
 10
-75.772937
 20
-70.380455
 11
-55.976112
 21
-70.380455
  0
LINE
  8
型材断面
  6
CONTINUOUS
 62
    47
 10
-36.179288
 20
-71.125453
 11
-36.179288
 21
-70.380455
  0
LINE
  8
型材断面
  6
CONTINUOUS
 62
    47
 10
-36.929288
 20
-71.875453
 11
-36.929288
 21
-71.125453
  0
LINE
  8
型材断面
  6
CONTINUOUS
 62
    47
 10
-36.179288
 20
-70.380455
 11
-36.40676
 21
-70.152982
  0
LINE
  8
型材断面
  6
CONTINUOUS
 62
    47
 10
-36.40676
 20
-70.152982
 11
-35.429285
 21
-69.175503
  0
LINE
  8
型材断面
  6
CONTINUOUS
 62
    47
 10
-36.929288
 20
-71.875453
 11
-55.976112
 21
-71.875453
  0
LINE
  8
型材断面
  6
CONTINUOUS
 62
    47
 10
-36.179288
 20
-71.125453
 11
-55.976112
 21
-71.125453
  0
LINE
  8
型材断面
  6
CONTINUOUS
 10
-35.429418
 20
-69.175328
 11
-55.976112
 21
-69.175328
  0
LINE
  8
型材断面
  6
CONTINUOUS
 10
-36.40676
 20
-70.152982
 11
-55.976112
 21
-70.152982
  0
LINE
  8
型材断面
  6
CONTINUOUS
 10
-36.179288
 20
-70.380455
 11
-55.976112
 21
-70.380455
  0
LINE
  8
型材断面
  6
CONTINUOUS
 62
    47
 10
-55.976112
 20
-48.628675
 11
-35.42946
 21
-69.175328
  0
LINE
  8
型材断面
  6
CONTINUOUS
 10
-55.976112
 20
-67.672745
 11
-36.932042
 21
-67.672745
  0
LINE
  8
型材断面
  6
CONTINUOUS
 10
-37.432042
 20
-67.172745
 11
-41.106287
 21
-67.172745
  0
LINE
  8
型材断面
  6
CONTINUOUS
 10
-54.63142
 20
-53.647613
 11
-40.606287
 21
-67.672745
  0
LINE
  8
型材断面
  6
CONTINUOUS
 10
-74.520183
 20
-67.172745
 11
-70.845938
 21
-67.172745
  0
LINE
  8
型材断面
  6
CONTINUOUS
 10
-55.976112
 20
-67.672745
 11
-75.020183
 21
-67.672745
  0
LINE
  8
型材断面
  6
CONTINUOUS
 10
-57.320805
 20
-53.647613
 11
-71.345938
 21
-67.672745
  0
LINE
  8
型材断面
  6
CONTINUOUS
 10
-74.520183
 20
24.04568
 11
-74.520183
 21
20.39738
  0
LINE
  8
型材断面
  6
CONTINUOUS
 10
-74.520183
 20
20.39738
 11
-70.871887
 21
20.39738
  0
LINE
  8
型材断面
  6
CONTINUOUS
 10
-76.351112
 20
18.56645
 11
-75.020183
 21
19.89738
  0
LINE
  8
型材断面
  6
CONTINUOUS
 10
-75.020183
 20
19.89738
 11
-55.976112
 21
19.89738
  0
LINE
  8
型材断面
  6
CONTINUOUS
 10
-75.020183
 20
19.89738
 11
-75.020183
 21
38.94145
  0
LINE
  8
型材断面
  6
CONTINUOUS
 10
-57.452818
 20
33.81645
 11
-71.371887
 21
19.89738
  0
LINE
  8
型材断面
  6
CONTINUOUS
 10
-61.101112
 20
37.46475
 11
-75.020183
 21
23.54568
  0
LINE
  8
型材断面
  6
CONTINUOUS
 10
-55.976112
 20
38.94145
 11
-74.520183
 21
20.39738
  0
LINE
  8
型材断面
  6
CONTINUOUS
 10
-37.432042
 20
24.04568
 11
-37.432042
 21
20.39738
  0
LINE
  8
型材断面
  6
CONTINUOUS
 10
-37.432042
 20
20.39738
 11
-41.080338
 21
20.39738
  0
LINE
  8
型材断面
  6
CONTINUOUS
 10
-35.601112
 20
18.56645
 11
-36.932042
 21
19.89738
  0
LINE
  8
型材断面
  6
CONTINUOUS
 10
-36.932042
 20
19.89738
 11
-55.976112
 21
19.89738
  0
LINE
  8
型材断面
  6
CONTINUOUS
 10
-36.932042
 20
19.89738
 11
-36.932042
 21
38.94145
  0
LINE
  8
型材断面
  6
CONTINUOUS
 10
-37.432042
 20
53.83722
 11
-37.432042
 21
57.48552
  0
LINE
  8
型材断面
  6
CONTINUOUS
 10
-37.432042
 20
57.48552
 11
-41.080338
 21
57.48552
  0
LINE
  8
型材断面
  6
CONTINUOUS
 10
-35.601112
 20
59.31645
 11
-36.932042
 21
57.98552
  0
LINE
  8
型材断面
  6
CONTINUOUS
 10
-36.932042
 20
57.98552
 11
-55.976112
 21
57.98552
  0
LINE
  8
型材断面
  6
CONTINUOUS
 10
-36.932042
 20
57.98552
 11
-36.932042
 21
38.94145
  0
LINE
  8
型材断面
  6
CONTINUOUS
 10
-74.520183
 20
53.83722
 11
-74.520183
 21
57.48552
  0
LINE
  8
型材断面
  6
CONTINUOUS
 10
-74.520183
 20
57.48552
 11
-70.871887
 21
57.48552
  0
LINE
  8
型材断面
  6
CONTINUOUS
 10
-76.351112
 20
59.31645
 11
-75.020183
 21
57.98552
  0
LINE
  8
型材断面
  6
CONTINUOUS
 10
-75.020183
 20
57.98552
 11
-55.976112
 21
57.98552
  0
LINE
  8
型材断面
  6
CONTINUOUS
 10
-75.020183
 20
57.98552
 11
-75.020183
 21
38.94145
  0
LINE
  8
型材断面
  6
CONTINUOUS
 10
-54.499407
 20
33.81645
 11
-40.580338
 21
19.89738
  0
LINE
  8
型材断面
  6
CONTINUOUS
 10
-50.851112
 20
37.46475
 11
-36.932042
 21
23.54568
  0
LINE
  8
型材断面
  6
CONTINUOUS
 10
-50.851112
 20
40.41815
 11
-36.932042
 21
54.33722
  0
LINE
  8
型材断面
  6
CONTINUOUS
 10
-54.499407
 20
44.06645
 11
-40.580338
 21
57.98552
  0
LINE
  8
型材断面
  6
CONTINUOUS
 10
-57.452818
 20
44.06645
 11
-71.371887
 21
57.98552
  0
LINE
  8
型材断面
  6
CONTINUOUS
 10
-61.101112
 20
40.41815
 11
-75.020183
 21
54.33722
  0
LINE
  8
ガラス
  6
CONTINUOUS
 10
-54.088407
 20
-61.0196
 11
-57.961042
 21
-64.892235
  0
LINE
  8
ガラス
  6
CONTINUOUS
 10
-54.96873
 20
-62.617958
 11
-56.362685
 21
-64.011913
  0
LINE
  8
ガラス
  6
CONTINUOUS
 10
-55.686765
 20
-61.899922
 11
-57.08072
 21
-63.293877
  0
LINE
  8
ガラス
  6
CONTINUOUS
 10
-54.088407
 20
52.330417
 11
-57.961042
 21
48.457783
  0
LINE
  8
ガラス
  6
CONTINUOUS
 10
-54.96873
 20
50.73206
 11
-56.362685
 21
49.338105
  0
LINE
  8
ガラス
  6
CONTINUOUS
 10
-55.686765
 20
51.450095
 11
-57.08072
 21
50.05614
  0
LINE
  8
ガラス
  6
CONTINUOUS
 10
-54.088407
 20
28.24495
 11
-57.961042
 21
24.372315
  0
LINE
  8
ガラス
  6
CONTINUOUS
 10
-54.96873
 20
26.646593
 11
-56.362685
 21
25.252637
  0
LINE
  8
ガラス
  6
CONTINUOUS
 10
-55.686765
 20
27.364627
 11
-57.08072
 21
25.970672
  0
LINE
  8
ガラス
  6
CONTINUOUS
 10
-41.62827
 20
40.896945
 11
-45.500905
 21
37.02431
  0
LINE
  8
ガラス
  6
CONTINUOUS
 10
-42.508593
 20
39.298588
 11
-43.902548
 21
37.904632
  0
LINE
  8
ガラス
  6
CONTINUOUS
 10
-43.226627
 20
40.016623
 11
-44.620582
 21
38.622667
  0
LINE
  8
ガラス
  6
CONTINUOUS
 10
-66.257107
 20
40.896945
 11
-70.129742
 21
37.02431
  0
LINE
  8
ガラス
  6
CONTINUOUS
 10
-67.13743
 20
39.298588
 11
-68.531385
 21
37.904632
  0
LINE
  8
ガラス
  6
CONTINUOUS
 10
-67.855465
 20
40.016623
 11
-69.24942
 21
38.622667
  0
TEXT
  7
TextStyle03
  8
文字
  6
CONTINUOUS
 10
-77.375
 20
80.325
  1
アンカーピッチ
 40
3.0
 72
     5
 11
-54.125
 21
80.325
  0
TEXT
  7
TextStyle03
  8
文字
  6
CONTINUOUS
 10
-9.75
 20
12.525
  1
は排水穴位置を示す
 40
3.0
 72
     5
 11
20.25
 21
12.525
  0
TEXT
  7
TextStyle03
  8
文字
  6
CONTINUOUS
 10
-15.35
 20
5.175
  1
アンカー数量　４ヶ所
 40
3.0
 72
     5
 11
18.025
 21
5.175
  0
TEXT
  7
TextStyle03
  8
文字
  6
CONTINUOUS
 10
76.225
 20
96.775
  1
ＮＳコード：ＮＳ４ＣＫＺ
 40
5.0
 72
     5
 11
143.1
 21
96.775
  0
TEXT
  7
TextStyle03
  8
文字
  6
CONTINUOUS
 10
101.975
 20
-56.475
  1
ガラス寸法
 40
3.0
 72
     5
 11
118.475
 21
-56.475
  0
TEXT
  7
TextStyle03
  8
文字
  6
CONTINUOUS
 10
130.425
 20
-84.3
  1
×４枚
 40
3.0
 72
     5
 11
140.175
 21
-84.3
  0
TEXT
  7
TextStyle03
  8
文字
  6
CONTINUOUS
 10
76.05
 20
119.575
  1
シリーズ：ＴＦ２４Ｋ
 40
5.0
 72
     5
 11
131.675
 21
119.575
  0
TEXT
  7
TextStyle03
  8
文字
  6
CONTINUOUS
 10
76.05
 20
113.95
  1
　　　　　四角錘（固定）600×600タイプ
 40
5.0
 72
     5
 11
182.3
 21
113.95
  0
TEXT
  7
TextStyle03
  8
文字
  6
CONTINUOUS
 10
76.05
 20
108.325
  1
図面名　：外観姿図
 40
5.0
 72
     5
 11
126.05
 21
108.325
  0
TEXT
  7
TextStyle03
  8
文字
  6
CONTINUOUS
 10
76.05
 20
102.7
  1
　　　　　　
 40
5.0
 72
     5
 11
109.175
 21
102.7
  0
INSERT
  2
*DIM_0002
  8
寸法
  6
CONTINUOUS
 10
0.0
 20
0.0
  0
INSERT
  2
*DIM_0003
  8
寸法
  6
CONTINUOUS
 10
0.0
 20
0.0
  0
INSERT
  2
*DIM_0004
  8
寸法
  6
CONTINUOUS
 10
0.0
 20
0.0
  0
INSERT
  2
*DIM_0005
  8
寸法
  6
CONTINUOUS
 10
0.0
 20
0.0
  0
INSERT
  2
*DIM_0006
  8
寸法
  6
CONTINUOUS
 10
0.0
 20
0.0
  0
INSERT
  2
*DIM_0007
  8
寸法
  6
CONTINUOUS
 10
0.0
 20
0.0
  0
INSERT
  2
*DIM_0008
  8
寸法
  6
CONTINUOUS
 10
0.0
 20
0.0
  0
INSERT
  2
*DIM_0009
  8
寸法
  6
CONTINUOUS
 10
0.0
 20
0.0
  0
INSERT
  2
*DIM_0010
  8
寸法
  6
CONTINUOUS
 10
0.0
 20
0.0
  0
INSERT
  2
*DIM_0011
  8
寸法
  6
CONTINUOUS
 10
0.0
 20
0.0
  0
LINE
  8
曲げ物
  6
CONTINUOUS
 10
111.74567
 20
-85.775265
 11
128.79015
 21
-61.67073
  0
LINE
  8
曲げ物
  6
CONTINUOUS
 10
128.79015
 20
-61.67073
 11
145.83463
 21
-85.775265
  0
LINE
  8
曲げ物
  6
CONTINUOUS
 10
111.74567
 20
-85.775265
 11
145.83463
 21
-85.775265
  0
ENDSEC
  0
EOF
