  0
SECTION
  2
HEADER
  9
$EXTMIN
 10
-210.0
 20
-148.5
  9
$EXTMAX
 10
210.0
 20
148.5
  9
$PDMODE
 70
    32
  9
$PDSIZE
 40
1.5
  9
$LTSCALE
 40
10.0
  0
ENDSEC
  0
SECTION
  2
TABLES
  0
TABLE
  2
LTYPE
 70
    15
  0
LTYPE
  2
CONTINUOUS
 70
    64
  3
実線
 72
    65
 73
     0
 40
0.0
  0
LTYPE
  2
DASHED
 70
    64
  3
破線A
 72
    65
 73
     2
 40
0.6
 49
0.4
 49
-0.2
  0
LTYPE
  2
DASHEDX2
 70
    64
  3
破線B
 72
    65
 73
     2
 40
1.3
 49
0.9
 49
-0.4
  0
LTYPE
  2
DASHDOT
 70
    64
  3
１点鎖線A
 72
    65
 73
     4
 40
0.5375
 49
0.375
 49
-0.05
 49
0.0625
 49
-0.05
  0
LTYPE
  2
DASHDOTX2
 70
    64
  3
１点鎖線B
 72
    65
 73
     4
 40
1.075
 49
0.75
 49
-0.1
 49
0.125
 49
-0.1
  0
LTYPE
  2
DIVIDE2
 70
    64
  3
２点鎖線A
 72
    65
 73
     6
 40
0.5125
 49
0.3
 49
-0.0375
 49
0.05
 49
-0.0375
 49
0.05
 49
-0.0375
  0
LTYPE
  2
DIVIDE
 70
    64
  3
２点鎖線B
 72
    65
 73
     6
 40
1.05
 49
0.55
 49
-0.1
 49
0.1
 49
-0.1
 49
0.1
 49
-0.1
  0
LTYPE
  2
DOT
 70
    64
  3
点線A
 72
    65
 73
     2
 40
0.1125
 49
0.0625
 49
-0.05
  0
LTYPE
  2
DOTX2
 70
    64
  3
点線B
 72
    65
 73
     2
 40
0.275
 49
0.15
 49
-0.125
  0
LTYPE
  2
CONTINUOUS
 70
    64
  3
実線
 72
    65
 73
     0
 40
0.0
  0
LTYPE
  2
CONTINUOUS
 70
    64
  3
実線
 72
    65
 73
     0
 40
0.0
  0
LTYPE
  2
CONTINUOUS
 70
    64
  3
実線
 72
    65
 73
     0
 40
0.0
  0
LTYPE
  2
CONTINUOUS
 70
    64
  3
実線
 72
    65
 73
     0
 40
0.0
  0
LTYPE
  2
CONTINUOUS
 70
    64
  3
実線
 72
    65
 73
     0
 40
0.0
  0
LTYPE
  2
CONTINUOUS
 70
    64
  3
実線
 72
    65
 73
     0
 40
0.0
  0
ENDTAB
  0
TABLE
  2
LAYER
 70
    35
  0
LAYER
  2
通り芯
 70
     0
 62
    15
  6
CONTINUOUS
  0
LAYER
  2
補助線
 70
     0
 62
    16
  6
DOT
  0
LAYER
  2
躯体
 70
     0
 62
    31
  6
CONTINUOUS
  0
LAYER
  2
型材
 70
     0
 62
    32
  6
CONTINUOUS
  0
LAYER
  2
型材断面
 70
     0
 62
    47
  6
CONTINUOUS
  0
LAYER
  2
ガラス
 70
     0
 62
    48
  6
CONTINUOUS
  0
LAYER
  2
ゴム等
 70
     0
 62
    63
  6
CONTINUOUS
  0
LAYER
  2
ボルト／ビス
 70
     0
 62
    64
  6
CONTINUOUS
  0
LAYER
  2
文字
 70
     0
 62
    79
  6
CONTINUOUS
  0
LAYER
  2
寸法
 70
     0
 62
    80
  6
CONTINUOUS
  0
LAYER
  2
ﾊｯﾁﾝｸﾞ
 70
     0
 62
    95
  6
CONTINUOUS
  0
LAYER
  2
別途部材
 70
     0
 62
    96
  6
CONTINUOUS
  0
LAYER
  2
曲げ物
 70
     0
 62
   111
  6
CONTINUOUS
  0
LAYER
  2
鉄骨等
 70
     0
 62
   112
  6
CONTINUOUS
  0
LAYER
  2
St
 70
     0
 62
   127
  6
CONTINUOUS
  0
LAYER
  2
その他部品等
 70
     0
 62
   128
  6
CONTINUOUS
  0
LAYER
  2
ｶﾞｽｹｯﾄ
 70
     0
 62
   143
  6
CONTINUOUS
  0
LAYER
  2
ｽｹｯﾁ
 70
     0
 62
    14
  6
CONTINUOUS
  0
LAYER
  2
0
 70
     0
 62
    17
  6
CONTINUOUS
  0
LAYER
  2
1
 70
     0
 62
    30
  6
CONTINUOUS
  0
LAYER
  2
4
 70
     0
 62
    33
  6
CONTINUOUS
  0
LAYER
  2
ﾚｲﾔ3
 70
     0
 62
    46
  6
CONTINUOUS
  0
LAYER
  2
外形線
 70
     0
 62
    49
  6
CONTINUOUS
  0
LAYER
  2
部品
 70
     0
 62
    14
  6
CONTINUOUS
  0
LAYER
  2
サッシ芯
 70
     0
 62
    17
  6
DASHDOTX2
  0
LAYER
  2
寸法線
 70
     0
 62
    62
  6
CONTINUOUS
  0
LAYER
  2
姿図外形線
 70
     0
 62
    65
  6
CONTINUOUS
  0
LAYER
  2
姿補助線
 70
     0
 62
    30
  6
CONTINUOUS
  0
LAYER
  2
透視線
 70
     0
 62
    78
  6
DOT
  0
LAYER
  2
用紙
 70
     0
 62
    81
  6
CONTINUOUS
  0
LAYER
  2
実線図枠
 70
     0
 62
    94
  6
CONTINUOUS
  0
LAYER
  2
補助図枠
 70
     0
 62
    97
  6
CONTINUOUS
  0
LAYER
  2
建具記号
 70
     0
 62
   110
  6
CONTINUOUS
  0
LAYER
  2
補助文字
 70
     0
 62
   113
  6
CONTINUOUS
  0
LAYER
  2
LAYER010
 70
     0
 62
    11
  6
CONTINUOUS
  0
ENDTAB
  0
TABLE
  2
STYLE
 70
    10
  0
STYLE
  2
STANDARD
 70
     0
 40
1.0
 41
1.0
 42
1.0
 50
0.0
 71
     0
  3
TXT
  4
BIGFONT
  0
STYLE
  2
TATE
 70
     4
 40
1.0
 41
1.0
 42
1.0
 50
0.0
 71
     0
  3
TXT
  4
BIGFONT
  0
STYLE
  2
TextStyle03
 70
     0
 40
1.0
 41
1.0
 42
1.0
 50
0.0
 71
     0
  3
MONOTXT
  4
BIGFONT
  0
STYLE
  2
TextStyle04
 70
     0
 40
1.0
 41
1.0
 42
1.0
 50
0.0
 71
     0
  3
MONOTXT
  4
BIGFONT
  0
STYLE
  2
TextStyle05
 70
     0
 40
1.0
 41
1.0
 42
1.0
 50
0.0
 71
     0
  3
MONOTXT
  4
BIGFONT
  0
STYLE
  2
TextStyle06
 70
     0
 40
1.0
 41
1.0
 42
1.0
 50
0.0
 71
     0
  3
MONOTXT
  4
BIGFONT
  0
STYLE
  2
TextStyle07
 70
     0
 40
1.0
 41
1.0
 42
1.0
 50
0.0
 71
     0
  3
MONOTXT
  4
BIGFONT
  0
STYLE
  2
TextStyle08
 70
     0
 40
1.0
 41
1.0
 42
1.0
 50
0.0
 71
     0
  3
MONOTXT
  4
BIGFONT
  0
STYLE
  2
TextStyle09
 70
     0
 40
1.0
 41
1.0
 42
1.0
 50
0.0
 71
     0
  3
MONOTXT
  4
BIGFONT
  0
STYLE
  2
TextStyle10
 70
     0
 40
1.0
 41
1.0
 42
1.0
 50
0.0
 71
     0
  3
MONOTXT
  4
BIGFONT
  0
ENDTAB
  0
ENDSEC
  0
SECTION
  2
BLOCKS
  0
BLOCK
  2
*GRP_0001
 70
    65
 10
0.0
 20
0.0
  0
LINE
  8
型材断面
  6
CONTINUOUS
 10
195.0
 20
133.5
 11
195.0
 21
-133.5
  0
LINE
  8
型材断面
  6
CONTINUOUS
 10
195.0
 20
-133.5
 11
-185.0
 21
-133.5
  0
LINE
  8
型材断面
  6
CONTINUOUS
 10
-185.0
 20
-133.5
 11
-185.0
 21
133.5
  0
LINE
  8
型材断面
  6
CONTINUOUS
 10
195.0
 20
133.5
 11
-185.0
 21
133.5
  0
LINE
  8
型材断面
  6
CONTINUOUS
 10
145.0
 20
-133.5
 11
145.0
 21
-118.5
  0
LINE
  8
型材断面
  6
CONTINUOUS
 10
195.0
 20
-118.5
 11
145.0
 21
-118.5
  0
ENDBLK
  0
BLOCK
  2
*DIM_0002
 70
    65
 10
0.0
 20
0.0
  0
LINE
  8
寸法
  6
BYBLOCK
 62
     0
 10
21.33489
 20
-22.536362
 11
-45.331778
 21
-22.536362
  0
POINT
  8
寸法
 62
     0
 10
21.33489
 20
-22.536362
  0
POINT
  8
寸法
 62
     0
 10
-45.331778
 20
-22.536362
  0
TEXT
  7
TextStyle03
  8
寸法
  6
CONTINUOUS
 62
     0
 10
-23.71875
 20
-22.175
  1
呼称寸法　2000
 40
3.0
 72
     5
 11
-0.28125
 21
-22.175
  0
ENDBLK
  0
BLOCK
  2
*DIM_0003
 70
    65
 10
0.0
 20
0.0
  0
LINE
  8
寸法
  6
BYBLOCK
 62
     0
 10
-28.66511
 20
9.76892
 11
-28.66511
 21
4.711185
  0
LINE
  8
寸法
  6
BYBLOCK
 62
     0
 10
4.668225
 20
9.76892
 11
4.668225
 21
4.711185
  0
LINE
  8
寸法
  6
BYBLOCK
 62
     0
 10
-28.66511
 20
4.711185
 11
4.668225
 21
4.711185
  0
POINT
  8
寸法
 62
     0
 10
-28.66511
 20
4.711185
  0
POINT
  8
寸法
 62
     0
 10
4.668225
 20
4.711185
  0
TEXT
  7
TextStyle03
  8
寸法
  6
CONTINUOUS
 62
     0
 10
-15.28125
 20
5.075
  1
1000
 40
3.0
 72
     5
 11
-8.71875
 21
5.075
  0
ENDBLK
  0
BLOCK
  2
*DIM_0004
 70
    65
 10
0.0
 20
0.0
  0
LINE
  8
寸法
  6
BYBLOCK
 62
     0
 10
24.334935
 20
-78.991382
 11
24.334935
 21
-22.536362
  0
LINE
  8
寸法
  6
BYBLOCK
 62
     0
 10
21.33489
 20
-22.536362
 11
24.334935
 21
-22.536362
  0
POINT
  8
寸法
 62
     0
 10
21.33489
 20
-22.536362
  0
POINT
  8
寸法
 62
     0
 10
24.334935
 20
-22.536362
  0
TEXT
  7
TextStyle03
  8
寸法
  6
CONTINUOUS
 62
     0
 10
21.23125
 20
-22.175
  1
90
 40
3.0
 72
     5
 11
24.41875
 21
-22.175
  0
ENDBLK
  0
BLOCK
  2
*DIM_0005
 70
    65
 10
0.0
 20
0.0
  0
LINE
  8
寸法
  6
BYBLOCK
 62
     0
 10
-48.33182
 20
-78.991382
 11
-48.33182
 21
-22.536362
  0
LINE
  8
寸法
  6
BYBLOCK
 62
     0
 10
-45.331775
 20
-22.536362
 11
-48.33182
 21
-22.536362
  0
POINT
  8
寸法
 62
     0
 10
-45.331775
 20
-22.536362
  0
POINT
  8
寸法
 62
     0
 10
-48.33182
 20
-22.536362
  0
TEXT
  7
TextStyle03
  8
寸法
  6
CONTINUOUS
 62
     0
 10
-48.44375
 20
-22.175
  1
90
 40
3.0
 72
     5
 11
-45.25625
 21
-22.175
  0
ENDBLK
  0
BLOCK
  2
*DIM_0006
 70
    65
 10
0.0
 20
0.0
  0
LINE
  8
寸法
  6
BYBLOCK
 62
     0
 10
117.421445
 20
-49.867045
 11
125.856293
 21
-49.867045
  0
LINE
  8
寸法
  6
BYBLOCK
 62
     0
 10
117.421445
 20
-92.533713
 11
125.856293
 21
-92.533713
  0
LINE
  8
寸法
  6
BYBLOCK
 62
     0
 10
125.856293
 20
-49.867045
 11
125.856293
 21
-92.533713
  0
POINT
  8
寸法
 62
     0
 10
125.856293
 20
-49.867045
  0
POINT
  8
寸法
 62
     0
 10
125.856293
 20
-92.533713
  0
TEXT
  7
TextStyle03
  8
寸法
  6
CONTINUOUS
 62
     0
 10
125.525
 20
-74.48125
  1
1280
 40
3.0
 50
90.0
 72
     5
 11
125.525
 21
-67.91875
  0
ENDBLK
  0
BLOCK
  2
*DIM_0007
 70
    65
 10
0.0
 20
0.0
  0
LINE
  8
寸法
  6
BYBLOCK
 62
     0
 10
-48.331778
 20
23.399048
 11
-77.276943
 21
23.399048
  0
LINE
  8
寸法
  6
BYBLOCK
 62
     0
 10
-48.331778
 20
46.732382
 11
-77.276943
 21
46.732382
  0
LINE
  8
寸法
  6
BYBLOCK
 62
     0
 10
-77.276943
 20
23.399048
 11
-77.276943
 21
46.732382
  0
POINT
  8
寸法
 62
     0
 10
-77.276943
 20
23.399048
  0
POINT
  8
寸法
 62
     0
 10
-77.276943
 20
46.732382
  0
TEXT
  7
TextStyle03
  8
寸法
  6
CONTINUOUS
 62
     0
 10
-77.675
 20
32.6125
  1
700
 40
3.0
 50
90.0
 72
     5
 11
-77.675
 21
37.4875
  0
ENDBLK
  0
BLOCK
  2
*DIM_0008
 70
    65
 10
0.0
 20
0.0
  0
LINE
  8
寸法
  6
BYBLOCK
 62
     0
 10
-35.331775
 20
59.73238
 11
-35.331775
 21
88.66
  0
LINE
  8
寸法
  6
BYBLOCK
 62
     0
 10
-11.998442
 20
59.73238
 11
-11.998442
 21
88.66
  0
LINE
  8
寸法
  6
BYBLOCK
 62
     0
 10
-35.331775
 20
88.66
 11
-11.998442
 21
88.66
  0
POINT
  8
寸法
 62
     0
 10
-35.331775
 20
88.66
  0
POINT
  8
寸法
 62
     0
 10
-11.998442
 20
88.66
  0
TEXT
  7
TextStyle03
  8
寸法
  6
CONTINUOUS
 62
     0
 10
-26.1125
 20
89.025
  1
700
 40
3.0
 72
     5
 11
-21.2375
 21
89.025
  0
ENDBLK
  0
BLOCK
  2
*DIM_0009
 70
    65
 10
0.0
 20
0.0
  0
LINE
  8
寸法
  6
BYBLOCK
 62
     0
 10
11.33489
 20
59.73238
 11
11.33489
 21
88.66
  0
LINE
  8
寸法
  6
BYBLOCK
 62
     0
 10
-11.998442
 20
88.66
 11
11.33489
 21
88.66
  0
POINT
  8
寸法
 62
     0
 10
11.33489
 20
88.66
  0
TEXT
  7
TextStyle03
  8
寸法
  6
CONTINUOUS
 62
     0
 10
-2.7875
 20
89.025
  1
700
 40
3.0
 72
     5
 11
2.0875
 21
89.025
  0
ENDBLK
  0
BLOCK
  2
*DIM_0010
 70
    65
 10
0.0
 20
0.0
  0
LINE
  8
寸法
  6
CONTINUOUS
 10
116.52043
 20
70.37154
 11
119.837097
 21
70.37154
  0
POINT
  8
寸法
 10
116.52043
 20
70.37154
  0
POINT
  8
寸法
 10
119.837097
 20
70.37154
  0
TEXT
  7
TextStyle03
  8
寸法
  6
CONTINUOUS
 10
114.66875
 20
70.55
  1
99.5
 40
3.0
 72
     5
 11
121.23125
 21
70.55
  0
ENDBLK
  0
BLOCK
  2
*DIM_0011
 70
    65
 10
0.0
 20
0.0
  0
LINE
  8
寸法
  6
CONTINUOUS
 10
34.9741
 20
-78.23267
 11
34.9741
 21
-81.549338
  0
POINT
  8
寸法
 10
34.9741
 20
-78.23267
  0
POINT
  8
寸法
 10
34.9741
 20
-81.549338
  0
TEXT
  7
TextStyle03
  8
寸法
  6
CONTINUOUS
 10
38.1
 20
-83.03125
  1
99.5
 40
3.0
 50
90.0
 72
     5
 11
38.1
 21
-76.46875
  0
ENDBLK
  0
BLOCK
  2
*DIM_0012
 70
    65
 10
0.0
 20
0.0
  0
LINE
  8
寸法
  6
CONTINUOUS
 10
116.421445
 20
-41.787152
 11
84.004777
 21
-41.787152
  0
POINT
  8
寸法
 10
116.421445
 20
-41.787152
  0
POINT
  8
寸法
 10
84.004777
 20
-41.787152
  0
TEXT
  7
TextStyle03
  8
寸法
  6
CONTINUOUS
 10
96.075
 20
-41.45
  1
972.5
 40
3.0
 72
     5
 11
104.325
 21
-41.45
  0
ENDBLK
  0
ENDSEC
  0
SECTION
  2
ENTITIES
  0
POLYLINE
  8
通り芯
  6
CONTINUOUS
 66
     1
 70
     1
  0
VERTEX
  8
通り芯
 10
-210.0
 20
-148.5
  0
VERTEX
  8
通り芯
 10
210.0
 20
-148.5
  0
VERTEX
  8
通り芯
 10
210.0
 20
148.5
  0
VERTEX
  8
通り芯
 10
-210.0
 20
148.5
  0
SEQEND
  0
INSERT
  2
*GRP_0001
  8
型材断面
  6
CONTINUOUS
 10
0.0
 20
0.0
  0
LINE
  8
型材断面
  6
DASHDOT
 10
21.33489
 20
-87.251428
 11
21.33489
 21
56.73238
  0
LINE
  8
型材断面
  6
DASHDOT
 10
-11.998442
 20
-87.251428
 11
-11.998442
 21
56.73238
  0
LINE
  8
型材断面
  6
DASHDOT
 10
-45.331778
 20
-87.251428
 11
-45.331778
 21
56.73238
  0
LINE
  8
型材断面
  6
CONTINUOUS
 10
-47.961907
 20
35.065715
 11
-50.552415
 21
36.561345
  0
LINE
  8
型材断面
  6
CONTINUOUS
 10
-47.961907
 20
35.065715
 11
-50.552415
 21
33.570085
  0
LINE
  8
型材断面
  6
CONTINUOUS
 10
-50.552415
 20
33.570085
 11
-50.552415
 21
36.561345
  0
LINE
  8
型材断面
  6
CONTINUOUS
 10
-28.66511
 20
59.36251
 11
-30.16074
 21
61.953017
  0
LINE
  8
型材断面
  6
CONTINUOUS
 10
-28.66511
 20
59.36251
 11
-27.16948
 21
61.953017
  0
LINE
  8
型材断面
  6
CONTINUOUS
 10
-27.16948
 20
61.953017
 11
-30.16074
 21
61.953017
  0
LINE
  8
型材断面
  6
CONTINUOUS
 10
-86.183985
 20
101.239727
 11
-87.679615
 21
98.64922
  0
LINE
  8
型材断面
  6
CONTINUOUS
 10
-86.183985
 20
101.239727
 11
-84.688355
 21
98.64922
  0
LINE
  8
型材断面
  6
CONTINUOUS
 10
-84.688355
 20
98.64922
 11
-87.679615
 21
98.64922
  0
LINE
  8
型材断面
  6
CONTINUOUS
 10
-92.206573
 20
97.710625
 11
-45.964795
 21
97.710625
  0
LINE
  8
型材断面
  6
CONTINUOUS
 10
-28.66511
 20
10.76892
 11
-30.16074
 21
8.178413
  0
LINE
  8
型材断面
  6
CONTINUOUS
 10
-28.66511
 20
10.76892
 11
-27.16948
 21
8.178413
  0
LINE
  8
型材断面
  6
CONTINUOUS
 10
-27.16948
 20
8.178413
 11
-30.16074
 21
8.178413
  0
LINE
  8
型材断面
  6
CONTINUOUS
 10
23.965022
 20
35.065715
 11
26.55553
 21
36.561345
  0
LINE
  8
型材断面
  6
CONTINUOUS
 10
23.965022
 20
35.065715
 11
26.55553
 21
33.570085
  0
LINE
  8
型材断面
  6
CONTINUOUS
 10
26.55553
 20
33.570085
 11
26.55553
 21
36.561345
  0
LINE
  8
型材断面
  6
CONTINUOUS
 10
4.668225
 20
59.36251
 11
6.163855
 21
61.953017
  0
LINE
  8
型材断面
  6
CONTINUOUS
 10
4.668225
 20
59.36251
 11
3.172595
 21
61.953017
  0
LINE
  8
型材断面
  6
CONTINUOUS
 10
3.172595
 20
61.953017
 11
6.163855
 21
61.953017
  0
LINE
  8
型材断面
  6
CONTINUOUS
 10
4.668225
 20
10.76892
 11
6.163855
 21
8.178413
  0
LINE
  8
型材断面
  6
CONTINUOUS
 10
4.668225
 20
10.76892
 11
3.172595
 21
8.178413
  0
LINE
  8
型材断面
  6
CONTINUOUS
 10
3.172595
 20
8.178413
 11
6.163855
 21
8.178413
  0
LINE
  8
型材断面
  6
CONTINUOUS
 10
-92.206573
 20
91.577787
 11
-45.964795
 21
91.577787
  0
LINE
  8
型材断面
  6
CONTINUOUS
 10
-48.331825
 20
10.399007
 11
-11.998442
 21
10.399007
  0
LINE
  8
型材断面
  6
CONTINUOUS
 10
-48.331825
 20
59.732423
 11
-11.998442
 21
59.732423
  0
LINE
  8
型材断面
  6
CONTINUOUS
 10
24.33494
 20
59.732423
 11
-11.998442
 21
59.732423
  0
LINE
  8
型材断面
  6
CONTINUOUS
 10
24.33494
 20
10.399007
 11
-11.998442
 21
10.399007
  0
CIRCLE
  8
型材断面
  6
CONTINUOUS
 62
    47
 10
119.3371
 20
59.732323
 40
0.011113
  0
LINE
  8
型材断面
  6
CONTINUOUS
 62
    47
 10
119.837097
 20
59.232332
 11
119.837097
 21
59.732323
  0
LINE
  8
型材断面
  6
CONTINUOUS
 62
    47
 10
119.837097
 20
59.732323
 11
119.3371
 21
59.732323
  0
LINE
  8
型材断面
  6
CONTINUOUS
 62
    47
 10
119.3371
 20
59.732323
 11
118.83992
 21
56.798992
  0
LINE
  8
型材断面
  6
CONTINUOUS
 62
    47
 10
119.837097
 20
59.232332
 11
120.337097
 21
59.232332
  0
LINE
  8
型材断面
  6
CONTINUOUS
 62
    47
 10
118.83992
 20
56.798992
 11
118.187097
 21
56.798992
  0
CIRCLE
  8
型材断面
  6
CONTINUOUS
 62
    47
 10
119.3371
 20
10.399007
 40
0.011113
  0
LINE
  8
型材断面
  6
CONTINUOUS
 62
    47
 10
119.837097
 20
10.898998
 11
119.837097
 21
10.399007
  0
LINE
  8
型材断面
  6
CONTINUOUS
 62
    47
 10
119.837097
 20
10.399007
 11
119.3371
 21
10.399007
  0
LINE
  8
型材断面
  6
CONTINUOUS
 62
    47
 10
119.3371
 20
10.399007
 11
118.83992
 21
13.332337
  0
LINE
  8
型材断面
  6
CONTINUOUS
 62
    47
 10
119.837097
 20
10.898998
 11
120.337097
 21
10.898998
  0
LINE
  8
型材断面
  6
CONTINUOUS
 62
    47
 10
118.83992
 20
13.332337
 11
118.187097
 21
13.332337
  0
LINE
  8
型材断面
  6
CONTINUOUS
 62
    47
 10
116.687097
 20
11.752537
 11
116.687097
 21
35.065665
  0
LINE
  8
型材断面
  6
CONTINUOUS
 62
    47
 10
116.52043
 20
11.909058
 11
116.52043
 21
35.065665
  0
LINE
  8
型材断面
  6
CONTINUOUS
 62
    47
 10
118.187097
 20
11.909058
 11
118.187097
 21
35.065665
  0
LINE
  8
型材断面
  6
CONTINUOUS
 10
118.83992
 20
13.332285
 11
118.83992
 21
35.065665
  0
LINE
  8
型材断面
  6
CONTINUOUS
 10
119.337103
 20
10.398953
 11
119.337103
 21
35.065665
  0
LINE
  8
型材断面
  6
CONTINUOUS
 62
    47
 10
119.837097
 20
10.398953
 11
119.837097
 21
35.065665
  0
LINE
  8
型材断面
  6
CONTINUOUS
 10
120.337097
 20
10.898942
 11
120.337097
 21
35.065665
  0
LINE
  8
型材断面
  6
CONTINUOUS
 62
    47
 10
119.837097
 20
59.732378
 11
119.837097
 21
35.065665
  0
LINE
  8
型材断面
  6
CONTINUOUS
 10
118.83992
 20
56.799045
 11
118.83992
 21
35.065665
  0
LINE
  8
型材断面
  6
CONTINUOUS
 62
    47
 10
116.687097
 20
58.378793
 11
116.687097
 21
35.065665
  0
LINE
  8
型材断面
  6
CONTINUOUS
 62
    47
 10
116.52043
 20
58.222272
 11
116.52043
 21
35.065665
  0
LINE
  8
型材断面
  6
CONTINUOUS
 62
    47
 10
118.187097
 20
58.222272
 11
118.187097
 21
35.065665
  0
LINE
  8
型材断面
  6
CONTINUOUS
 10
119.337103
 20
59.732378
 11
119.337103
 21
35.065665
  0
LINE
  8
型材断面
  6
CONTINUOUS
 10
120.337097
 20
59.232388
 11
120.337097
 21
35.065665
  0
CIRCLE
  8
型材断面
  6
CONTINUOUS
 62
    47
 10
-48.331768
 20
-81.04934
 40
0.011113
  0
LINE
  8
型材断面
  6
CONTINUOUS
 62
    47
 10
-47.831775
 20
-81.549338
 11
-48.331768
 21
-81.549338
  0
LINE
  8
型材断面
  6
CONTINUOUS
 62
    47
 10
-48.331768
 20
-81.549338
 11
-48.331768
 21
-81.04934
  0
LINE
  8
型材断面
  6
CONTINUOUS
 62
    47
 10
-48.331768
 20
-81.04934
 11
-45.398435
 21
-80.55216
  0
LINE
  8
型材断面
  6
CONTINUOUS
 62
    47
 10
-47.831775
 20
-81.549338
 11
-47.831775
 21
-82.049338
  0
LINE
  8
型材断面
  6
CONTINUOUS
 62
    47
 10
-45.398435
 20
-80.55216
 11
-45.398435
 21
-79.899338
  0
CIRCLE
  8
型材断面
  6
CONTINUOUS
 62
    47
 10
24.334882
 20
-81.04934
 40
0.011113
  0
LINE
  8
型材断面
  6
CONTINUOUS
 62
    47
 10
23.83489
 20
-81.549338
 11
24.334882
 21
-81.549338
  0
LINE
  8
型材断面
  6
CONTINUOUS
 62
    47
 10
24.334882
 20
-81.549338
 11
24.334882
 21
-81.04934
  0
LINE
  8
型材断面
  6
CONTINUOUS
 62
    47
 10
24.334882
 20
-81.04934
 11
21.40155
 21
-80.55216
  0
LINE
  8
型材断面
  6
CONTINUOUS
 62
    47
 10
23.83489
 20
-81.549338
 11
23.83489
 21
-82.049338
  0
LINE
  8
型材断面
  6
CONTINUOUS
 62
    47
 10
21.40155
 20
-80.55216
 11
21.40155
 21
-79.899338
  0
LINE
  8
型材断面
  6
CONTINUOUS
 62
    47
 10
-46.821715
 20
-79.899338
 11
-11.998442
 21
-79.899338
  0
LINE
  8
型材断面
  6
CONTINUOUS
 62
    47
 10
-46.821715
 20
-78.23267
 11
-11.998442
 21
-78.23267
  0
LINE
  8
型材断面
  6
CONTINUOUS
 62
    47
 10
-46.978237
 20
-78.399338
 11
-11.998442
 21
-78.399338
  0
LINE
  8
型材断面
  6
CONTINUOUS
 10
-45.39849
 20
-80.55216
 11
-11.998442
 21
-80.55216
  0
LINE
  8
型材断面
  6
CONTINUOUS
 10
-48.33182
 20
-81.049342
 11
-11.998442
 21
-81.049342
  0
LINE
  8
型材断面
  6
CONTINUOUS
 10
-47.83183
 20
-82.049338
 11
-11.998442
 21
-82.049338
  0
LINE
  8
型材断面
  6
CONTINUOUS
 62
    47
 10
-48.33182
 20
-81.549338
 11
-11.998442
 21
-81.549338
  0
LINE
  8
型材断面
  6
CONTINUOUS
 10
21.401605
 20
-80.55216
 11
-11.998442
 21
-80.55216
  0
LINE
  8
型材断面
  6
CONTINUOUS
 62
    47
 10
22.82483
 20
-79.899338
 11
-11.998442
 21
-79.899338
  0
LINE
  8
型材断面
  6
CONTINUOUS
 62
    47
 10
22.981352
 20
-78.399338
 11
-11.998442
 21
-78.399338
  0
LINE
  8
型材断面
  6
CONTINUOUS
 62
    47
 10
22.82483
 20
-78.23267
 11
-11.998442
 21
-78.23267
  0
LINE
  8
型材断面
  6
CONTINUOUS
 10
23.834945
 20
-82.049338
 11
-11.998442
 21
-82.049338
  0
LINE
  8
型材断面
  6
CONTINUOUS
 10
24.334935
 20
-81.049342
 11
-11.998442
 21
-81.049342
  0
LINE
  8
型材断面
  6
CONTINUOUS
 62
    47
 10
24.334935
 20
-81.549338
 11
-11.998442
 21
-81.549338
  0
LINE
  8
型材断面
  6
DASHDOT
 10
-45.331778
 20
35.065715
 11
127.313107
 21
35.065715
  0
LINE
  8
型材断面
  6
DASHDOT
 10
127.313107
 20
13.398998
 11
-45.331778
 21
13.398998
  0
LINE
  8
型材断面
  6
DASHDOT
 10
127.313107
 20
56.732332
 11
-45.331778
 21
56.732332
  0
LINE
  8
型材断面
  6
CONTINUOUS
 10
-28.248442
 20
14.252537
 11
4.251557
 21
14.252537
  0
LINE
  8
型材断面
  6
CONTINUOUS
 10
-28.248442
 20
55.878893
 11
4.251557
 21
55.878893
  0
LINE
  8
型材断面
  6
CONTINUOUS
 10
-10.748442
 20
15.08587
 11
-13.248442
 21
15.08587
  0
LINE
  8
型材断面
  6
CONTINUOUS
 10
-10.748442
 20
55.04556
 11
-13.248442
 21
55.04556
  0
LINE
  8
型材断面
  6
CONTINUOUS
 10
-10.748442
 20
15.08587
 11
-10.748442
 21
55.04556
  0
LINE
  8
型材断面
  6
CONTINUOUS
 10
-13.248442
 20
15.08587
 11
-13.248442
 21
55.04556
  0
LINE
  8
型材断面
  6
CONTINUOUS
 10
24.334937
 20
35.06571
 11
24.334937
 21
59.732423
  0
LINE
  8
型材断面
  6
CONTINUOUS
 10
24.334937
 20
35.06572
 11
24.334937
 21
10.399007
  0
LINE
  8
型材断面
  6
CONTINUOUS
 10
22.745652
 20
11.752537
 11
22.981352
 21
11.988237
  0
LINE
  8
型材断面
  6
CONTINUOUS
 10
24.334937
 20
10.399007
 11
22.86353
 21
11.870415
  0
LINE
  8
型材断面
  6
CONTINUOUS
 10
22.981352
 20
11.988237
 11
20.481352
 21
14.488237
  0
LINE
  8
型材断面
  6
CONTINUOUS
 10
22.745652
 20
11.752537
 11
20.245652
 21
14.252537
  0
LINE
  8
型材断面
  6
CONTINUOUS
 10
20.245652
 20
14.252537
 11
20.481352
 21
14.488237
  0
LINE
  8
型材断面
  6
CONTINUOUS
 10
20.481352
 20
34.649048
 11
20.481352
 21
14.488237
  0
LINE
  8
型材断面
  6
CONTINUOUS
 10
22.745652
 20
58.378893
 11
22.981352
 21
58.143193
  0
LINE
  8
型材断面
  6
CONTINUOUS
 10
24.334937
 20
59.732423
 11
22.86353
 21
58.261015
  0
LINE
  8
型材断面
  6
CONTINUOUS
 10
22.745652
 20
58.378893
 11
20.245652
 21
55.878893
  0
LINE
  8
型材断面
  6
CONTINUOUS
 10
20.245652
 20
55.878893
 11
20.481352
 21
55.643193
  0
LINE
  8
型材断面
  6
CONTINUOUS
 10
20.481352
 20
55.643193
 11
22.981352
 21
58.143193
  0
LINE
  8
型材断面
  6
CONTINUOUS
 10
22.981352
 20
11.988237
 11
22.981352
 21
58.143193
  0
LINE
  8
型材断面
  6
CONTINUOUS
 10
20.481352
 20
35.482382
 11
20.481352
 21
55.643193
  0
LINE
  8
型材断面
  6
CONTINUOUS
 10
5.084893
 20
55.878893
 11
20.245652
 21
55.878893
  0
LINE
  8
型材断面
  6
CONTINUOUS
 10
5.084893
 20
14.252537
 11
20.245652
 21
14.252537
  0
LINE
  8
型材断面
  6
CONTINUOUS
 10
-48.331823
 20
35.06571
 11
-48.331823
 21
59.732423
  0
LINE
  8
型材断面
  6
CONTINUOUS
 10
-48.331823
 20
35.06572
 11
-48.331823
 21
10.399007
  0
LINE
  8
型材断面
  6
CONTINUOUS
 10
-46.742537
 20
11.752537
 11
-46.978237
 21
11.988237
  0
LINE
  8
型材断面
  6
CONTINUOUS
 10
-48.331823
 20
10.399007
 11
-46.860415
 21
11.870415
  0
LINE
  8
型材断面
  6
CONTINUOUS
 10
-46.978237
 20
11.988237
 11
-44.478237
 21
14.488237
  0
LINE
  8
型材断面
  6
CONTINUOUS
 10
-46.742537
 20
11.752537
 11
-44.242537
 21
14.252537
  0
LINE
  8
型材断面
  6
CONTINUOUS
 10
-44.242537
 20
14.252537
 11
-44.478237
 21
14.488237
  0
LINE
  8
型材断面
  6
CONTINUOUS
 10
-44.478237
 20
34.649048
 11
-44.478237
 21
14.488237
  0
LINE
  8
型材断面
  6
CONTINUOUS
 10
-46.742537
 20
58.378893
 11
-46.978237
 21
58.143193
  0
LINE
  8
型材断面
  6
CONTINUOUS
 10
-48.331823
 20
59.732423
 11
-46.860415
 21
58.261015
  0
LINE
  8
型材断面
  6
CONTINUOUS
 10
-46.742537
 20
58.378893
 11
-44.242537
 21
55.878893
  0
LINE
  8
型材断面
  6
CONTINUOUS
 10
-44.242537
 20
55.878893
 11
-44.478237
 21
55.643193
  0
LINE
  8
型材断面
  6
CONTINUOUS
 10
-44.478237
 20
55.643193
 11
-46.978237
 21
58.143193
  0
LINE
  8
型材断面
  6
CONTINUOUS
 10
-46.978237
 20
11.988237
 11
-46.978237
 21
58.143193
  0
LINE
  8
型材断面
  6
CONTINUOUS
 10
-44.478237
 20
35.482382
 11
-44.478237
 21
55.643193
  0
LINE
  8
型材断面
  6
CONTINUOUS
 10
-29.081778
 20
14.252537
 11
-44.242537
 21
14.252537
  0
LINE
  8
型材断面
  6
CONTINUOUS
 10
22.745652
 20
11.752537
 11
-46.742537
 21
11.752537
  0
LINE
  8
型材断面
  6
CONTINUOUS
 10
-29.081778
 20
55.878893
 11
-44.242537
 21
55.878893
  0
LINE
  8
型材断面
  6
CONTINUOUS
 10
22.745652
 20
58.378893
 11
-46.742537
 21
58.378893
  0
TEXT
  7
TextStyle03
  8
文字
  6
CONTINUOUS
 10
-83.45
 20
98.85
  1
は排水穴位置を示す
 40
3.0
 72
     5
 11
-53.45
 21
98.85
  0
TEXT
  7
TextStyle03
  8
文字
  6
CONTINUOUS
 10
-87.175
 20
92.5
  1
アンカー数量　１０ヶ所
 40
3.0
 72
     5
 11
-50.425
 21
92.5
  0
TEXT
  7
TextStyle03
  8
文字
  6
CONTINUOUS
 10
64.125
 20
104.525
  1
ＮＳコード：ＮＳＦＫＺ
 40
5.0
 72
     5
 11
125.375
 21
104.525
  0
TEXT
  7
TextStyle03
  8
文字
  6
CONTINUOUS
 10
97.9
 20
-86.1
  1
網入り6.8t
 40
3.0
 72
     5
 11
114.5875
 21
-86.1
  0
TEXT
  7
TextStyle03
  8
文字
  6
CONTINUOUS
 10
104.575
 20
-90.775
  1
×２枚
 40
3.0
 72
     5
 11
114.325
 21
-90.775
  0
TEXT
  7
TextStyle03
  8
文字
  6
CONTINUOUS
 10
-82.875
 20
23.975
  1
アンカーピッチ
 40
3.0
 50
90.0
 72
     5
 11
-82.875
 21
47.225
  0
TEXT
  7
TextStyle03
  8
文字
  6
CONTINUOUS
 10
-37.9
 20
93.575
  1
アンカーピッチ
 40
3.0
 72
     5
 11
-14.65
 21
93.575
  0
LINE
  8
文字
  6
CONTINUOUS
 10
116.52043
 20
70.37154
 11
116.52043
 21
61.018383
  0
LINE
  8
文字
  6
CONTINUOUS
 10
119.837097
 20
70.37154
 11
119.837097
 21
61.083737
  0
LINE
  8
文字
  6
CONTINUOUS
 10
34.9741
 20
-78.23267
 11
25.620942
 21
-78.23267
  0
LINE
  8
文字
  6
CONTINUOUS
 10
34.9741
 20
-81.549338
 11
25.686295
 21
-81.549338
  0
LINE
  8
文字
  6
CONTINUOUS
 10
116.421445
 20
-41.787152
 11
116.421445
 21
-47.980098
  0
LINE
  8
文字
  6
CONTINUOUS
 10
84.004777
 20
-41.787152
 11
84.004777
 21
-47.980098
  0
TEXT
  7
TextStyle03
  8
文字
  6
CONTINUOUS
 10
63.975
 20
125.25
  1
シリーズ：ＴＦ２ＦＫＬ
 40
5.0
 72
     5
 11
125.225
 21
125.25
  0
TEXT
  7
TextStyle03
  8
文字
  6
CONTINUOUS
 10
63.975
 20
119.625
  1
　　　　　（固定）1300×2000タイプ
 40
5.0
 72
     5
 11
158.975
 21
119.625
  0
TEXT
  7
TextStyle03
  8
文字
  6
CONTINUOUS
 10
63.975
 20
114.0
  1
図面名　：外観姿図
 40
5.0
 72
     5
 11
113.975
 21
114.0
  0
TEXT
  7
TextStyle03
  8
文字
  6
CONTINUOUS
 10
63.975
 20
108.375
  1
　　　　　　
 40
5.0
 72
     5
 11
97.1
 21
108.375
  0
LINE
  8
文字
  6
CONTINUOUS
 10
5.084893
 20
14.252537
 11
5.084893
 21
11.752537
  0
LINE
  8
文字
  6
CONTINUOUS
 10
4.251557
 20
14.252537
 11
4.251557
 21
11.752537
  0
LINE
  8
文字
  6
CONTINUOUS
 10
-29.081778
 20
14.252537
 11
-29.081778
 21
11.752537
  0
LINE
  8
文字
  6
CONTINUOUS
 10
-28.248442
 20
14.252537
 11
-28.248442
 21
11.752537
  0
LINE
  8
文字
  6
CONTINUOUS
 10
5.084893
 20
55.878893
 11
5.084893
 21
58.378893
  0
LINE
  8
文字
  6
CONTINUOUS
 10
4.251557
 20
55.878893
 11
4.251557
 21
58.378893
  0
LINE
  8
文字
  6
CONTINUOUS
 10
-29.081778
 20
55.878893
 11
-29.081778
 21
58.378893
  0
LINE
  8
文字
  6
CONTINUOUS
 10
-28.248442
 20
55.878893
 11
-28.248442
 21
58.378893
  0
LINE
  8
文字
  6
CONTINUOUS
 10
20.481352
 20
34.649048
 11
22.981352
 21
34.649048
  0
LINE
  8
文字
  6
CONTINUOUS
 10
20.481352
 20
35.482382
 11
22.981352
 21
35.482382
  0
LINE
  8
文字
  6
CONTINUOUS
 10
-44.478237
 20
34.649048
 11
-46.978237
 21
34.649048
  0
LINE
  8
文字
  6
CONTINUOUS
 10
-44.478237
 20
35.482382
 11
-46.978237
 21
35.482382
  0
INSERT
  2
*DIM_0002
  8
寸法
  6
CONTINUOUS
 10
0.0
 20
0.0
  0
INSERT
  2
*DIM_0003
  8
寸法
  6
CONTINUOUS
 10
0.0
 20
0.0
  0
INSERT
  2
*DIM_0004
  8
寸法
  6
CONTINUOUS
 10
0.0
 20
0.0
  0
INSERT
  2
*DIM_0005
  8
寸法
  6
CONTINUOUS
 10
0.0
 20
0.0
  0
INSERT
  2
*DIM_0006
  8
寸法
  6
CONTINUOUS
 10
0.0
 20
0.0
  0
INSERT
  2
*DIM_0007
  8
寸法
  6
CONTINUOUS
 10
0.0
 20
0.0
  0
INSERT
  2
*DIM_0008
  8
寸法
  6
CONTINUOUS
 10
0.0
 20
0.0
  0
INSERT
  2
*DIM_0009
  8
寸法
  6
CONTINUOUS
 10
0.0
 20
0.0
  0
INSERT
  2
*DIM_0010
  8
寸法
  6
CONTINUOUS
 10
0.0
 20
0.0
  0
INSERT
  2
*DIM_0011
  8
寸法
  6
CONTINUOUS
 10
0.0
 20
0.0
  0
INSERT
  2
*DIM_0012
  8
寸法
  6
CONTINUOUS
 10
0.0
 20
0.0
  0
LINE
  8
別途部材
  6
CONTINUOUS
 62
    47
 10
116.62043
 20
58.378793
 11
116.687097
 21
58.378793
  0
ARC
  8
別途部材
  6
CONTINUOUS
 62
    47
 10
116.620427
 20
58.278794
 40
0.1
 50
90.0
 51
180.0
  0
LINE
  8
別途部材
  6
CONTINUOUS
 62
    47
 10
116.52043
 20
58.278793
 11
116.52043
 21
58.222272
  0
LINE
  8
別途部材
  6
CONTINUOUS
 62
    47
 10
118.187097
 20
58.222272
 11
116.687097
 21
58.222272
  0
LINE
  8
別途部材
  6
CONTINUOUS
 62
    47
 10
116.62043
 20
11.752537
 11
116.687097
 21
11.752537
  0
ARC
  8
別途部材
  6
CONTINUOUS
 62
    47
 10
116.620427
 20
11.852536
 40
0.1
 50
180.0
 51
270.0
  0
LINE
  8
別途部材
  6
CONTINUOUS
 62
    47
 10
116.52043
 20
11.852537
 11
116.52043
 21
11.909058
  0
LINE
  8
別途部材
  6
CONTINUOUS
 62
    47
 10
118.187097
 20
11.909058
 11
116.687097
 21
11.909058
  0
LINE
  8
別途部材
  6
CONTINUOUS
 62
    47
 10
-46.978237
 20
-78.33267
 11
-46.978237
 21
-78.399338
  0
ARC
  8
別途部材
  6
CONTINUOUS
 62
    47
 10
-46.878239
 20
-78.332666
 40
0.1
 50
90.0
 51
180.0
  0
LINE
  8
別途部材
  6
CONTINUOUS
 62
    47
 10
-46.878237
 20
-78.23267
 11
-46.821715
 21
-78.23267
  0
LINE
  8
別途部材
  6
CONTINUOUS
 62
    47
 10
-46.821715
 20
-79.899338
 11
-46.821715
 21
-78.399338
  0
LINE
  8
別途部材
  6
CONTINUOUS
 62
    47
 10
22.981352
 20
-78.33267
 11
22.981352
 21
-78.399338
  0
ARC
  8
別途部材
  6
CONTINUOUS
 62
    47
 10
22.881352
 20
-78.332666
 40
0.1
 50
0.0
 51
90.0
  0
LINE
  8
別途部材
  6
CONTINUOUS
 62
    47
 10
22.881352
 20
-78.23267
 11
22.82483
 21
-78.23267
  0
LINE
  8
別途部材
  6
CONTINUOUS
 62
    47
 10
22.82483
 20
-79.899338
 11
22.82483
 21
-78.399338
  0
LINE
  8
曲げ物
  6
CONTINUOUS
 10
7.772437
 20
37.022003
 11
4.077125
 21
33.32669
  0
LINE
  8
曲げ物
  6
CONTINUOUS
 10
7.068967
 20
35.485893
 11
5.613237
 21
34.030163
  0
LINE
  8
曲げ物
  6
CONTINUOUS
 10
6.236327
 20
36.318533
 11
4.780597
 21
34.862803
  0
LINE
  8
曲げ物
  6
CONTINUOUS
 10
-25.730152
 20
37.022003
 11
-29.425465
 21
33.32669
  0
LINE
  8
曲げ物
  6
CONTINUOUS
 10
-26.433623
 20
35.485893
 11
-27.889353
 21
34.030163
  0
LINE
  8
曲げ物
  6
CONTINUOUS
 10
-27.266262
 20
36.318533
 11
-28.721993
 21
34.862803
  0
LINE
  8
曲げ物
  6
CONTINUOUS
 10
116.421445
 20
-92.533713
 11
116.421445
 21
-49.867045
  0
LINE
  8
曲げ物
  6
CONTINUOUS
 10
84.004777
 20
-49.867045
 11
84.004777
 21
-92.533713
  0
LINE
  8
曲げ物
  6
CONTINUOUS
 10
116.421445
 20
-49.867045
 11
84.004777
 21
-49.867045
  0
LINE
  8
曲げ物
  6
CONTINUOUS
 10
116.421445
 20
-92.533713
 11
84.004777
 21
-92.533713
  0
CIRCLE
  8
LAYER010
  6
CONTINUOUS
 62
    47
 10
119.3371
 20
59.732323
 40
0.011113
  0
CIRCLE
  8
LAYER010
  6
CONTINUOUS
 62
    47
 10
119.3371
 20
10.399007
 40
0.011113
  0
CIRCLE
  8
LAYER010
  6
CONTINUOUS
 62
    47
 10
-48.331768
 20
-81.04934
 40
0.011113
  0
CIRCLE
  8
LAYER010
  6
CONTINUOUS
 62
    47
 10
24.334882
 20
-81.04934
 40
0.011113
  0
ENDSEC
  0
EOF
