  0
SECTION
  2
HEADER
  9
$EXTMIN
 10
-210.0
 20
-148.5
  9
$EXTMAX
 10
210.0
 20
148.5
  9
$PDMODE
 70
    32
  9
$PDSIZE
 40
1.5
  9
$LTSCALE
 40
10.0
  0
ENDSEC
  0
SECTION
  2
TABLES
  0
TABLE
  2
LTYPE
 70
    15
  0
LTYPE
  2
CONTINUOUS
 70
    64
  3
実線
 72
    65
 73
     0
 40
0.0
  0
LTYPE
  2
DASHED
 70
    64
  3
破線A
 72
    65
 73
     2
 40
0.6
 49
0.4
 49
-0.2
  0
LTYPE
  2
DASHEDX2
 70
    64
  3
破線B
 72
    65
 73
     2
 40
1.3
 49
0.9
 49
-0.4
  0
LTYPE
  2
DASHDOT
 70
    64
  3
１点鎖線A
 72
    65
 73
     4
 40
0.5375
 49
0.375
 49
-0.05
 49
0.0625
 49
-0.05
  0
LTYPE
  2
DASHDOTX2
 70
    64
  3
１点鎖線B
 72
    65
 73
     4
 40
1.075
 49
0.75
 49
-0.1
 49
0.125
 49
-0.1
  0
LTYPE
  2
DIVIDE2
 70
    64
  3
２点鎖線A
 72
    65
 73
     6
 40
0.5125
 49
0.3
 49
-0.0375
 49
0.05
 49
-0.0375
 49
0.05
 49
-0.0375
  0
LTYPE
  2
DIVIDE
 70
    64
  3
２点鎖線B
 72
    65
 73
     6
 40
1.05
 49
0.55
 49
-0.1
 49
0.1
 49
-0.1
 49
0.1
 49
-0.1
  0
LTYPE
  2
DOT
 70
    64
  3
点線A
 72
    65
 73
     2
 40
0.1125
 49
0.0625
 49
-0.05
  0
LTYPE
  2
DOTX2
 70
    64
  3
点線B
 72
    65
 73
     2
 40
0.275
 49
0.15
 49
-0.125
  0
LTYPE
  2
CONTINUOUS
 70
    64
  3
実線
 72
    65
 73
     0
 40
0.0
  0
LTYPE
  2
CONTINUOUS
 70
    64
  3
実線
 72
    65
 73
     0
 40
0.0
  0
LTYPE
  2
CONTINUOUS
 70
    64
  3
実線
 72
    65
 73
     0
 40
0.0
  0
LTYPE
  2
CONTINUOUS
 70
    64
  3
実線
 72
    65
 73
     0
 40
0.0
  0
LTYPE
  2
CONTINUOUS
 70
    64
  3
実線
 72
    65
 73
     0
 40
0.0
  0
LTYPE
  2
CONTINUOUS
 70
    64
  3
実線
 72
    65
 73
     0
 40
0.0
  0
ENDTAB
  0
TABLE
  2
LAYER
 70
    35
  0
LAYER
  2
通り芯
 70
     0
 62
    15
  6
CONTINUOUS
  0
LAYER
  2
補助線
 70
     0
 62
    16
  6
DOT
  0
LAYER
  2
躯体
 70
     0
 62
    31
  6
CONTINUOUS
  0
LAYER
  2
型材
 70
     0
 62
    32
  6
CONTINUOUS
  0
LAYER
  2
型材断面
 70
     0
 62
    47
  6
CONTINUOUS
  0
LAYER
  2
ガラス
 70
     0
 62
    48
  6
CONTINUOUS
  0
LAYER
  2
ゴム等
 70
     0
 62
    63
  6
CONTINUOUS
  0
LAYER
  2
ボルト／ビス
 70
     0
 62
    64
  6
CONTINUOUS
  0
LAYER
  2
文字
 70
     0
 62
    79
  6
CONTINUOUS
  0
LAYER
  2
寸法
 70
     0
 62
    80
  6
CONTINUOUS
  0
LAYER
  2
ﾊｯﾁﾝｸﾞ
 70
     0
 62
    95
  6
CONTINUOUS
  0
LAYER
  2
別途部材
 70
     0
 62
    96
  6
CONTINUOUS
  0
LAYER
  2
曲げ物
 70
     0
 62
   111
  6
CONTINUOUS
  0
LAYER
  2
鉄骨等
 70
     0
 62
   112
  6
CONTINUOUS
  0
LAYER
  2
St
 70
     0
 62
   127
  6
CONTINUOUS
  0
LAYER
  2
その他部品等
 70
     0
 62
   128
  6
CONTINUOUS
  0
LAYER
  2
ｶﾞｽｹｯﾄ
 70
     0
 62
   143
  6
CONTINUOUS
  0
LAYER
  2
ｽｹｯﾁ
 70
     0
 62
    14
  6
CONTINUOUS
  0
LAYER
  2
0
 70
     0
 62
    17
  6
CONTINUOUS
  0
LAYER
  2
1
 70
     0
 62
    30
  6
CONTINUOUS
  0
LAYER
  2
4
 70
     0
 62
    33
  6
CONTINUOUS
  0
LAYER
  2
ﾚｲﾔ3
 70
     0
 62
    46
  6
CONTINUOUS
  0
LAYER
  2
外形線
 70
     0
 62
    49
  6
CONTINUOUS
  0
LAYER
  2
部品
 70
     0
 62
    14
  6
CONTINUOUS
  0
LAYER
  2
サッシ芯
 70
     0
 62
    17
  6
DASHDOTX2
  0
LAYER
  2
寸法線
 70
     0
 62
    62
  6
CONTINUOUS
  0
LAYER
  2
姿図外形線
 70
     0
 62
    65
  6
CONTINUOUS
  0
LAYER
  2
姿補助線
 70
     0
 62
    30
  6
CONTINUOUS
  0
LAYER
  2
透視線
 70
     0
 62
    78
  6
DOT
  0
LAYER
  2
用紙
 70
     0
 62
    81
  6
CONTINUOUS
  0
LAYER
  2
実線図枠
 70
     0
 62
    94
  6
CONTINUOUS
  0
LAYER
  2
補助図枠
 70
     0
 62
    97
  6
CONTINUOUS
  0
LAYER
  2
建具記号
 70
     0
 62
   110
  6
CONTINUOUS
  0
LAYER
  2
補助文字
 70
     0
 62
   113
  6
CONTINUOUS
  0
LAYER
  2
LAYER010
 70
     0
 62
    11
  6
CONTINUOUS
  0
ENDTAB
  0
TABLE
  2
STYLE
 70
    10
  0
STYLE
  2
STANDARD
 70
     0
 40
1.0
 41
1.0
 42
1.0
 50
0.0
 71
     0
  3
TXT
  4
BIGFONT
  0
STYLE
  2
TATE
 70
     4
 40
1.0
 41
1.0
 42
1.0
 50
0.0
 71
     0
  3
TXT
  4
BIGFONT
  0
STYLE
  2
TextStyle03
 70
     0
 40
1.0
 41
1.0
 42
1.0
 50
0.0
 71
     0
  3
MONOTXT
  4
BIGFONT
  0
STYLE
  2
TextStyle04
 70
     0
 40
1.0
 41
1.0
 42
1.0
 50
0.0
 71
     0
  3
MONOTXT
  4
BIGFONT
  0
STYLE
  2
TextStyle05
 70
     0
 40
1.0
 41
1.0
 42
1.0
 50
0.0
 71
     0
  3
MONOTXT
  4
BIGFONT
  0
STYLE
  2
TextStyle06
 70
     0
 40
1.0
 41
1.0
 42
1.0
 50
0.0
 71
     0
  3
MONOTXT
  4
BIGFONT
  0
STYLE
  2
TextStyle07
 70
     0
 40
1.0
 41
1.0
 42
1.0
 50
0.0
 71
     0
  3
MONOTXT
  4
BIGFONT
  0
STYLE
  2
TextStyle08
 70
     0
 40
1.0
 41
1.0
 42
1.0
 50
0.0
 71
     0
  3
MONOTXT
  4
BIGFONT
  0
STYLE
  2
TextStyle09
 70
     0
 40
1.0
 41
1.0
 42
1.0
 50
0.0
 71
     0
  3
MONOTXT
  4
BIGFONT
  0
STYLE
  2
TextStyle10
 70
     0
 40
1.0
 41
1.0
 42
1.0
 50
0.0
 71
     0
  3
MONOTXT
  4
BIGFONT
  0
ENDTAB
  0
ENDSEC
  0
SECTION
  2
BLOCKS
  0
BLOCK
  2
*GRP_0001
 70
    65
 10
0.0
 20
0.0
  0
LINE
  8
型材断面
  6
CONTINUOUS
 10
195.0
 20
133.5
 11
195.0
 21
-133.5
  0
LINE
  8
型材断面
  6
CONTINUOUS
 10
195.0
 20
-133.5
 11
-185.0
 21
-133.5
  0
LINE
  8
型材断面
  6
CONTINUOUS
 10
-185.0
 20
-133.5
 11
-185.0
 21
133.5
  0
LINE
  8
型材断面
  6
CONTINUOUS
 10
195.0
 20
133.5
 11
-185.0
 21
133.5
  0
LINE
  8
型材断面
  6
CONTINUOUS
 10
145.0
 20
-133.5
 11
145.0
 21
-118.5
  0
LINE
  8
型材断面
  6
CONTINUOUS
 10
195.0
 20
-118.5
 11
145.0
 21
-118.5
  0
ENDBLK
  0
BLOCK
  2
*DIM_0002
 70
    65
 10
0.0
 20
0.0
  0
LINE
  8
寸法
  6
BYBLOCK
 62
     0
 10
21.33489
 20
-22.536362
 11
-111.998442
 21
-22.536362
  0
POINT
  8
寸法
 62
     0
 10
21.33489
 20
-22.536362
  0
POINT
  8
寸法
 62
     0
 10
-111.998442
 20
-22.536362
  0
TEXT
  7
TextStyle03
  8
寸法
  6
CONTINUOUS
 62
     0
 10
-57.04375
 20
-22.175
  1
呼称寸法　4000
 40
3.0
 72
     5
 11
-33.60625
 21
-22.175
  0
ENDBLK
  0
BLOCK
  2
*DIM_0003
 70
    65
 10
0.0
 20
0.0
  0
LINE
  8
寸法
  6
BYBLOCK
 62
     0
 10
-95.331775
 20
9.76892
 11
-95.331775
 21
4.873685
  0
LINE
  8
寸法
  6
BYBLOCK
 62
     0
 10
4.66822
 20
9.76892
 11
4.66822
 21
4.873685
  0
LINE
  8
寸法
  6
BYBLOCK
 62
     0
 10
-95.331775
 20
4.873685
 11
4.66822
 21
4.873685
  0
POINT
  8
寸法
 62
     0
 10
-95.331775
 20
4.873685
  0
POINT
  8
寸法
 62
     0
 10
4.66822
 20
4.873685
  0
TEXT
  7
TextStyle03
  8
寸法
  6
CONTINUOUS
 62
     0
 10
-48.63125
 20
5.225
  1
3000
 40
3.0
 72
     5
 11
-42.06875
 21
5.225
  0
ENDBLK
  0
BLOCK
  2
*DIM_0004
 70
    65
 10
0.0
 20
0.0
  0
LINE
  8
寸法
  6
BYBLOCK
 62
     0
 10
24.334935
 20
-78.991382
 11
24.334935
 21
-22.536362
  0
LINE
  8
寸法
  6
BYBLOCK
 62
     0
 10
21.33489
 20
-22.536362
 11
24.334935
 21
-22.536362
  0
POINT
  8
寸法
 62
     0
 10
21.33489
 20
-22.536362
  0
POINT
  8
寸法
 62
     0
 10
24.334935
 20
-22.536362
  0
TEXT
  7
TextStyle03
  8
寸法
  6
CONTINUOUS
 62
     0
 10
21.23125
 20
-22.175
  1
90
 40
3.0
 72
     5
 11
24.41875
 21
-22.175
  0
ENDBLK
  0
BLOCK
  2
*DIM_0005
 70
    65
 10
0.0
 20
0.0
  0
LINE
  8
寸法
  6
BYBLOCK
 62
     0
 10
-114.99849
 20
-78.991382
 11
-114.99849
 21
-22.536362
  0
LINE
  8
寸法
  6
BYBLOCK
 62
     0
 10
-111.998445
 20
-22.536362
 11
-114.99849
 21
-22.536362
  0
POINT
  8
寸法
 62
     0
 10
-111.998445
 20
-22.536362
  0
POINT
  8
寸法
 62
     0
 10
-114.99849
 20
-22.536362
  0
TEXT
  7
TextStyle03
  8
寸法
  6
CONTINUOUS
 62
     0
 10
-115.09375
 20
-22.175
  1
90
 40
3.0
 72
     5
 11
-111.90625
 21
-22.175
  0
ENDBLK
  0
BLOCK
  2
*DIM_0006
 70
    65
 10
0.0
 20
0.0
  0
LINE
  8
寸法
  6
BYBLOCK
 62
     0
 10
117.421445
 20
-49.867045
 11
125.856293
 21
-49.867045
  0
LINE
  8
寸法
  6
BYBLOCK
 62
     0
 10
117.421445
 20
-92.533713
 11
125.856293
 21
-92.533713
  0
LINE
  8
寸法
  6
BYBLOCK
 62
     0
 10
125.856293
 20
-49.867045
 11
125.856293
 21
-92.533713
  0
POINT
  8
寸法
 62
     0
 10
125.856293
 20
-49.867045
  0
POINT
  8
寸法
 62
     0
 10
125.856293
 20
-92.533713
  0
TEXT
  7
TextStyle03
  8
寸法
  6
CONTINUOUS
 62
     0
 10
125.525
 20
-74.48125
  1
1280
 40
3.0
 50
90.0
 72
     5
 11
125.525
 21
-67.91875
  0
ENDBLK
  0
BLOCK
  2
*DIM_0007
 70
    65
 10
0.0
 20
0.0
  0
LINE
  8
寸法
  6
BYBLOCK
 62
     0
 10
-114.998442
 20
23.399048
 11
-143.943607
 21
23.399048
  0
LINE
  8
寸法
  6
BYBLOCK
 62
     0
 10
-114.998442
 20
46.732382
 11
-143.943607
 21
46.732382
  0
LINE
  8
寸法
  6
BYBLOCK
 62
     0
 10
-143.943607
 20
23.399048
 11
-143.943607
 21
46.732382
  0
POINT
  8
寸法
 62
     0
 10
-143.943607
 20
23.399048
  0
POINT
  8
寸法
 62
     0
 10
-143.943607
 20
46.732382
  0
TEXT
  7
TextStyle03
  8
寸法
  6
CONTINUOUS
 62
     0
 10
-144.275
 20
32.6125
  1
700
 40
3.0
 50
90.0
 72
     5
 11
-144.275
 21
37.4875
  0
ENDBLK
  0
BLOCK
  2
*DIM_0008
 70
    65
 10
0.0
 20
0.0
  0
LINE
  8
寸法
  6
BYBLOCK
 62
     0
 10
-103.66511
 20
59.73238
 11
-103.66511
 21
88.840452
  0
LINE
  8
寸法
  6
BYBLOCK
 62
     0
 10
-80.331778
 20
59.73238
 11
-80.331778
 21
88.840452
  0
LINE
  8
寸法
  6
BYBLOCK
 62
     0
 10
-103.66511
 20
88.840452
 11
-80.331778
 21
88.840452
  0
POINT
  8
寸法
 62
     0
 10
-103.66511
 20
88.840452
  0
POINT
  8
寸法
 62
     0
 10
-80.331778
 20
88.840452
  0
TEXT
  7
TextStyle03
  8
寸法
  6
CONTINUOUS
 62
     0
 10
-94.4375
 20
89.2
  1
700
 40
3.0
 72
     5
 11
-89.5625
 21
89.2
  0
ENDBLK
  0
BLOCK
  2
*DIM_0009
 70
    65
 10
0.0
 20
0.0
  0
LINE
  8
寸法
  6
BYBLOCK
 62
     0
 10
-56.998445
 20
59.73238
 11
-56.998445
 21
88.840452
  0
LINE
  8
寸法
  6
BYBLOCK
 62
     0
 10
-80.331778
 20
88.840452
 11
-56.998445
 21
88.840452
  0
POINT
  8
寸法
 62
     0
 10
-56.998445
 20
88.840452
  0
TEXT
  7
TextStyle03
  8
寸法
  6
CONTINUOUS
 62
     0
 10
-71.1125
 20
89.2
  1
700
 40
3.0
 72
     5
 11
-66.2375
 21
89.2
  0
ENDBLK
  0
BLOCK
  2
*DIM_0010
 70
    65
 10
0.0
 20
0.0
  0
LINE
  8
寸法
  6
BYBLOCK
 62
     0
 10
-33.66511
 20
59.73238
 11
-33.66511
 21
88.840452
  0
LINE
  8
寸法
  6
BYBLOCK
 62
     0
 10
-56.998445
 20
88.840452
 11
-33.66511
 21
88.840452
  0
POINT
  8
寸法
 62
     0
 10
-33.66511
 20
88.840452
  0
TEXT
  7
TextStyle03
  8
寸法
  6
CONTINUOUS
 62
     0
 10
-47.7875
 20
89.2
  1
700
 40
3.0
 72
     5
 11
-42.9125
 21
89.2
  0
ENDBLK
  0
BLOCK
  2
*DIM_0011
 70
    65
 10
0.0
 20
0.0
  0
LINE
  8
寸法
  6
BYBLOCK
 62
     0
 10
-10.331778
 20
59.73238
 11
-10.331778
 21
88.840452
  0
LINE
  8
寸法
  6
BYBLOCK
 62
     0
 10
-33.66511
 20
88.840452
 11
-10.331778
 21
88.840452
  0
POINT
  8
寸法
 62
     0
 10
-10.331778
 20
88.840452
  0
TEXT
  7
TextStyle03
  8
寸法
  6
CONTINUOUS
 62
     0
 10
-24.4375
 20
89.2
  1
700
 40
3.0
 72
     5
 11
-19.5625
 21
89.2
  0
ENDBLK
  0
BLOCK
  2
*DIM_0012
 70
    65
 10
0.0
 20
0.0
  0
LINE
  8
寸法
  6
BYBLOCK
 62
     0
 10
13.001555
 20
59.73238
 11
13.001555
 21
88.840452
  0
LINE
  8
寸法
  6
BYBLOCK
 62
     0
 10
-10.331778
 20
88.840452
 11
13.001555
 21
88.840452
  0
POINT
  8
寸法
 62
     0
 10
13.001555
 20
88.840452
  0
TEXT
  7
TextStyle03
  8
寸法
  6
CONTINUOUS
 62
     0
 10
-1.1125
 20
89.2
  1
700
 40
3.0
 72
     5
 11
3.7625
 21
89.2
  0
ENDBLK
  0
BLOCK
  2
*DIM_0013
 70
    65
 10
0.0
 20
0.0
  0
LINE
  8
寸法
  6
CONTINUOUS
 10
112.030163
 20
70.37154
 11
115.34683
 21
70.37154
  0
POINT
  8
寸法
 10
112.030163
 20
70.37154
  0
POINT
  8
寸法
 10
115.34683
 20
70.37154
  0
TEXT
  7
TextStyle03
  8
寸法
  6
CONTINUOUS
 10
110.16875
 20
70.55
  1
99.5
 40
3.0
 72
     5
 11
116.73125
 21
70.55
  0
ENDBLK
  0
BLOCK
  2
*DIM_0014
 70
    65
 10
0.0
 20
0.0
  0
LINE
  8
寸法
  6
CONTINUOUS
 10
34.9741
 20
-77.54646
 11
34.9741
 21
-80.863127
  0
POINT
  8
寸法
 10
34.9741
 20
-77.54646
  0
POINT
  8
寸法
 10
34.9741
 20
-80.863127
  0
TEXT
  7
TextStyle03
  8
寸法
  6
CONTINUOUS
 10
38.125
 20
-82.38125
  1
99.5
 40
3.0
 50
90.0
 72
     5
 11
38.125
 21
-75.81875
  0
ENDBLK
  0
BLOCK
  2
*DIM_0015
 70
    65
 10
0.0
 20
0.0
  0
LINE
  8
寸法
  6
CONTINUOUS
 10
116.421445
 20
-42.31487
 11
84.128112
 21
-42.31487
  0
POINT
  8
寸法
 10
116.421445
 20
-42.31487
  0
POINT
  8
寸法
 10
84.128112
 20
-42.31487
  0
TEXT
  7
TextStyle03
  8
寸法
  6
CONTINUOUS
 10
96.125
 20
-41.95
  1
968.8
 40
3.0
 72
     5
 11
104.375
 21
-41.95
  0
ENDBLK
  0
ENDSEC
  0
SECTION
  2
ENTITIES
  0
POLYLINE
  8
通り芯
  6
CONTINUOUS
 66
     1
 70
     1
  0
VERTEX
  8
通り芯
 10
-210.0
 20
-148.5
  0
VERTEX
  8
通り芯
 10
210.0
 20
-148.5
  0
VERTEX
  8
通り芯
 10
210.0
 20
148.5
  0
VERTEX
  8
通り芯
 10
-210.0
 20
148.5
  0
SEQEND
  0
INSERT
  2
*GRP_0001
  8
型材断面
  6
CONTINUOUS
 10
0.0
 20
0.0
  0
LINE
  8
型材断面
  6
DASHDOT
 10
21.33489
 20
-87.251428
 11
21.33489
 21
56.73238
  0
LINE
  8
型材断面
  6
DASHDOT
 10
-45.331778
 20
-87.251428
 11
-45.331778
 21
56.73238
  0
LINE
  8
型材断面
  6
DASHDOT
 10
-111.998442
 20
-87.251428
 11
-111.998442
 21
56.73238
  0
LINE
  8
型材断面
  6
CONTINUOUS
 10
-114.628572
 20
35.065715
 11
-117.21908
 21
36.561345
  0
LINE
  8
型材断面
  6
CONTINUOUS
 10
-114.628572
 20
35.065715
 11
-117.21908
 21
33.570085
  0
LINE
  8
型材断面
  6
CONTINUOUS
 10
-117.21908
 20
33.570085
 11
-117.21908
 21
36.561345
  0
LINE
  8
型材断面
  6
CONTINUOUS
 10
-95.331775
 20
59.36251
 11
-96.827405
 21
61.953017
  0
LINE
  8
型材断面
  6
CONTINUOUS
 10
-95.331775
 20
59.36251
 11
-93.836145
 21
61.953017
  0
LINE
  8
型材断面
  6
CONTINUOUS
 10
-93.836145
 20
61.953017
 11
-96.827405
 21
61.953017
  0
LINE
  8
型材断面
  6
CONTINUOUS
 10
-152.85065
 20
101.239727
 11
-154.34628
 21
98.64922
  0
LINE
  8
型材断面
  6
CONTINUOUS
 10
-152.85065
 20
101.239727
 11
-151.35502
 21
98.64922
  0
LINE
  8
型材断面
  6
CONTINUOUS
 10
-151.35502
 20
98.64922
 11
-154.34628
 21
98.64922
  0
LINE
  8
型材断面
  6
CONTINUOUS
 10
-158.873237
 20
97.710625
 11
-112.63146
 21
97.710625
  0
LINE
  8
型材断面
  6
CONTINUOUS
 10
-95.331775
 20
10.76892
 11
-96.827405
 21
8.178413
  0
LINE
  8
型材断面
  6
CONTINUOUS
 10
-95.331775
 20
10.76892
 11
-93.836145
 21
8.178413
  0
LINE
  8
型材断面
  6
CONTINUOUS
 10
-93.836145
 20
8.178413
 11
-96.827405
 21
8.178413
  0
LINE
  8
型材断面
  6
CONTINUOUS
 10
23.965018
 20
35.065715
 11
26.555525
 21
36.561345
  0
LINE
  8
型材断面
  6
CONTINUOUS
 10
23.965018
 20
35.065715
 11
26.555525
 21
33.570085
  0
LINE
  8
型材断面
  6
CONTINUOUS
 10
26.555525
 20
33.570085
 11
26.555525
 21
36.561345
  0
LINE
  8
型材断面
  6
CONTINUOUS
 10
4.66822
 20
59.36251
 11
6.16385
 21
61.953017
  0
LINE
  8
型材断面
  6
CONTINUOUS
 10
4.66822
 20
59.36251
 11
3.17259
 21
61.953017
  0
LINE
  8
型材断面
  6
CONTINUOUS
 10
3.17259
 20
61.953017
 11
6.16385
 21
61.953017
  0
LINE
  8
型材断面
  6
CONTINUOUS
 10
4.66822
 20
10.76892
 11
6.16385
 21
8.178413
  0
LINE
  8
型材断面
  6
CONTINUOUS
 10
4.66822
 20
10.76892
 11
3.17259
 21
8.178413
  0
LINE
  8
型材断面
  6
CONTINUOUS
 10
3.17259
 20
8.178413
 11
6.16385
 21
8.178413
  0
LINE
  8
型材断面
  6
CONTINUOUS
 10
-158.873237
 20
91.607975
 11
-112.63146
 21
91.607975
  0
LINE
  8
型材断面
  6
CONTINUOUS
 10
-114.99849
 20
10.399007
 11
-45.331778
 21
10.399007
  0
LINE
  8
型材断面
  6
CONTINUOUS
 10
24.334935
 20
10.399007
 11
-45.331778
 21
10.399007
  0
LINE
  8
型材断面
  6
CONTINUOUS
 10
24.334935
 20
59.732423
 11
-45.331778
 21
59.732423
  0
LINE
  8
型材断面
  6
CONTINUOUS
 10
-114.99849
 20
59.732423
 11
-45.331778
 21
59.732423
  0
CIRCLE
  8
型材断面
  6
CONTINUOUS
 62
    47
 10
114.846832
 20
59.732323
 40
0.011113
  0
LINE
  8
型材断面
  6
CONTINUOUS
 62
    47
 10
115.34683
 20
59.232332
 11
115.34683
 21
59.732323
  0
LINE
  8
型材断面
  6
CONTINUOUS
 62
    47
 10
115.34683
 20
59.732323
 11
114.846832
 21
59.732323
  0
LINE
  8
型材断面
  6
CONTINUOUS
 62
    47
 10
114.846832
 20
59.732323
 11
114.349653
 21
56.798992
  0
LINE
  8
型材断面
  6
CONTINUOUS
 62
    47
 10
115.34683
 20
59.232332
 11
115.84683
 21
59.232332
  0
LINE
  8
型材断面
  6
CONTINUOUS
 62
    47
 10
114.349653
 20
56.798992
 11
113.69683
 21
56.798992
  0
CIRCLE
  8
型材断面
  6
CONTINUOUS
 62
    47
 10
114.846832
 20
10.399007
 40
0.011113
  0
LINE
  8
型材断面
  6
CONTINUOUS
 62
    47
 10
115.34683
 20
10.898998
 11
115.34683
 21
10.399007
  0
LINE
  8
型材断面
  6
CONTINUOUS
 62
    47
 10
115.34683
 20
10.399007
 11
114.846832
 21
10.399007
  0
LINE
  8
型材断面
  6
CONTINUOUS
 62
    47
 10
114.846832
 20
10.399007
 11
114.349653
 21
13.332337
  0
LINE
  8
型材断面
  6
CONTINUOUS
 62
    47
 10
115.34683
 20
10.898998
 11
115.84683
 21
10.898998
  0
LINE
  8
型材断面
  6
CONTINUOUS
 62
    47
 10
114.349653
 20
13.332337
 11
113.69683
 21
13.332337
  0
LINE
  8
型材断面
  6
CONTINUOUS
 62
    47
 10
112.19683
 20
11.752537
 11
112.19683
 21
35.065665
  0
LINE
  8
型材断面
  6
CONTINUOUS
 62
    47
 10
112.030163
 20
11.909058
 11
112.030163
 21
35.065665
  0
LINE
  8
型材断面
  6
CONTINUOUS
 62
    47
 10
113.69683
 20
11.909058
 11
113.69683
 21
35.065665
  0
LINE
  8
型材断面
  6
CONTINUOUS
 10
114.349653
 20
13.332285
 11
114.349653
 21
35.065665
  0
LINE
  8
型材断面
  6
CONTINUOUS
 10
114.846835
 20
10.398953
 11
114.846835
 21
35.065665
  0
LINE
  8
型材断面
  6
CONTINUOUS
 62
    47
 10
115.34683
 20
10.398953
 11
115.34683
 21
35.065665
  0
LINE
  8
型材断面
  6
CONTINUOUS
 10
115.84683
 20
10.898942
 11
115.84683
 21
35.065665
  0
LINE
  8
型材断面
  6
CONTINUOUS
 62
    47
 10
115.34683
 20
59.732378
 11
115.34683
 21
35.065665
  0
LINE
  8
型材断面
  6
CONTINUOUS
 10
114.349653
 20
56.799045
 11
114.349653
 21
35.065665
  0
LINE
  8
型材断面
  6
CONTINUOUS
 62
    47
 10
112.19683
 20
58.378793
 11
112.19683
 21
35.065665
  0
LINE
  8
型材断面
  6
CONTINUOUS
 62
    47
 10
112.030163
 20
58.222272
 11
112.030163
 21
35.065665
  0
LINE
  8
型材断面
  6
CONTINUOUS
 62
    47
 10
113.69683
 20
58.222272
 11
113.69683
 21
35.065665
  0
LINE
  8
型材断面
  6
CONTINUOUS
 10
114.846835
 20
59.732378
 11
114.846835
 21
35.065665
  0
LINE
  8
型材断面
  6
CONTINUOUS
 10
115.84683
 20
59.232388
 11
115.84683
 21
35.065665
  0
LINE
  8
型材断面
  6
DASHDOT
 10
-111.998442
 20
35.065715
 11
122.82284
 21
35.065715
  0
CIRCLE
  8
型材断面
  6
CONTINUOUS
 62
    47
 10
-114.998435
 20
-80.36313
 40
0.011113
  0
LINE
  8
型材断面
  6
CONTINUOUS
 62
    47
 10
-114.498442
 20
-80.863127
 11
-114.998435
 21
-80.863127
  0
LINE
  8
型材断面
  6
CONTINUOUS
 62
    47
 10
-114.998435
 20
-80.863127
 11
-114.998435
 21
-80.36313
  0
LINE
  8
型材断面
  6
CONTINUOUS
 62
    47
 10
-114.998435
 20
-80.36313
 11
-112.065103
 21
-79.86595
  0
LINE
  8
型材断面
  6
CONTINUOUS
 62
    47
 10
-114.498442
 20
-80.863127
 11
-114.498442
 21
-81.363127
  0
LINE
  8
型材断面
  6
CONTINUOUS
 62
    47
 10
-112.065103
 20
-79.86595
 11
-112.065103
 21
-79.213127
  0
CIRCLE
  8
型材断面
  6
CONTINUOUS
 62
    47
 10
24.334882
 20
-80.36313
 40
0.011113
  0
LINE
  8
型材断面
  6
CONTINUOUS
 62
    47
 10
23.83489
 20
-80.863127
 11
24.334882
 21
-80.863127
  0
LINE
  8
型材断面
  6
CONTINUOUS
 62
    47
 10
24.334882
 20
-80.863127
 11
24.334882
 21
-80.36313
  0
LINE
  8
型材断面
  6
CONTINUOUS
 62
    47
 10
24.334882
 20
-80.36313
 11
21.40155
 21
-79.86595
  0
LINE
  8
型材断面
  6
CONTINUOUS
 62
    47
 10
23.83489
 20
-80.863127
 11
23.83489
 21
-81.363127
  0
LINE
  8
型材断面
  6
CONTINUOUS
 62
    47
 10
21.40155
 20
-79.86595
 11
21.40155
 21
-79.213127
  0
LINE
  8
型材断面
  6
CONTINUOUS
 62
    47
 10
-113.488382
 20
-79.213127
 11
-45.331775
 21
-79.213127
  0
LINE
  8
型材断面
  6
CONTINUOUS
 62
    47
 10
-113.488382
 20
-77.54646
 11
-45.331775
 21
-77.54646
  0
LINE
  8
型材断面
  6
CONTINUOUS
 62
    47
 10
-113.644905
 20
-77.713127
 11
-45.331775
 21
-77.713127
  0
LINE
  8
型材断面
  6
CONTINUOUS
 10
-112.065155
 20
-79.86595
 11
-45.331775
 21
-79.86595
  0
LINE
  8
型材断面
  6
CONTINUOUS
 62
    47
 10
-114.998488
 20
-80.863127
 11
-45.331775
 21
-80.863127
  0
LINE
  8
型材断面
  6
CONTINUOUS
 10
-114.998488
 20
-80.363133
 11
-45.331775
 21
-80.363133
  0
LINE
  8
型材断面
  6
CONTINUOUS
 10
-114.498498
 20
-81.363127
 11
-45.331775
 21
-81.363127
  0
LINE
  8
型材断面
  6
CONTINUOUS
 10
23.834945
 20
-81.363127
 11
-45.331775
 21
-81.363127
  0
LINE
  8
型材断面
  6
CONTINUOUS
 62
    47
 10
24.334935
 20
-80.863127
 11
-45.331775
 21
-80.863127
  0
LINE
  8
型材断面
  6
CONTINUOUS
 62
    47
 10
22.981352
 20
-77.713127
 11
-45.331775
 21
-77.713127
  0
LINE
  8
型材断面
  6
CONTINUOUS
 62
    47
 10
22.82483
 20
-77.54646
 11
-45.331775
 21
-77.54646
  0
LINE
  8
型材断面
  6
CONTINUOUS
 62
    47
 10
22.82483
 20
-79.213127
 11
-45.331775
 21
-79.213127
  0
LINE
  8
型材断面
  6
CONTINUOUS
 10
21.401605
 20
-79.86595
 11
-45.331775
 21
-79.86595
  0
LINE
  8
型材断面
  6
CONTINUOUS
 10
24.334935
 20
-80.363133
 11
-45.331775
 21
-80.363133
  0
LINE
  8
型材断面
  6
DASHDOT
 10
122.82284
 20
13.398998
 11
-111.998442
 21
13.398998
  0
LINE
  8
型材断面
  6
DASHDOT
 10
122.82284
 20
56.732332
 11
-111.998442
 21
56.732332
  0
LINE
  8
型材断面
  6
DASHDOT
 10
-78.790107
 20
13.399048
 11
-78.790107
 21
56.73238
  0
LINE
  8
型材断面
  6
DASHDOT
 10
-45.331778
 20
13.399048
 11
-45.331778
 21
56.73238
  0
LINE
  8
型材断面
  6
DASHDOT
 10
-11.873448
 20
13.399048
 11
-11.873448
 21
56.73238
  0
LINE
  8
型材断面
  6
CONTINUOUS
 10
5.14739
 20
14.252537
 11
5.14739
 21
11.752537
  0
LINE
  8
型材断面
  6
CONTINUOUS
 10
4.314055
 20
14.252537
 11
4.314055
 21
11.752537
  0
LINE
  8
型材断面
  6
CONTINUOUS
 10
-28.185945
 20
14.252537
 11
-28.185945
 21
11.752537
  0
LINE
  8
型材断面
  6
CONTINUOUS
 10
-29.01928
 20
14.252537
 11
-29.01928
 21
11.752537
  0
LINE
  8
型材断面
  6
CONTINUOUS
 10
-95.810945
 20
14.252537
 11
-95.810945
 21
11.752537
  0
LINE
  8
型材断面
  6
CONTINUOUS
 10
-94.97761
 20
14.252537
 11
-94.97761
 21
11.752537
  0
LINE
  8
型材断面
  6
CONTINUOUS
 10
-62.47761
 20
14.252537
 11
-62.47761
 21
11.752537
  0
LINE
  8
型材断面
  6
CONTINUOUS
 10
-61.644275
 20
14.252537
 11
-61.644275
 21
11.752537
  0
LINE
  8
型材断面
  6
CONTINUOUS
 10
5.14739
 20
55.878893
 11
5.14739
 21
58.378893
  0
LINE
  8
型材断面
  6
CONTINUOUS
 10
4.314055
 20
55.878893
 11
4.314055
 21
58.378893
  0
LINE
  8
型材断面
  6
CONTINUOUS
 10
-28.185945
 20
55.878893
 11
-28.185945
 21
58.378893
  0
LINE
  8
型材断面
  6
CONTINUOUS
 10
-29.01928
 20
55.878893
 11
-29.01928
 21
58.378893
  0
LINE
  8
型材断面
  6
CONTINUOUS
 10
-95.810945
 20
55.878893
 11
-95.810945
 21
58.378893
  0
LINE
  8
型材断面
  6
CONTINUOUS
 10
-94.97761
 20
55.878893
 11
-94.97761
 21
58.378893
  0
LINE
  8
型材断面
  6
CONTINUOUS
 10
-62.47761
 20
55.878893
 11
-62.47761
 21
58.378893
  0
LINE
  8
型材断面
  6
CONTINUOUS
 10
-61.644275
 20
55.878893
 11
-61.644275
 21
58.378893
  0
LINE
  8
型材断面
  6
CONTINUOUS
 10
-28.185945
 20
55.878893
 11
4.314055
 21
55.878893
  0
LINE
  8
型材断面
  6
CONTINUOUS
 10
-28.185945
 20
14.252537
 11
4.314055
 21
14.252537
  0
LINE
  8
型材断面
  6
CONTINUOUS
 10
-61.644275
 20
14.252537
 11
-29.01928
 21
14.252537
  0
LINE
  8
型材断面
  6
CONTINUOUS
 10
-61.644275
 20
55.878893
 11
-29.01928
 21
55.878893
  0
LINE
  8
型材断面
  6
CONTINUOUS
 10
-94.97761
 20
55.878893
 11
-62.47761
 21
55.878893
  0
LINE
  8
型材断面
  6
CONTINUOUS
 10
-94.97761
 20
14.252537
 11
-62.47761
 21
14.252537
  0
LINE
  8
型材断面
  6
CONTINUOUS
 10
-10.623448
 20
55.04556
 11
-13.123448
 21
55.04556
  0
LINE
  8
型材断面
  6
CONTINUOUS
 10
-10.623448
 20
15.08587
 11
-13.123448
 21
15.08587
  0
LINE
  8
型材断面
  6
CONTINUOUS
 10
-10.623448
 20
55.04556
 11
-10.623448
 21
15.08587
  0
LINE
  8
型材断面
  6
CONTINUOUS
 10
-13.123448
 20
55.04556
 11
-13.123448
 21
15.08587
  0
LINE
  8
型材断面
  6
CONTINUOUS
 10
-44.081778
 20
55.04556
 11
-46.581778
 21
55.04556
  0
LINE
  8
型材断面
  6
CONTINUOUS
 10
-44.081778
 20
15.08587
 11
-46.581778
 21
15.08587
  0
LINE
  8
型材断面
  6
CONTINUOUS
 10
-44.081778
 20
55.04556
 11
-44.081778
 21
15.08587
  0
LINE
  8
型材断面
  6
CONTINUOUS
 10
-46.581778
 20
55.04556
 11
-46.581778
 21
15.08587
  0
LINE
  8
型材断面
  6
CONTINUOUS
 10
-77.540107
 20
55.04556
 11
-80.040107
 21
55.04556
  0
LINE
  8
型材断面
  6
CONTINUOUS
 10
-77.540107
 20
15.08587
 11
-80.040107
 21
15.08587
  0
LINE
  8
型材断面
  6
CONTINUOUS
 10
-77.540107
 20
55.04556
 11
-77.540107
 21
15.08587
  0
LINE
  8
型材断面
  6
CONTINUOUS
 10
-80.040107
 20
55.04556
 11
-80.040107
 21
15.08587
  0
LINE
  8
型材断面
  6
CONTINUOUS
 10
24.334937
 20
35.06571
 11
24.334937
 21
59.732423
  0
LINE
  8
型材断面
  6
CONTINUOUS
 10
24.334937
 20
35.06572
 11
24.334937
 21
10.399007
  0
LINE
  8
型材断面
  6
CONTINUOUS
 10
22.745652
 20
11.752537
 11
22.981352
 21
11.988237
  0
LINE
  8
型材断面
  6
CONTINUOUS
 10
24.334937
 20
10.399007
 11
22.86353
 21
11.870415
  0
LINE
  8
型材断面
  6
CONTINUOUS
 10
22.981352
 20
11.988237
 11
20.481352
 21
14.488237
  0
LINE
  8
型材断面
  6
CONTINUOUS
 10
22.745652
 20
11.752537
 11
20.245652
 21
14.252537
  0
LINE
  8
型材断面
  6
CONTINUOUS
 10
20.245652
 20
14.252537
 11
20.481352
 21
14.488237
  0
LINE
  8
型材断面
  6
CONTINUOUS
 10
20.481352
 20
34.649048
 11
20.481352
 21
14.488237
  0
LINE
  8
型材断面
  6
CONTINUOUS
 10
22.745652
 20
58.378893
 11
22.981352
 21
58.143193
  0
LINE
  8
型材断面
  6
CONTINUOUS
 10
24.334937
 20
59.732423
 11
22.86353
 21
58.261015
  0
LINE
  8
型材断面
  6
CONTINUOUS
 10
22.745652
 20
58.378893
 11
20.245652
 21
55.878893
  0
LINE
  8
型材断面
  6
CONTINUOUS
 10
20.245652
 20
55.878893
 11
20.481352
 21
55.643193
  0
LINE
  8
型材断面
  6
CONTINUOUS
 10
20.481352
 20
55.643193
 11
22.981352
 21
58.143193
  0
LINE
  8
型材断面
  6
CONTINUOUS
 10
22.981352
 20
11.988237
 11
22.981352
 21
58.143193
  0
LINE
  8
型材断面
  6
CONTINUOUS
 10
20.481352
 20
35.482382
 11
20.481352
 21
55.643193
  0
LINE
  8
型材断面
  6
CONTINUOUS
 10
5.14739
 20
55.878893
 11
20.245652
 21
55.878893
  0
LINE
  8
型材断面
  6
CONTINUOUS
 10
5.14739
 20
14.252537
 11
20.245652
 21
14.252537
  0
LINE
  8
型材断面
  6
CONTINUOUS
 10
-114.998492
 20
35.06571
 11
-114.998492
 21
59.732423
  0
LINE
  8
型材断面
  6
CONTINUOUS
 10
-114.998492
 20
35.06572
 11
-114.998492
 21
10.399007
  0
LINE
  8
型材断面
  6
CONTINUOUS
 10
-113.409207
 20
11.752537
 11
-113.644908
 21
11.988237
  0
LINE
  8
型材断面
  6
CONTINUOUS
 10
-114.998492
 20
10.399007
 11
-113.527085
 21
11.870415
  0
LINE
  8
型材断面
  6
CONTINUOUS
 10
-113.644908
 20
11.988237
 11
-111.144908
 21
14.488237
  0
LINE
  8
型材断面
  6
CONTINUOUS
 10
-113.409207
 20
11.752537
 11
-110.909207
 21
14.252537
  0
LINE
  8
型材断面
  6
CONTINUOUS
 10
-110.909207
 20
14.252537
 11
-111.144908
 21
14.488237
  0
LINE
  8
型材断面
  6
CONTINUOUS
 10
-111.144908
 20
34.649048
 11
-111.144908
 21
14.488237
  0
LINE
  8
型材断面
  6
CONTINUOUS
 10
-113.409207
 20
58.378893
 11
-113.644908
 21
58.143193
  0
LINE
  8
型材断面
  6
CONTINUOUS
 10
-114.998492
 20
59.732423
 11
-113.527085
 21
58.261015
  0
LINE
  8
型材断面
  6
CONTINUOUS
 10
-113.409207
 20
58.378893
 11
-110.909207
 21
55.878893
  0
LINE
  8
型材断面
  6
CONTINUOUS
 10
-110.909207
 20
55.878893
 11
-111.144908
 21
55.643193
  0
LINE
  8
型材断面
  6
CONTINUOUS
 10
-111.144908
 20
55.643193
 11
-113.644908
 21
58.143193
  0
LINE
  8
型材断面
  6
CONTINUOUS
 10
-113.644908
 20
11.988237
 11
-113.644908
 21
58.143193
  0
LINE
  8
型材断面
  6
CONTINUOUS
 10
-111.144908
 20
35.482382
 11
-111.144908
 21
55.643193
  0
LINE
  8
型材断面
  6
CONTINUOUS
 10
-95.810945
 20
14.252537
 11
-110.909207
 21
14.252537
  0
LINE
  8
型材断面
  6
CONTINUOUS
 10
22.745652
 20
11.752537
 11
-113.409207
 21
11.752537
  0
LINE
  8
型材断面
  6
CONTINUOUS
 10
22.745652
 20
58.378893
 11
-113.409207
 21
58.378893
  0
LINE
  8
型材断面
  6
CONTINUOUS
 10
-95.810945
 20
55.878893
 11
-110.909207
 21
55.878893
  0
TEXT
  7
TextStyle03
  8
文字
  6
CONTINUOUS
 10
-150.05
 20
98.85
  1
は排水穴位置を示す
 40
3.0
 72
     5
 11
-120.05
 21
98.85
  0
TEXT
  7
TextStyle03
  8
文字
  6
CONTINUOUS
 10
60.725
 20
104.525
  1
ＮＳコード：ＮＳＦＫＺ
 40
5.0
 72
     5
 11
121.975
 21
104.525
  0
TEXT
  7
TextStyle03
  8
文字
  6
CONTINUOUS
 10
97.9
 20
-86.1
  1
網入り6.8t
 40
3.0
 72
     5
 11
114.5875
 21
-86.1
  0
TEXT
  7
TextStyle03
  8
文字
  6
CONTINUOUS
 10
104.575
 20
-90.775
  1
×４枚
 40
3.0
 72
     5
 11
114.325
 21
-90.775
  0
TEXT
  7
TextStyle03
  8
文字
  6
CONTINUOUS
 10
-149.475
 20
23.975
  1
アンカーピッチ
 40
3.0
 50
90.0
 72
     5
 11
-149.475
 21
47.225
  0
TEXT
  7
TextStyle03
  8
文字
  6
CONTINUOUS
 10
-103.9
 20
94.75
  1
アンカーピッチ
 40
3.0
 72
     5
 11
-80.65
 21
94.75
  0
TEXT
  7
TextStyle03
  8
文字
  6
CONTINUOUS
 10
-153.775
 20
92.525
  1
アンカー数量　１６ヶ所
 40
3.0
 72
     5
 11
-117.025
 21
92.525
  0
LINE
  8
文字
  6
CONTINUOUS
 10
112.030163
 20
70.37154
 11
112.030163
 21
61.018383
  0
LINE
  8
文字
  6
CONTINUOUS
 10
115.34683
 20
70.37154
 11
115.34683
 21
61.083737
  0
LINE
  8
文字
  6
CONTINUOUS
 10
34.9741
 20
-77.54646
 11
25.620942
 21
-77.54646
  0
LINE
  8
文字
  6
CONTINUOUS
 10
34.9741
 20
-80.863127
 11
25.686295
 21
-80.863127
  0
LINE
  8
文字
  6
CONTINUOUS
 10
116.421445
 20
-42.31487
 11
116.421445
 21
-48.29742
  0
LINE
  8
文字
  6
CONTINUOUS
 10
84.128112
 20
-42.31487
 11
84.128112
 21
-48.29742
  0
TEXT
  7
TextStyle03
  8
文字
  6
CONTINUOUS
 10
60.575
 20
125.25
  1
シリーズ：ＴＦ２ＦＫＬ
 40
5.0
 72
     5
 11
121.825
 21
125.25
  0
TEXT
  7
TextStyle03
  8
文字
  6
CONTINUOUS
 10
60.575
 20
119.625
  1
　　　　　（固定）1300×4000タイプ
 40
5.0
 72
     5
 11
155.575
 21
119.625
  0
TEXT
  7
TextStyle03
  8
文字
  6
CONTINUOUS
 10
60.575
 20
114.0
  1
図面名　：外観姿図
 40
5.0
 72
     5
 11
110.575
 21
114.0
  0
TEXT
  7
TextStyle03
  8
文字
  6
CONTINUOUS
 10
60.575
 20
108.375
  1
　　　　　　
 40
5.0
 72
     5
 11
93.7
 21
108.375
  0
LINE
  8
文字
  6
CONTINUOUS
 10
20.481352
 20
34.649048
 11
22.981352
 21
34.649048
  0
LINE
  8
文字
  6
CONTINUOUS
 10
20.481352
 20
35.482382
 11
22.981352
 21
35.482382
  0
LINE
  8
文字
  6
CONTINUOUS
 10
-111.144908
 20
34.649048
 11
-113.644908
 21
34.649048
  0
LINE
  8
文字
  6
CONTINUOUS
 10
-111.144908
 20
35.482382
 11
-113.644908
 21
35.482382
  0
INSERT
  2
*DIM_0002
  8
寸法
  6
CONTINUOUS
 10
0.0
 20
0.0
  0
INSERT
  2
*DIM_0003
  8
寸法
  6
CONTINUOUS
 10
0.0
 20
0.0
  0
INSERT
  2
*DIM_0004
  8
寸法
  6
CONTINUOUS
 10
0.0
 20
0.0
  0
INSERT
  2
*DIM_0005
  8
寸法
  6
CONTINUOUS
 10
0.0
 20
0.0
  0
INSERT
  2
*DIM_0006
  8
寸法
  6
CONTINUOUS
 10
0.0
 20
0.0
  0
INSERT
  2
*DIM_0007
  8
寸法
  6
CONTINUOUS
 10
0.0
 20
0.0
  0
INSERT
  2
*DIM_0008
  8
寸法
  6
CONTINUOUS
 10
0.0
 20
0.0
  0
INSERT
  2
*DIM_0009
  8
寸法
  6
CONTINUOUS
 10
0.0
 20
0.0
  0
INSERT
  2
*DIM_0010
  8
寸法
  6
CONTINUOUS
 10
0.0
 20
0.0
  0
INSERT
  2
*DIM_0011
  8
寸法
  6
CONTINUOUS
 10
0.0
 20
0.0
  0
INSERT
  2
*DIM_0012
  8
寸法
  6
CONTINUOUS
 10
0.0
 20
0.0
  0
INSERT
  2
*DIM_0013
  8
寸法
  6
CONTINUOUS
 10
0.0
 20
0.0
  0
INSERT
  2
*DIM_0014
  8
寸法
  6
CONTINUOUS
 10
0.0
 20
0.0
  0
INSERT
  2
*DIM_0015
  8
寸法
  6
CONTINUOUS
 10
0.0
 20
0.0
  0
LINE
  8
別途部材
  6
CONTINUOUS
 62
    47
 10
112.130163
 20
58.378793
 11
112.19683
 21
58.378793
  0
ARC
  8
別途部材
  6
CONTINUOUS
 62
    47
 10
112.130158
 20
58.278794
 40
0.1
 50
90.0
 51
180.0
  0
LINE
  8
別途部材
  6
CONTINUOUS
 62
    47
 10
112.030163
 20
58.278793
 11
112.030163
 21
58.222272
  0
LINE
  8
別途部材
  6
CONTINUOUS
 62
    47
 10
113.69683
 20
58.222272
 11
112.19683
 21
58.222272
  0
LINE
  8
別途部材
  6
CONTINUOUS
 62
    47
 10
112.130163
 20
11.752537
 11
112.19683
 21
11.752537
  0
ARC
  8
別途部材
  6
CONTINUOUS
 62
    47
 10
112.130158
 20
11.852536
 40
0.1
 50
180.0
 51
270.0
  0
LINE
  8
別途部材
  6
CONTINUOUS
 62
    47
 10
112.030163
 20
11.852537
 11
112.030163
 21
11.909058
  0
LINE
  8
別途部材
  6
CONTINUOUS
 62
    47
 10
113.69683
 20
11.909058
 11
112.19683
 21
11.909058
  0
LINE
  8
別途部材
  6
CONTINUOUS
 62
    47
 10
-113.644905
 20
-77.64646
 11
-113.644905
 21
-77.713127
  0
ARC
  8
別途部材
  6
CONTINUOUS
 62
    47
 10
-113.544906
 20
-77.646457
 40
0.1
 50
90.0
 51
180.0
  0
LINE
  8
別途部材
  6
CONTINUOUS
 62
    47
 10
-113.544905
 20
-77.54646
 11
-113.488382
 21
-77.54646
  0
LINE
  8
別途部材
  6
CONTINUOUS
 62
    47
 10
-113.488382
 20
-79.213127
 11
-113.488382
 21
-77.713127
  0
LINE
  8
別途部材
  6
CONTINUOUS
 62
    47
 10
22.981352
 20
-77.64646
 11
22.981352
 21
-77.713127
  0
ARC
  8
別途部材
  6
CONTINUOUS
 62
    47
 10
22.881352
 20
-77.646457
 40
0.1
 50
0.0
 51
90.0
  0
LINE
  8
別途部材
  6
CONTINUOUS
 62
    47
 10
22.881352
 20
-77.54646
 11
22.82483
 21
-77.54646
  0
LINE
  8
別途部材
  6
CONTINUOUS
 62
    47
 10
22.82483
 20
-79.213127
 11
22.82483
 21
-77.713127
  0
LINE
  8
曲げ物
  6
CONTINUOUS
 10
6.06062
 20
37.022003
 11
2.365308
 21
33.32669
  0
LINE
  8
曲げ物
  6
CONTINUOUS
 10
5.35715
 20
35.485893
 11
3.90142
 21
34.030163
  0
LINE
  8
曲げ物
  6
CONTINUOUS
 10
4.52451
 20
36.318533
 11
3.06878
 21
34.862803
  0
LINE
  8
曲げ物
  6
CONTINUOUS
 10
-25.093697
 20
37.022003
 11
-28.78901
 21
33.32669
  0
LINE
  8
曲げ物
  6
CONTINUOUS
 10
-25.797167
 20
35.485893
 11
-27.252898
 21
34.030163
  0
LINE
  8
曲げ物
  6
CONTINUOUS
 10
-26.629807
 20
36.318533
 11
-28.085538
 21
34.862803
  0
LINE
  8
曲げ物
  6
CONTINUOUS
 10
-59.757963
 20
37.022003
 11
-63.453275
 21
33.32669
  0
LINE
  8
曲げ物
  6
CONTINUOUS
 10
-60.461432
 20
35.485893
 11
-61.917162
 21
34.030163
  0
LINE
  8
曲げ物
  6
CONTINUOUS
 10
-61.294073
 20
36.318533
 11
-62.749802
 21
34.862803
  0
LINE
  8
曲げ物
  6
CONTINUOUS
 10
-92.98952
 20
37.022003
 11
-96.684832
 21
33.32669
  0
LINE
  8
曲げ物
  6
CONTINUOUS
 10
-93.69299
 20
35.485893
 11
-95.14872
 21
34.030163
  0
LINE
  8
曲げ物
  6
CONTINUOUS
 10
-94.52563
 20
36.318533
 11
-95.98136
 21
34.862803
  0
LINE
  8
曲げ物
  6
CONTINUOUS
 10
116.421445
 20
-92.533713
 11
116.421445
 21
-49.867045
  0
LINE
  8
曲げ物
  6
CONTINUOUS
 10
84.128112
 20
-92.533713
 11
84.128112
 21
-49.867045
  0
LINE
  8
曲げ物
  6
CONTINUOUS
 10
116.421445
 20
-49.867045
 11
84.128112
 21
-49.867045
  0
LINE
  8
曲げ物
  6
CONTINUOUS
 10
116.421445
 20
-92.533713
 11
84.128112
 21
-92.533713
  0
CIRCLE
  8
LAYER010
  6
CONTINUOUS
 62
    47
 10
114.846832
 20
59.732323
 40
0.011113
  0
CIRCLE
  8
LAYER010
  6
CONTINUOUS
 62
    47
 10
114.846832
 20
10.399007
 40
0.011113
  0
CIRCLE
  8
LAYER010
  6
CONTINUOUS
 62
    47
 10
-114.998435
 20
-80.36313
 40
0.011113
  0
CIRCLE
  8
LAYER010
  6
CONTINUOUS
 62
    47
 10
24.334882
 20
-80.36313
 40
0.011113
  0
ENDSEC
  0
EOF
