  0
SECTION
  2
HEADER
  9
$EXTMIN
 10
-210.0
 20
-148.5
  9
$EXTMAX
 10
210.0
 20
148.5
  9
$PDMODE
 70
    32
  9
$PDSIZE
 40
1.5
  9
$LTSCALE
 40
10.0
  0
ENDSEC
  0
SECTION
  2
TABLES
  0
TABLE
  2
LTYPE
 70
    15
  0
LTYPE
  2
CONTINUOUS
 70
    64
  3
実線
 72
    65
 73
     0
 40
0.0
  0
LTYPE
  2
DASHED
 70
    64
  3
破線A
 72
    65
 73
     2
 40
0.6
 49
0.4
 49
-0.2
  0
LTYPE
  2
DASHEDX2
 70
    64
  3
破線B
 72
    65
 73
     2
 40
1.3
 49
0.9
 49
-0.4
  0
LTYPE
  2
DASHDOT
 70
    64
  3
１点鎖線A
 72
    65
 73
     4
 40
0.5375
 49
0.375
 49
-0.05
 49
0.0625
 49
-0.05
  0
LTYPE
  2
DASHDOTX2
 70
    64
  3
１点鎖線B
 72
    65
 73
     4
 40
1.075
 49
0.75
 49
-0.1
 49
0.125
 49
-0.1
  0
LTYPE
  2
DIVIDE2
 70
    64
  3
２点鎖線A
 72
    65
 73
     6
 40
0.5125
 49
0.3
 49
-0.0375
 49
0.05
 49
-0.0375
 49
0.05
 49
-0.0375
  0
LTYPE
  2
DIVIDE
 70
    64
  3
２点鎖線B
 72
    65
 73
     6
 40
1.05
 49
0.55
 49
-0.1
 49
0.1
 49
-0.1
 49
0.1
 49
-0.1
  0
LTYPE
  2
DOT
 70
    64
  3
点線A
 72
    65
 73
     2
 40
0.1125
 49
0.0625
 49
-0.05
  0
LTYPE
  2
DOTX2
 70
    64
  3
点線B
 72
    65
 73
     2
 40
0.275
 49
0.15
 49
-0.125
  0
LTYPE
  2
CONTINUOUS
 70
    64
  3
実線
 72
    65
 73
     0
 40
0.0
  0
LTYPE
  2
CONTINUOUS
 70
    64
  3
実線
 72
    65
 73
     0
 40
0.0
  0
LTYPE
  2
CONTINUOUS
 70
    64
  3
実線
 72
    65
 73
     0
 40
0.0
  0
LTYPE
  2
CONTINUOUS
 70
    64
  3
実線
 72
    65
 73
     0
 40
0.0
  0
LTYPE
  2
CONTINUOUS
 70
    64
  3
実線
 72
    65
 73
     0
 40
0.0
  0
LTYPE
  2
CONTINUOUS
 70
    64
  3
実線
 72
    65
 73
     0
 40
0.0
  0
ENDTAB
  0
TABLE
  2
LAYER
 70
    35
  0
LAYER
  2
通り芯
 70
     0
 62
    15
  6
CONTINUOUS
  0
LAYER
  2
補助線
 70
     0
 62
    16
  6
DOT
  0
LAYER
  2
躯体
 70
     0
 62
    31
  6
CONTINUOUS
  0
LAYER
  2
型材
 70
     0
 62
    32
  6
CONTINUOUS
  0
LAYER
  2
型材断面
 70
     0
 62
    47
  6
CONTINUOUS
  0
LAYER
  2
ガラス
 70
     0
 62
    48
  6
CONTINUOUS
  0
LAYER
  2
ゴム等
 70
     0
 62
    63
  6
CONTINUOUS
  0
LAYER
  2
ボルト／ビス
 70
     0
 62
    64
  6
CONTINUOUS
  0
LAYER
  2
文字
 70
     0
 62
    79
  6
CONTINUOUS
  0
LAYER
  2
寸法
 70
     0
 62
    80
  6
CONTINUOUS
  0
LAYER
  2
ﾊｯﾁﾝｸﾞ
 70
     0
 62
    95
  6
CONTINUOUS
  0
LAYER
  2
別途部材
 70
     0
 62
    96
  6
CONTINUOUS
  0
LAYER
  2
曲げ物
 70
     0
 62
   111
  6
CONTINUOUS
  0
LAYER
  2
鉄骨等
 70
     0
 62
   112
  6
CONTINUOUS
  0
LAYER
  2
St
 70
     0
 62
   127
  6
CONTINUOUS
  0
LAYER
  2
その他部品等
 70
     0
 62
   128
  6
CONTINUOUS
  0
LAYER
  2
ｶﾞｽｹｯﾄ
 70
     0
 62
   143
  6
CONTINUOUS
  0
LAYER
  2
ｽｹｯﾁ
 70
     0
 62
    14
  6
CONTINUOUS
  0
LAYER
  2
0
 70
     0
 62
    17
  6
CONTINUOUS
  0
LAYER
  2
1
 70
     0
 62
    30
  6
CONTINUOUS
  0
LAYER
  2
4
 70
     0
 62
    33
  6
CONTINUOUS
  0
LAYER
  2
ﾚｲﾔ3
 70
     0
 62
    46
  6
CONTINUOUS
  0
LAYER
  2
外形線
 70
     0
 62
    49
  6
CONTINUOUS
  0
LAYER
  2
部品
 70
     0
 62
    14
  6
CONTINUOUS
  0
LAYER
  2
サッシ芯
 70
     0
 62
    17
  6
DASHDOTX2
  0
LAYER
  2
寸法線
 70
     0
 62
    62
  6
CONTINUOUS
  0
LAYER
  2
姿図外形線
 70
     0
 62
    65
  6
CONTINUOUS
  0
LAYER
  2
姿補助線
 70
     0
 62
    30
  6
CONTINUOUS
  0
LAYER
  2
透視線
 70
     0
 62
    78
  6
DOT
  0
LAYER
  2
用紙
 70
     0
 62
    81
  6
CONTINUOUS
  0
LAYER
  2
実線図枠
 70
     0
 62
    94
  6
CONTINUOUS
  0
LAYER
  2
補助図枠
 70
     0
 62
    97
  6
CONTINUOUS
  0
LAYER
  2
建具記号
 70
     0
 62
   110
  6
CONTINUOUS
  0
LAYER
  2
補助文字
 70
     0
 62
   113
  6
CONTINUOUS
  0
LAYER
  2
LAYER010
 70
     0
 62
    11
  6
CONTINUOUS
  0
ENDTAB
  0
TABLE
  2
STYLE
 70
    10
  0
STYLE
  2
STANDARD
 70
     0
 40
1.0
 41
1.0
 42
1.0
 50
0.0
 71
     0
  3
TXT
  4
BIGFONT
  0
STYLE
  2
TATE
 70
     4
 40
1.0
 41
1.0
 42
1.0
 50
0.0
 71
     0
  3
TXT
  4
BIGFONT
  0
STYLE
  2
TextStyle03
 70
     0
 40
1.0
 41
1.0
 42
1.0
 50
0.0
 71
     0
  3
MONOTXT
  4
BIGFONT
  0
STYLE
  2
TextStyle04
 70
     0
 40
1.0
 41
1.0
 42
1.0
 50
0.0
 71
     0
  3
MONOTXT
  4
BIGFONT
  0
STYLE
  2
TextStyle05
 70
     0
 40
1.0
 41
1.0
 42
1.0
 50
0.0
 71
     0
  3
MONOTXT
  4
BIGFONT
  0
STYLE
  2
TextStyle06
 70
     0
 40
1.0
 41
1.0
 42
1.0
 50
0.0
 71
     0
  3
MONOTXT
  4
BIGFONT
  0
STYLE
  2
TextStyle07
 70
     0
 40
1.0
 41
1.0
 42
1.0
 50
0.0
 71
     0
  3
MONOTXT
  4
BIGFONT
  0
STYLE
  2
TextStyle08
 70
     0
 40
1.0
 41
1.0
 42
1.0
 50
0.0
 71
     0
  3
MONOTXT
  4
BIGFONT
  0
STYLE
  2
TextStyle09
 70
     0
 40
1.0
 41
1.0
 42
1.0
 50
0.0
 71
     0
  3
MONOTXT
  4
BIGFONT
  0
STYLE
  2
TextStyle10
 70
     0
 40
1.0
 41
1.0
 42
1.0
 50
0.0
 71
     0
  3
MONOTXT
  4
BIGFONT
  0
ENDTAB
  0
ENDSEC
  0
SECTION
  2
BLOCKS
  0
BLOCK
  2
*GRP_0001
 70
    65
 10
0.0
 20
0.0
  0
LINE
  8
型材断面
  6
CONTINUOUS
 10
195.0
 20
133.5
 11
195.0
 21
-133.5
  0
LINE
  8
型材断面
  6
CONTINUOUS
 10
195.0
 20
-133.5
 11
-185.0
 21
-133.5
  0
LINE
  8
型材断面
  6
CONTINUOUS
 10
-185.0
 20
-133.5
 11
-185.0
 21
133.5
  0
LINE
  8
型材断面
  6
CONTINUOUS
 10
195.0
 20
133.5
 11
-185.0
 21
133.5
  0
LINE
  8
型材断面
  6
CONTINUOUS
 10
145.0
 20
-133.5
 11
145.0
 21
-118.5
  0
LINE
  8
型材断面
  6
CONTINUOUS
 10
195.0
 20
-118.5
 11
145.0
 21
-118.5
  0
ENDBLK
  0
BLOCK
  2
*DIM_0002
 70
    65
 10
0.0
 20
0.0
  0
LINE
  8
寸法
  6
BYBLOCK
 62
     0
 10
53.282945
 20
-22.536362
 11
-96.717055
 21
-22.536362
  0
POINT
  8
寸法
 62
     0
 10
53.282945
 20
-22.536362
  0
POINT
  8
寸法
 62
     0
 10
-96.717055
 20
-22.536362
  0
TEXT
  7
TextStyle03
  8
寸法
  6
CONTINUOUS
 62
     0
 10
-33.44375
 20
-22.175
  1
呼称寸法　4500
 40
3.0
 72
     5
 11
-10.00625
 21
-22.175
  0
ENDBLK
  0
BLOCK
  2
*DIM_0003
 70
    65
 10
0.0
 20
0.0
  0
LINE
  8
寸法
  6
BYBLOCK
 62
     0
 10
-80.050388
 20
9.76892
 11
-80.050388
 21
4.855835
  0
LINE
  8
寸法
  6
BYBLOCK
 62
     0
 10
-21.717055
 20
9.76892
 11
-21.717055
 21
4.855835
  0
LINE
  8
寸法
  6
BYBLOCK
 62
     0
 10
-80.050388
 20
4.855835
 11
-21.717055
 21
4.855835
  0
POINT
  8
寸法
 62
     0
 10
-80.050388
 20
4.855835
  0
POINT
  8
寸法
 62
     0
 10
-21.717055
 20
4.855835
  0
TEXT
  7
TextStyle03
  8
寸法
  6
CONTINUOUS
 62
     0
 10
-54.18125
 20
5.225
  1
1750
 40
3.0
 72
     5
 11
-47.61875
 21
5.225
  0
ENDBLK
  0
BLOCK
  2
*DIM_0004
 70
    65
 10
0.0
 20
0.0
  0
LINE
  8
寸法
  6
BYBLOCK
 62
     0
 10
36.616278
 20
9.76892
 11
36.616278
 21
4.855835
  0
LINE
  8
寸法
  6
BYBLOCK
 62
     0
 10
-21.717055
 20
4.855835
 11
36.616278
 21
4.855835
  0
POINT
  8
寸法
 62
     0
 10
36.616278
 20
4.855835
  0
TEXT
  7
TextStyle03
  8
寸法
  6
CONTINUOUS
 62
     0
 10
4.14375
 20
5.225
  1
1750
 40
3.0
 72
     5
 11
10.70625
 21
5.225
  0
ENDBLK
  0
BLOCK
  2
*DIM_0005
 70
    65
 10
0.0
 20
0.0
  0
LINE
  8
寸法
  6
BYBLOCK
 62
     0
 10
56.28299
 20
-78.991382
 11
56.28299
 21
-22.536362
  0
LINE
  8
寸法
  6
BYBLOCK
 62
     0
 10
53.282945
 20
-22.536362
 11
56.28299
 21
-22.536362
  0
POINT
  8
寸法
 62
     0
 10
53.282945
 20
-22.536362
  0
POINT
  8
寸法
 62
     0
 10
56.28299
 20
-22.536362
  0
TEXT
  7
TextStyle03
  8
寸法
  6
CONTINUOUS
 62
     0
 10
53.15625
 20
-22.175
  1
90
 40
3.0
 72
     5
 11
56.34375
 21
-22.175
  0
ENDBLK
  0
BLOCK
  2
*DIM_0006
 70
    65
 10
0.0
 20
0.0
  0
LINE
  8
寸法
  6
BYBLOCK
 62
     0
 10
-99.7171
 20
-78.991382
 11
-99.7171
 21
-22.536362
  0
LINE
  8
寸法
  6
BYBLOCK
 62
     0
 10
-96.717055
 20
-22.536362
 11
-99.7171
 21
-22.536362
  0
POINT
  8
寸法
 62
     0
 10
-96.717055
 20
-22.536362
  0
POINT
  8
寸法
 62
     0
 10
-99.7171
 20
-22.536362
  0
TEXT
  7
TextStyle03
  8
寸法
  6
CONTINUOUS
 62
     0
 10
-99.81875
 20
-22.175
  1
90
 40
3.0
 72
     5
 11
-96.63125
 21
-22.175
  0
ENDBLK
  0
BLOCK
  2
*DIM_0007
 70
    65
 10
0.0
 20
0.0
  0
LINE
  8
寸法
  6
BYBLOCK
 62
     0
 10
149.3695
 20
-49.867045
 11
157.804348
 21
-49.867045
  0
LINE
  8
寸法
  6
BYBLOCK
 62
     0
 10
149.3695
 20
-92.533713
 11
157.804348
 21
-92.533713
  0
LINE
  8
寸法
  6
BYBLOCK
 62
     0
 10
157.804348
 20
-49.867045
 11
157.804348
 21
-92.533713
  0
POINT
  8
寸法
 62
     0
 10
157.804348
 20
-49.867045
  0
POINT
  8
寸法
 62
     0
 10
157.804348
 20
-92.533713
  0
TEXT
  7
TextStyle03
  8
寸法
  6
CONTINUOUS
 62
     0
 10
157.45
 20
-74.48125
  1
1280
 40
3.0
 50
90.0
 72
     5
 11
157.45
 21
-67.91875
  0
ENDBLK
  0
BLOCK
  2
*DIM_0008
 70
    65
 10
0.0
 20
0.0
  0
LINE
  8
寸法
  6
BYBLOCK
 62
     0
 10
-99.717055
 20
23.399048
 11
-128.66222
 21
23.399048
  0
LINE
  8
寸法
  6
BYBLOCK
 62
     0
 10
-99.717055
 20
46.732382
 11
-128.66222
 21
46.732382
  0
LINE
  8
寸法
  6
BYBLOCK
 62
     0
 10
-128.66222
 20
23.399048
 11
-128.66222
 21
46.732382
  0
POINT
  8
寸法
 62
     0
 10
-128.66222
 20
23.399048
  0
POINT
  8
寸法
 62
     0
 10
-128.66222
 20
46.732382
  0
TEXT
  7
TextStyle03
  8
寸法
  6
CONTINUOUS
 62
     0
 10
-129.0
 20
32.6125
  1
700
 40
3.0
 50
90.0
 72
     5
 11
-129.0
 21
37.4875
  0
ENDBLK
  0
BLOCK
  2
*DIM_0009
 70
    65
 10
0.0
 20
0.0
  0
LINE
  8
寸法
  6
BYBLOCK
 62
     0
 10
-88.383723
 20
59.73238
 11
-88.383723
 21
88.840452
  0
LINE
  8
寸法
  6
BYBLOCK
 62
     0
 10
-61.717055
 20
59.73238
 11
-61.717055
 21
88.840452
  0
LINE
  8
寸法
  6
BYBLOCK
 62
     0
 10
-88.383723
 20
88.840452
 11
-61.717055
 21
88.840452
  0
POINT
  8
寸法
 62
     0
 10
-88.383723
 20
88.840452
  0
POINT
  8
寸法
 62
     0
 10
-61.717055
 20
88.840452
  0
TEXT
  7
TextStyle03
  8
寸法
  6
CONTINUOUS
 62
     0
 10
-77.5125
 20
89.2
  1
800
 40
3.0
 72
     5
 11
-72.6375
 21
89.2
  0
ENDBLK
  0
BLOCK
  2
*DIM_0010
 70
    65
 10
0.0
 20
0.0
  0
LINE
  8
寸法
  6
BYBLOCK
 62
     0
 10
-35.050388
 20
59.73238
 11
-35.050388
 21
88.840452
  0
LINE
  8
寸法
  6
BYBLOCK
 62
     0
 10
-61.717055
 20
88.840452
 11
-35.050388
 21
88.840452
  0
POINT
  8
寸法
 62
     0
 10
-35.050388
 20
88.840452
  0
TEXT
  7
TextStyle03
  8
寸法
  6
CONTINUOUS
 62
     0
 10
-50.8375
 20
89.2
  1
800
 40
3.0
 72
     5
 11
-45.9625
 21
89.2
  0
ENDBLK
  0
BLOCK
  2
*DIM_0011
 70
    65
 10
0.0
 20
0.0
  0
LINE
  8
寸法
  6
BYBLOCK
 62
     0
 10
-8.383723
 20
59.73238
 11
-8.383723
 21
88.840452
  0
LINE
  8
寸法
  6
BYBLOCK
 62
     0
 10
-35.050388
 20
88.840452
 11
-8.383723
 21
88.840452
  0
POINT
  8
寸法
 62
     0
 10
-8.383723
 20
88.840452
  0
TEXT
  7
TextStyle03
  8
寸法
  6
CONTINUOUS
 62
     0
 10
-24.1625
 20
89.2
  1
800
 40
3.0
 72
     5
 11
-19.2875
 21
89.2
  0
ENDBLK
  0
BLOCK
  2
*DIM_0012
 70
    65
 10
0.0
 20
0.0
  0
LINE
  8
寸法
  6
BYBLOCK
 62
     0
 10
18.282945
 20
59.73238
 11
18.282945
 21
88.840452
  0
LINE
  8
寸法
  6
BYBLOCK
 62
     0
 10
-8.383723
 20
88.840452
 11
18.282945
 21
88.840452
  0
POINT
  8
寸法
 62
     0
 10
18.282945
 20
88.840452
  0
TEXT
  7
TextStyle03
  8
寸法
  6
CONTINUOUS
 62
     0
 10
2.4875
 20
89.2
  1
800
 40
3.0
 72
     5
 11
7.3625
 21
89.2
  0
ENDBLK
  0
BLOCK
  2
*DIM_0013
 70
    65
 10
0.0
 20
0.0
  0
LINE
  8
寸法
  6
BYBLOCK
 62
     0
 10
44.949612
 20
59.73238
 11
44.949612
 21
88.840452
  0
LINE
  8
寸法
  6
BYBLOCK
 62
     0
 10
18.282945
 20
88.840452
 11
44.949612
 21
88.840452
  0
POINT
  8
寸法
 62
     0
 10
44.949612
 20
88.840452
  0
TEXT
  7
TextStyle03
  8
寸法
  6
CONTINUOUS
 62
     0
 10
29.1625
 20
89.2
  1
800
 40
3.0
 72
     5
 11
34.0375
 21
89.2
  0
ENDBLK
  0
BLOCK
  2
*DIM_0014
 70
    65
 10
0.0
 20
0.0
  0
LINE
  8
寸法
  6
CONTINUOUS
 10
114.78128
 20
70.37154
 11
118.097948
 21
70.37154
  0
POINT
  8
寸法
 10
114.78128
 20
70.37154
  0
POINT
  8
寸法
 10
118.097948
 20
70.37154
  0
TEXT
  7
TextStyle03
  8
寸法
  6
CONTINUOUS
 10
112.91875
 20
70.55
  1
99.5
 40
3.0
 72
     5
 11
119.48125
 21
70.55
  0
ENDBLK
  0
BLOCK
  2
*DIM_0015
 70
    65
 10
0.0
 20
0.0
  0
LINE
  8
寸法
  6
CONTINUOUS
 10
66.922153
 20
-77.64449
 11
66.922153
 21
-80.961157
  0
POINT
  8
寸法
 10
66.922153
 20
-77.64449
  0
POINT
  8
寸法
 10
66.922153
 20
-80.961157
  0
TEXT
  7
TextStyle03
  8
寸法
  6
CONTINUOUS
 10
70.05
 20
-82.50625
  1
99.5
 40
3.0
 50
90.0
 72
     5
 11
70.05
 21
-75.94375
  0
ENDBLK
  0
BLOCK
  2
*DIM_0016
 70
    65
 10
0.0
 20
0.0
  0
LINE
  8
寸法
  6
CONTINUOUS
 10
148.3695
 20
-40.29728
 11
111.9095
 21
-40.29728
  0
POINT
  8
寸法
 10
148.3695
 20
-40.29728
  0
POINT
  8
寸法
 10
111.9095
 20
-40.29728
  0
TEXT
  7
TextStyle03
  8
寸法
  6
CONTINUOUS
 10
125.15625
 20
-39.95
  1
1093.8
 40
3.0
 72
     5
 11
135.09375
 21
-39.95
  0
ENDBLK
  0
ENDSEC
  0
SECTION
  2
ENTITIES
  0
POLYLINE
  8
通り芯
  6
CONTINUOUS
 66
     1
 70
     1
  0
VERTEX
  8
通り芯
 10
-210.0
 20
-148.5
  0
VERTEX
  8
通り芯
 10
210.0
 20
-148.5
  0
VERTEX
  8
通り芯
 10
210.0
 20
148.5
  0
VERTEX
  8
通り芯
 10
-210.0
 20
148.5
  0
SEQEND
  0
INSERT
  2
*GRP_0001
  8
型材断面
  6
CONTINUOUS
 10
0.0
 20
0.0
  0
LINE
  8
型材断面
  6
DASHDOT
 10
53.282945
 20
-87.251428
 11
53.282945
 21
56.73238
  0
LINE
  8
型材断面
  6
DASHDOT
 10
-21.717055
 20
-87.251428
 11
-21.717055
 21
56.73238
  0
LINE
  8
型材断面
  6
DASHDOT
 10
-96.717055
 20
-87.251428
 11
-96.717055
 21
56.73238
  0
LINE
  8
型材断面
  6
DASHDOT
 10
-21.717055
 20
13.399048
 11
-21.717055
 21
56.73238
  0
LINE
  8
型材断面
  6
CONTINUOUS
 10
-99.347185
 20
35.065715
 11
-101.937692
 21
36.561345
  0
LINE
  8
型材断面
  6
CONTINUOUS
 10
-99.347185
 20
35.065715
 11
-101.937692
 21
33.570085
  0
LINE
  8
型材断面
  6
CONTINUOUS
 10
-101.937692
 20
33.570085
 11
-101.937692
 21
36.561345
  0
LINE
  8
型材断面
  6
CONTINUOUS
 10
-80.050388
 20
59.36251
 11
-81.546018
 21
61.953017
  0
LINE
  8
型材断面
  6
CONTINUOUS
 10
-80.050388
 20
59.36251
 11
-78.554757
 21
61.953017
  0
LINE
  8
型材断面
  6
CONTINUOUS
 10
-78.554757
 20
61.953017
 11
-81.546018
 21
61.953017
  0
LINE
  8
型材断面
  6
CONTINUOUS
 10
-137.569262
 20
101.239727
 11
-139.064893
 21
98.64922
  0
LINE
  8
型材断面
  6
CONTINUOUS
 10
-137.569262
 20
101.239727
 11
-136.073632
 21
98.64922
  0
LINE
  8
型材断面
  6
CONTINUOUS
 10
-136.073632
 20
98.64922
 11
-139.064893
 21
98.64922
  0
LINE
  8
型材断面
  6
CONTINUOUS
 10
-143.59185
 20
97.710625
 11
-97.350072
 21
97.710625
  0
LINE
  8
型材断面
  6
CONTINUOUS
 10
-80.050388
 20
10.76892
 11
-81.546018
 21
8.178413
  0
LINE
  8
型材断面
  6
CONTINUOUS
 10
-80.050388
 20
10.76892
 11
-78.554757
 21
8.178413
  0
LINE
  8
型材断面
  6
CONTINUOUS
 10
-78.554757
 20
8.178413
 11
-81.546018
 21
8.178413
  0
LINE
  8
型材断面
  6
CONTINUOUS
 10
55.913075
 20
35.065715
 11
58.503583
 21
36.561345
  0
LINE
  8
型材断面
  6
CONTINUOUS
 10
55.913075
 20
35.065715
 11
58.503583
 21
33.570085
  0
LINE
  8
型材断面
  6
CONTINUOUS
 10
58.503583
 20
33.570085
 11
58.503583
 21
36.561345
  0
LINE
  8
型材断面
  6
CONTINUOUS
 10
36.616278
 20
59.36251
 11
38.111908
 21
61.953017
  0
LINE
  8
型材断面
  6
CONTINUOUS
 10
36.616278
 20
59.36251
 11
35.120648
 21
61.953017
  0
LINE
  8
型材断面
  6
CONTINUOUS
 10
35.120648
 20
61.953017
 11
38.111908
 21
61.953017
  0
LINE
  8
型材断面
  6
CONTINUOUS
 10
36.616278
 20
10.76892
 11
38.111908
 21
8.178413
  0
LINE
  8
型材断面
  6
CONTINUOUS
 10
36.616278
 20
10.76892
 11
35.120648
 21
8.178413
  0
LINE
  8
型材断面
  6
CONTINUOUS
 10
35.120648
 20
8.178413
 11
38.111908
 21
8.178413
  0
LINE
  8
型材断面
  6
CONTINUOUS
 10
-21.717055
 20
59.36251
 11
-20.221425
 21
61.953017
  0
LINE
  8
型材断面
  6
CONTINUOUS
 10
-21.717055
 20
59.36251
 11
-23.212685
 21
61.953017
  0
LINE
  8
型材断面
  6
CONTINUOUS
 10
-23.212685
 20
61.953017
 11
-20.221425
 21
61.953017
  0
LINE
  8
型材断面
  6
CONTINUOUS
 10
-21.717055
 20
10.76892
 11
-20.221425
 21
8.178413
  0
LINE
  8
型材断面
  6
CONTINUOUS
 10
-21.717055
 20
10.76892
 11
-23.212685
 21
8.178413
  0
LINE
  8
型材断面
  6
CONTINUOUS
 10
-23.212685
 20
8.178413
 11
-20.221425
 21
8.178413
  0
LINE
  8
型材断面
  6
CONTINUOUS
 10
-143.59185
 20
91.577787
 11
-97.350072
 21
91.577787
  0
LINE
  8
型材断面
  6
CONTINUOUS
 10
-99.717102
 20
10.399007
 11
-21.717055
 21
10.399007
  0
LINE
  8
型材断面
  6
CONTINUOUS
 10
-99.717102
 20
59.732423
 11
-21.717055
 21
59.732423
  0
LINE
  8
型材断面
  6
CONTINUOUS
 10
56.282992
 20
59.732423
 11
-21.717055
 21
59.732423
  0
LINE
  8
型材断面
  6
CONTINUOUS
 10
56.282992
 20
10.399007
 11
-21.717055
 21
10.399007
  0
CIRCLE
  8
型材断面
  6
CONTINUOUS
 62
    47
 10
117.59795
 20
59.732323
 40
0.011113
  0
LINE
  8
型材断面
  6
CONTINUOUS
 62
    47
 10
118.097948
 20
59.232332
 11
118.097948
 21
59.732323
  0
LINE
  8
型材断面
  6
CONTINUOUS
 62
    47
 10
118.097948
 20
59.732323
 11
117.59795
 21
59.732323
  0
LINE
  8
型材断面
  6
CONTINUOUS
 62
    47
 10
117.59795
 20
59.732323
 11
117.10077
 21
56.798992
  0
LINE
  8
型材断面
  6
CONTINUOUS
 62
    47
 10
118.097948
 20
59.232332
 11
118.597948
 21
59.232332
  0
LINE
  8
型材断面
  6
CONTINUOUS
 62
    47
 10
117.10077
 20
56.798992
 11
116.447948
 21
56.798992
  0
CIRCLE
  8
型材断面
  6
CONTINUOUS
 62
    47
 10
117.59795
 20
10.399007
 40
0.011113
  0
LINE
  8
型材断面
  6
CONTINUOUS
 62
    47
 10
118.097948
 20
10.898998
 11
118.097948
 21
10.399007
  0
LINE
  8
型材断面
  6
CONTINUOUS
 62
    47
 10
118.097948
 20
10.399007
 11
117.59795
 21
10.399007
  0
LINE
  8
型材断面
  6
CONTINUOUS
 62
    47
 10
117.59795
 20
10.399007
 11
117.10077
 21
13.332337
  0
LINE
  8
型材断面
  6
CONTINUOUS
 62
    47
 10
118.097948
 20
10.898998
 11
118.597948
 21
10.898998
  0
LINE
  8
型材断面
  6
CONTINUOUS
 62
    47
 10
117.10077
 20
13.332337
 11
116.447948
 21
13.332337
  0
LINE
  8
型材断面
  6
CONTINUOUS
 62
    47
 10
114.947948
 20
11.752537
 11
114.947948
 21
35.065665
  0
LINE
  8
型材断面
  6
CONTINUOUS
 62
    47
 10
114.78128
 20
11.909058
 11
114.78128
 21
35.065665
  0
LINE
  8
型材断面
  6
CONTINUOUS
 62
    47
 10
116.447948
 20
11.909058
 11
116.447948
 21
35.065665
  0
LINE
  8
型材断面
  6
CONTINUOUS
 10
117.10077
 20
13.332285
 11
117.10077
 21
35.065665
  0
LINE
  8
型材断面
  6
CONTINUOUS
 10
117.597953
 20
10.398953
 11
117.597953
 21
35.065665
  0
LINE
  8
型材断面
  6
CONTINUOUS
 62
    47
 10
118.097948
 20
10.398953
 11
118.097948
 21
35.065665
  0
LINE
  8
型材断面
  6
CONTINUOUS
 10
118.597948
 20
10.898942
 11
118.597948
 21
35.065665
  0
LINE
  8
型材断面
  6
CONTINUOUS
 62
    47
 10
118.097948
 20
59.732378
 11
118.097948
 21
35.065665
  0
LINE
  8
型材断面
  6
CONTINUOUS
 10
117.10077
 20
56.799045
 11
117.10077
 21
35.065665
  0
LINE
  8
型材断面
  6
CONTINUOUS
 62
    47
 10
114.947948
 20
58.378793
 11
114.947948
 21
35.065665
  0
LINE
  8
型材断面
  6
CONTINUOUS
 62
    47
 10
114.78128
 20
58.222272
 11
114.78128
 21
35.065665
  0
LINE
  8
型材断面
  6
CONTINUOUS
 62
    47
 10
116.447948
 20
58.222272
 11
116.447948
 21
35.065665
  0
LINE
  8
型材断面
  6
CONTINUOUS
 10
117.597953
 20
59.732378
 11
117.597953
 21
35.065665
  0
LINE
  8
型材断面
  6
CONTINUOUS
 10
118.597948
 20
59.232388
 11
118.597948
 21
35.065665
  0
LINE
  8
型材断面
  6
DASHDOT
 10
-96.717055
 20
35.065715
 11
125.573957
 21
35.065715
  0
CIRCLE
  8
型材断面
  6
CONTINUOUS
 62
    47
 10
-99.717047
 20
-80.46116
 40
0.011113
  0
LINE
  8
型材断面
  6
CONTINUOUS
 62
    47
 10
-99.217055
 20
-80.961157
 11
-99.717047
 21
-80.961157
  0
LINE
  8
型材断面
  6
CONTINUOUS
 62
    47
 10
-99.717047
 20
-80.961157
 11
-99.717047
 21
-80.46116
  0
LINE
  8
型材断面
  6
CONTINUOUS
 62
    47
 10
-99.717047
 20
-80.46116
 11
-96.783715
 21
-79.96398
  0
LINE
  8
型材断面
  6
CONTINUOUS
 62
    47
 10
-99.217055
 20
-80.961157
 11
-99.217055
 21
-81.461157
  0
LINE
  8
型材断面
  6
CONTINUOUS
 62
    47
 10
-96.783715
 20
-79.96398
 11
-96.783715
 21
-79.311155
  0
CIRCLE
  8
型材断面
  6
CONTINUOUS
 62
    47
 10
56.282937
 20
-80.46116
 40
0.011113
  0
LINE
  8
型材断面
  6
CONTINUOUS
 62
    47
 10
55.782945
 20
-80.961157
 11
56.282937
 21
-80.961157
  0
LINE
  8
型材断面
  6
CONTINUOUS
 62
    47
 10
56.282937
 20
-80.961157
 11
56.282937
 21
-80.46116
  0
LINE
  8
型材断面
  6
CONTINUOUS
 62
    47
 10
56.282937
 20
-80.46116
 11
53.349605
 21
-79.96398
  0
LINE
  8
型材断面
  6
CONTINUOUS
 62
    47
 10
55.782945
 20
-80.961157
 11
55.782945
 21
-81.461157
  0
LINE
  8
型材断面
  6
CONTINUOUS
 62
    47
 10
53.349605
 20
-79.96398
 11
53.349605
 21
-79.311155
  0
LINE
  8
型材断面
  6
CONTINUOUS
 10
-99.7171
 20
-80.46116
 11
-21.717055
 21
-80.46116
  0
LINE
  8
型材断面
  6
CONTINUOUS
 62
    47
 10
-98.206995
 20
-79.311155
 11
-21.717055
 21
-79.311155
  0
LINE
  8
型材断面
  6
CONTINUOUS
 62
    47
 10
-99.7171
 20
-80.961157
 11
-21.717055
 21
-80.961157
  0
LINE
  8
型材断面
  6
CONTINUOUS
 10
-99.21711
 20
-81.461157
 11
-21.717055
 21
-81.461157
  0
LINE
  8
型材断面
  6
CONTINUOUS
 10
-96.783767
 20
-79.96398
 11
-21.717055
 21
-79.96398
  0
LINE
  8
型材断面
  6
CONTINUOUS
 62
    47
 10
-98.206995
 20
-77.64449
 11
-21.717055
 21
-77.64449
  0
LINE
  8
型材断面
  6
CONTINUOUS
 62
    47
 10
-98.363518
 20
-77.811155
 11
-21.717055
 21
-77.811155
  0
LINE
  8
型材断面
  6
CONTINUOUS
 10
55.783
 20
-81.461157
 11
-21.717055
 21
-81.461157
  0
LINE
  8
型材断面
  6
CONTINUOUS
 62
    47
 10
56.28299
 20
-80.961157
 11
-21.717055
 21
-80.961157
  0
LINE
  8
型材断面
  6
CONTINUOUS
 10
56.28299
 20
-80.46116
 11
-21.717055
 21
-80.46116
  0
LINE
  8
型材断面
  6
CONTINUOUS
 10
53.349657
 20
-79.96398
 11
-21.717055
 21
-79.96398
  0
LINE
  8
型材断面
  6
CONTINUOUS
 62
    47
 10
54.772885
 20
-79.311155
 11
-21.717055
 21
-79.311155
  0
LINE
  8
型材断面
  6
CONTINUOUS
 62
    47
 10
54.929407
 20
-77.811155
 11
-21.717055
 21
-77.811155
  0
LINE
  8
型材断面
  6
CONTINUOUS
 62
    47
 10
54.772885
 20
-77.64449
 11
-21.717055
 21
-77.64449
  0
LINE
  8
型材断面
  6
DASHDOT
 10
125.573957
 20
13.398998
 11
-96.717055
 21
13.398998
  0
LINE
  8
型材断面
  6
DASHDOT
 10
125.573957
 20
56.732332
 11
-96.717055
 21
56.732332
  0
LINE
  8
型材断面
  6
DASHDOT
 10
-59.342055
 20
13.399048
 11
-59.342055
 21
56.73238
  0
LINE
  8
型材断面
  6
DASHDOT
 10
15.907945
 20
13.399048
 11
15.907945
 21
56.73238
  0
LINE
  8
型材断面
  6
CONTINUOUS
 10
34.178778
 20
14.252537
 11
-2.487888
 21
14.252537
  0
LINE
  8
型材断面
  6
CONTINUOUS
 10
34.178778
 20
55.878893
 11
-2.487888
 21
55.878893
  0
LINE
  8
型材断面
  6
CONTINUOUS
 10
-3.321223
 20
55.878893
 11
-40.112888
 21
55.878893
  0
LINE
  8
型材断面
  6
CONTINUOUS
 10
-3.321223
 20
14.252537
 11
-40.112888
 21
14.252537
  0
LINE
  8
型材断面
  6
CONTINUOUS
 10
-40.946223
 20
14.252537
 11
-77.612888
 21
14.252537
  0
LINE
  8
型材断面
  6
CONTINUOUS
 10
-40.946223
 20
55.878893
 11
-77.612888
 21
55.878893
  0
LINE
  8
型材断面
  6
CONTINUOUS
 10
17.157945
 20
15.08587
 11
17.157945
 21
55.04556
  0
LINE
  8
型材断面
  6
CONTINUOUS
 10
14.657945
 20
15.08587
 11
14.657945
 21
55.04556
  0
LINE
  8
型材断面
  6
CONTINUOUS
 10
-20.467055
 20
15.08587
 11
-20.467055
 21
55.04556
  0
LINE
  8
型材断面
  6
CONTINUOUS
 10
-22.967055
 20
15.08587
 11
-22.967055
 21
55.04556
  0
LINE
  8
型材断面
  6
CONTINUOUS
 10
-60.592055
 20
15.08587
 11
-60.592055
 21
55.04556
  0
LINE
  8
型材断面
  6
CONTINUOUS
 10
-58.092055
 20
15.08587
 11
-58.092055
 21
55.04556
  0
LINE
  8
型材断面
  6
CONTINUOUS
 10
56.282992
 20
35.06571
 11
56.282992
 21
59.732423
  0
LINE
  8
型材断面
  6
CONTINUOUS
 10
56.282992
 20
35.06572
 11
56.282992
 21
10.399007
  0
LINE
  8
型材断面
  6
CONTINUOUS
 10
54.693707
 20
11.752537
 11
54.929407
 21
11.988237
  0
LINE
  8
型材断面
  6
CONTINUOUS
 10
56.282992
 20
10.399007
 11
54.811585
 21
11.870415
  0
LINE
  8
型材断面
  6
CONTINUOUS
 10
54.929407
 20
11.988237
 11
52.429407
 21
14.488237
  0
LINE
  8
型材断面
  6
CONTINUOUS
 10
54.693707
 20
11.752537
 11
52.193707
 21
14.252537
  0
LINE
  8
型材断面
  6
CONTINUOUS
 10
52.193707
 20
14.252537
 11
52.429407
 21
14.488237
  0
LINE
  8
型材断面
  6
CONTINUOUS
 10
52.429407
 20
34.649048
 11
52.429407
 21
14.488237
  0
LINE
  8
型材断面
  6
CONTINUOUS
 10
54.693707
 20
58.378893
 11
54.929407
 21
58.143193
  0
LINE
  8
型材断面
  6
CONTINUOUS
 10
56.282992
 20
59.732423
 11
54.811585
 21
58.261015
  0
LINE
  8
型材断面
  6
CONTINUOUS
 10
54.693707
 20
58.378893
 11
52.193707
 21
55.878893
  0
LINE
  8
型材断面
  6
CONTINUOUS
 10
52.193707
 20
55.878893
 11
52.429407
 21
55.643193
  0
LINE
  8
型材断面
  6
CONTINUOUS
 10
52.429407
 20
55.643193
 11
54.929407
 21
58.143193
  0
LINE
  8
型材断面
  6
CONTINUOUS
 10
54.929407
 20
11.988237
 11
54.929407
 21
58.143193
  0
LINE
  8
型材断面
  6
CONTINUOUS
 10
52.429407
 20
35.482382
 11
52.429407
 21
55.643193
  0
LINE
  8
型材断面
  6
CONTINUOUS
 10
-99.717102
 20
35.06571
 11
-99.717102
 21
59.732423
  0
LINE
  8
型材断面
  6
CONTINUOUS
 10
-99.717102
 20
35.06572
 11
-99.717102
 21
10.399007
  0
LINE
  8
型材断面
  6
CONTINUOUS
 10
-98.127818
 20
11.752537
 11
-98.363518
 21
11.988237
  0
LINE
  8
型材断面
  6
CONTINUOUS
 10
-99.717102
 20
10.399007
 11
-98.245695
 21
11.870415
  0
LINE
  8
型材断面
  6
CONTINUOUS
 10
-98.363518
 20
11.988237
 11
-95.863518
 21
14.488237
  0
LINE
  8
型材断面
  6
CONTINUOUS
 10
-98.127818
 20
11.752537
 11
-95.627818
 21
14.252537
  0
LINE
  8
型材断面
  6
CONTINUOUS
 10
-95.627818
 20
14.252537
 11
-95.863518
 21
14.488237
  0
LINE
  8
型材断面
  6
CONTINUOUS
 10
-95.863518
 20
34.649048
 11
-95.863518
 21
14.488237
  0
LINE
  8
型材断面
  6
CONTINUOUS
 10
-98.127818
 20
58.378893
 11
-98.363518
 21
58.143193
  0
LINE
  8
型材断面
  6
CONTINUOUS
 10
-99.717102
 20
59.732423
 11
-98.245695
 21
58.261015
  0
LINE
  8
型材断面
  6
CONTINUOUS
 10
-98.127818
 20
58.378893
 11
-95.627818
 21
55.878893
  0
LINE
  8
型材断面
  6
CONTINUOUS
 10
-95.627818
 20
55.878893
 11
-95.863518
 21
55.643193
  0
LINE
  8
型材断面
  6
CONTINUOUS
 10
-95.863518
 20
55.643193
 11
-98.363518
 21
58.143193
  0
LINE
  8
型材断面
  6
CONTINUOUS
 10
-98.363518
 20
11.988237
 11
-98.363518
 21
58.143193
  0
LINE
  8
型材断面
  6
CONTINUOUS
 10
-95.863518
 20
35.482382
 11
-95.863518
 21
55.643193
  0
LINE
  8
型材断面
  6
CONTINUOUS
 10
35.012112
 20
14.252537
 11
52.193707
 21
14.252537
  0
LINE
  8
型材断面
  6
CONTINUOUS
 10
35.012112
 20
55.878893
 11
52.193707
 21
55.878893
  0
LINE
  8
型材断面
  6
CONTINUOUS
 10
-78.446223
 20
55.878893
 11
-95.627818
 21
55.878893
  0
LINE
  8
型材断面
  6
CONTINUOUS
 10
54.693707
 20
58.378893
 11
-98.127818
 21
58.378893
  0
LINE
  8
型材断面
  6
CONTINUOUS
 10
-78.446223
 20
14.252537
 11
-95.627818
 21
14.252537
  0
LINE
  8
型材断面
  6
CONTINUOUS
 10
54.693707
 20
11.752537
 11
-98.127818
 21
11.752537
  0
TEXT
  7
TextStyle03
  8
文字
  6
CONTINUOUS
 10
-134.775
 20
98.85
  1
は排水穴位置を示す
 40
3.0
 72
     5
 11
-104.775
 21
98.85
  0
TEXT
  7
TextStyle03
  8
文字
  6
CONTINUOUS
 10
60.2
 20
104.525
  1
ＮＳコード：ＮＳＦＫＺ
 40
5.0
 72
     5
 11
121.45
 21
104.525
  0
TEXT
  7
TextStyle03
  8
文字
  6
CONTINUOUS
 10
129.825
 20
-86.1
  1
網入り6.8t
 40
3.0
 72
     5
 11
146.5125
 21
-86.1
  0
TEXT
  7
TextStyle03
  8
文字
  6
CONTINUOUS
 10
136.5
 20
-90.775
  1
×４枚
 40
3.0
 72
     5
 11
146.25
 21
-90.775
  0
TEXT
  7
TextStyle03
  8
文字
  6
CONTINUOUS
 10
-134.2
 20
23.975
  1
アンカーピッチ
 40
3.0
 50
90.0
 72
     5
 11
-134.2
 21
47.225
  0
TEXT
  7
TextStyle03
  8
文字
  6
CONTINUOUS
 10
-81.775
 20
93.8
  1
アンカーピッチ
 40
3.0
 72
     5
 11
-58.525
 21
93.8
  0
TEXT
  7
TextStyle03
  8
文字
  6
CONTINUOUS
 10
-138.5
 20
92.5
  1
アンカー数量　１６ヶ所
 40
3.0
 72
     5
 11
-101.75
 21
92.5
  0
LINE
  8
文字
  6
CONTINUOUS
 10
114.78128
 20
70.37154
 11
114.78128
 21
61.018383
  0
LINE
  8
文字
  6
CONTINUOUS
 10
118.097948
 20
70.37154
 11
118.097948
 21
61.083737
  0
LINE
  8
文字
  6
CONTINUOUS
 10
66.922153
 20
-77.64449
 11
57.568997
 21
-77.64449
  0
LINE
  8
文字
  6
CONTINUOUS
 10
66.922153
 20
-80.961157
 11
57.63435
 21
-80.961157
  0
LINE
  8
文字
  6
CONTINUOUS
 10
148.3695
 20
-40.29728
 11
148.3695
 21
-47.95727
  0
LINE
  8
文字
  6
CONTINUOUS
 10
111.78801
 20
-40.29728
 11
111.78801
 21
-47.95727
  0
TEXT
  7
TextStyle03
  8
文字
  6
CONTINUOUS
 10
60.05
 20
125.25
  1
シリーズ：ＴＦ２ＦＫＬ
 40
5.0
 72
     5
 11
121.3
 21
125.25
  0
TEXT
  7
TextStyle03
  8
文字
  6
CONTINUOUS
 10
60.05
 20
119.625
  1
　　　　　（固定）1300×4500タイプ
 40
5.0
 72
     5
 11
155.05
 21
119.625
  0
TEXT
  7
TextStyle03
  8
文字
  6
CONTINUOUS
 10
60.05
 20
114.0
  1
図面名　：外観姿図
 40
5.0
 72
     5
 11
110.05
 21
114.0
  0
TEXT
  7
TextStyle03
  8
文字
  6
CONTINUOUS
 10
60.05
 20
108.375
  1
　　　　　　
 40
5.0
 72
     5
 11
93.175
 21
108.375
  0
LINE
  8
文字
  6
CONTINUOUS
 10
35.012112
 20
14.252537
 11
35.012112
 21
11.752537
  0
LINE
  8
文字
  6
CONTINUOUS
 10
34.178778
 20
14.252537
 11
34.178778
 21
11.752537
  0
LINE
  8
文字
  6
CONTINUOUS
 10
-2.487888
 20
14.252537
 11
-2.487888
 21
11.752537
  0
LINE
  8
文字
  6
CONTINUOUS
 10
-3.321223
 20
14.252537
 11
-3.321223
 21
11.752537
  0
LINE
  8
文字
  6
CONTINUOUS
 10
-78.446223
 20
14.252537
 11
-78.446223
 21
11.752537
  0
LINE
  8
文字
  6
CONTINUOUS
 10
-77.612888
 20
14.252537
 11
-77.612888
 21
11.752537
  0
LINE
  8
文字
  6
CONTINUOUS
 10
-40.946223
 20
14.252537
 11
-40.946223
 21
11.752537
  0
LINE
  8
文字
  6
CONTINUOUS
 10
-40.112888
 20
14.252537
 11
-40.112888
 21
11.752537
  0
LINE
  8
文字
  6
CONTINUOUS
 10
35.012112
 20
55.878893
 11
35.012112
 21
58.378893
  0
LINE
  8
文字
  6
CONTINUOUS
 10
34.178778
 20
55.878893
 11
34.178778
 21
58.378893
  0
LINE
  8
文字
  6
CONTINUOUS
 10
-2.487888
 20
55.878893
 11
-2.487888
 21
58.378893
  0
LINE
  8
文字
  6
CONTINUOUS
 10
-3.321223
 20
55.878893
 11
-3.321223
 21
58.378893
  0
LINE
  8
文字
  6
CONTINUOUS
 10
-78.446223
 20
55.878893
 11
-78.446223
 21
58.378893
  0
LINE
  8
文字
  6
CONTINUOUS
 10
-77.612888
 20
55.878893
 11
-77.612888
 21
58.378893
  0
LINE
  8
文字
  6
CONTINUOUS
 10
-40.946223
 20
55.878893
 11
-40.946223
 21
58.378893
  0
LINE
  8
文字
  6
CONTINUOUS
 10
-40.112888
 20
55.878893
 11
-40.112888
 21
58.378893
  0
LINE
  8
文字
  6
CONTINUOUS
 10
17.157945
 20
15.08587
 11
14.657945
 21
15.08587
  0
LINE
  8
文字
  6
CONTINUOUS
 10
17.157945
 20
55.04556
 11
14.657945
 21
55.04556
  0
LINE
  8
文字
  6
CONTINUOUS
 10
-20.467055
 20
15.08587
 11
-22.967055
 21
15.08587
  0
LINE
  8
文字
  6
CONTINUOUS
 10
-20.467055
 20
55.04556
 11
-22.967055
 21
55.04556
  0
LINE
  8
文字
  6
CONTINUOUS
 10
-60.592055
 20
15.08587
 11
-58.092055
 21
15.08587
  0
LINE
  8
文字
  6
CONTINUOUS
 10
-60.592055
 20
55.04556
 11
-58.092055
 21
55.04556
  0
LINE
  8
文字
  6
CONTINUOUS
 10
52.429407
 20
34.649048
 11
54.929407
 21
34.649048
  0
LINE
  8
文字
  6
CONTINUOUS
 10
52.429407
 20
35.482382
 11
54.929407
 21
35.482382
  0
LINE
  8
文字
  6
CONTINUOUS
 10
-95.863518
 20
34.649048
 11
-98.363518
 21
34.649048
  0
LINE
  8
文字
  6
CONTINUOUS
 10
-95.863518
 20
35.482382
 11
-98.363518
 21
35.482382
  0
INSERT
  2
*DIM_0002
  8
寸法
  6
CONTINUOUS
 10
0.0
 20
0.0
  0
INSERT
  2
*DIM_0003
  8
寸法
  6
CONTINUOUS
 10
0.0
 20
0.0
  0
INSERT
  2
*DIM_0004
  8
寸法
  6
CONTINUOUS
 10
0.0
 20
0.0
  0
INSERT
  2
*DIM_0005
  8
寸法
  6
CONTINUOUS
 10
0.0
 20
0.0
  0
INSERT
  2
*DIM_0006
  8
寸法
  6
CONTINUOUS
 10
0.0
 20
0.0
  0
INSERT
  2
*DIM_0007
  8
寸法
  6
CONTINUOUS
 10
0.0
 20
0.0
  0
INSERT
  2
*DIM_0008
  8
寸法
  6
CONTINUOUS
 10
0.0
 20
0.0
  0
INSERT
  2
*DIM_0009
  8
寸法
  6
CONTINUOUS
 10
0.0
 20
0.0
  0
INSERT
  2
*DIM_0010
  8
寸法
  6
CONTINUOUS
 10
0.0
 20
0.0
  0
INSERT
  2
*DIM_0011
  8
寸法
  6
CONTINUOUS
 10
0.0
 20
0.0
  0
INSERT
  2
*DIM_0012
  8
寸法
  6
CONTINUOUS
 10
0.0
 20
0.0
  0
INSERT
  2
*DIM_0013
  8
寸法
  6
CONTINUOUS
 10
0.0
 20
0.0
  0
INSERT
  2
*DIM_0014
  8
寸法
  6
CONTINUOUS
 10
0.0
 20
0.0
  0
INSERT
  2
*DIM_0015
  8
寸法
  6
CONTINUOUS
 10
0.0
 20
0.0
  0
INSERT
  2
*DIM_0016
  8
寸法
  6
CONTINUOUS
 10
0.0
 20
0.0
  0
LINE
  8
別途部材
  6
CONTINUOUS
 62
    47
 10
114.88128
 20
58.378793
 11
114.947948
 21
58.378793
  0
ARC
  8
別途部材
  6
CONTINUOUS
 62
    47
 10
114.881274
 20
58.278794
 40
0.1
 50
90.0
 51
180.0
  0
LINE
  8
別途部材
  6
CONTINUOUS
 62
    47
 10
114.78128
 20
58.278793
 11
114.78128
 21
58.222272
  0
LINE
  8
別途部材
  6
CONTINUOUS
 62
    47
 10
116.447948
 20
58.222272
 11
114.947948
 21
58.222272
  0
LINE
  8
別途部材
  6
CONTINUOUS
 62
    47
 10
114.88128
 20
11.752537
 11
114.947948
 21
11.752537
  0
ARC
  8
別途部材
  6
CONTINUOUS
 62
    47
 10
114.881274
 20
11.852536
 40
0.1
 50
180.0
 51
270.0
  0
LINE
  8
別途部材
  6
CONTINUOUS
 62
    47
 10
114.78128
 20
11.852537
 11
114.78128
 21
11.909058
  0
LINE
  8
別途部材
  6
CONTINUOUS
 62
    47
 10
116.447948
 20
11.909058
 11
114.947948
 21
11.909058
  0
LINE
  8
別途部材
  6
CONTINUOUS
 62
    47
 10
-98.363518
 20
-77.74449
 11
-98.363518
 21
-77.811155
  0
ARC
  8
別途部材
  6
CONTINUOUS
 62
    47
 10
-98.263519
 20
-77.744485
 40
0.1
 50
90.0
 51
180.0
  0
LINE
  8
別途部材
  6
CONTINUOUS
 62
    47
 10
-98.263518
 20
-77.64449
 11
-98.206995
 21
-77.64449
  0
LINE
  8
別途部材
  6
CONTINUOUS
 62
    47
 10
-98.206995
 20
-79.311155
 11
-98.206995
 21
-77.811155
  0
LINE
  8
別途部材
  6
CONTINUOUS
 62
    47
 10
54.929407
 20
-77.74449
 11
54.929407
 21
-77.811155
  0
ARC
  8
別途部材
  6
CONTINUOUS
 62
    47
 10
54.829405
 20
-77.744485
 40
0.1
 50
0.0
 51
90.0
  0
LINE
  8
別途部材
  6
CONTINUOUS
 62
    47
 10
54.829407
 20
-77.64449
 11
54.772885
 21
-77.64449
  0
LINE
  8
別途部材
  6
CONTINUOUS
 62
    47
 10
54.772885
 20
-79.311155
 11
54.772885
 21
-77.811155
  0
LINE
  8
曲げ物
  6
CONTINUOUS
 10
38.008675
 20
37.022003
 11
34.313363
 21
33.32669
  0
LINE
  8
曲げ物
  6
CONTINUOUS
 10
37.305205
 20
35.485893
 11
35.849475
 21
34.030163
  0
LINE
  8
曲げ物
  6
CONTINUOUS
 10
36.472565
 20
36.318533
 11
35.016835
 21
34.862803
  0
LINE
  8
曲げ物
  6
CONTINUOUS
 10
0.648378
 20
37.022003
 11
-3.046935
 21
33.32669
  0
LINE
  8
曲げ物
  6
CONTINUOUS
 10
-0.055092
 20
35.485893
 11
-1.510822
 21
34.030163
  0
LINE
  8
曲げ物
  6
CONTINUOUS
 10
-0.887733
 20
36.318533
 11
-2.343462
 21
34.862803
  0
LINE
  8
曲げ物
  6
CONTINUOUS
 10
-38.87158
 20
37.022003
 11
-42.566892
 21
33.32669
  0
LINE
  8
曲げ物
  6
CONTINUOUS
 10
-39.57505
 20
35.485893
 11
-41.03078
 21
34.030163
  0
LINE
  8
曲げ物
  6
CONTINUOUS
 10
-40.40769
 20
36.318533
 11
-41.86342
 21
34.862803
  0
LINE
  8
曲げ物
  6
CONTINUOUS
 10
-77.815385
 20
37.022003
 11
-81.510697
 21
33.32669
  0
LINE
  8
曲げ物
  6
CONTINUOUS
 10
-78.518855
 20
35.485893
 11
-79.974585
 21
34.030163
  0
LINE
  8
曲げ物
  6
CONTINUOUS
 10
-79.351495
 20
36.318533
 11
-80.807225
 21
34.862803
  0
LINE
  8
曲げ物
  6
CONTINUOUS
 10
148.3695
 20
-92.533713
 11
148.3695
 21
-49.867045
  0
LINE
  8
曲げ物
  6
CONTINUOUS
 10
111.9095
 20
-92.533713
 11
111.9095
 21
-49.867045
  0
LINE
  8
曲げ物
  6
CONTINUOUS
 10
148.3695
 20
-49.867045
 11
111.9095
 21
-49.867045
  0
LINE
  8
曲げ物
  6
CONTINUOUS
 10
148.3695
 20
-92.533713
 11
111.9095
 21
-92.533713
  0
CIRCLE
  8
LAYER010
  6
CONTINUOUS
 62
    47
 10
117.59795
 20
59.732323
 40
0.011113
  0
CIRCLE
  8
LAYER010
  6
CONTINUOUS
 62
    47
 10
117.59795
 20
10.399007
 40
0.011113
  0
CIRCLE
  8
LAYER010
  6
CONTINUOUS
 62
    47
 10
-99.717047
 20
-80.46116
 40
0.011113
  0
CIRCLE
  8
LAYER010
  6
CONTINUOUS
 62
    47
 10
56.282937
 20
-80.46116
 40
0.011113
  0
ENDSEC
  0
EOF
