  0
SECTION
  2
HEADER
  9
$EXTMIN
 10
-210.0
 20
-148.5
  9
$EXTMAX
 10
210.0
 20
148.5
  9
$PDMODE
 70
    32
  9
$PDSIZE
 40
1.5
  9
$LTSCALE
 40
10.0
  0
ENDSEC
  0
SECTION
  2
TABLES
  0
TABLE
  2
LTYPE
 70
    15
  0
LTYPE
  2
CONTINUOUS
 70
    64
  3
実線
 72
    65
 73
     0
 40
0.0
  0
LTYPE
  2
DASHED
 70
    64
  3
破線A
 72
    65
 73
     2
 40
0.6
 49
0.4
 49
-0.2
  0
LTYPE
  2
DASHEDX2
 70
    64
  3
破線B
 72
    65
 73
     2
 40
1.3
 49
0.9
 49
-0.4
  0
LTYPE
  2
DASHDOT
 70
    64
  3
１点鎖線A
 72
    65
 73
     4
 40
0.5375
 49
0.375
 49
-0.05
 49
0.0625
 49
-0.05
  0
LTYPE
  2
DASHDOTX2
 70
    64
  3
１点鎖線B
 72
    65
 73
     4
 40
1.075
 49
0.75
 49
-0.1
 49
0.125
 49
-0.1
  0
LTYPE
  2
DIVIDE2
 70
    64
  3
２点鎖線A
 72
    65
 73
     6
 40
0.5125
 49
0.3
 49
-0.0375
 49
0.05
 49
-0.0375
 49
0.05
 49
-0.0375
  0
LTYPE
  2
DIVIDE
 70
    64
  3
２点鎖線B
 72
    65
 73
     6
 40
1.05
 49
0.55
 49
-0.1
 49
0.1
 49
-0.1
 49
0.1
 49
-0.1
  0
LTYPE
  2
DOT
 70
    64
  3
点線A
 72
    65
 73
     2
 40
0.1125
 49
0.0625
 49
-0.05
  0
LTYPE
  2
DOTX2
 70
    64
  3
点線B
 72
    65
 73
     2
 40
0.275
 49
0.15
 49
-0.125
  0
LTYPE
  2
CONTINUOUS
 70
    64
  3
実線
 72
    65
 73
     0
 40
0.0
  0
LTYPE
  2
CONTINUOUS
 70
    64
  3
実線
 72
    65
 73
     0
 40
0.0
  0
LTYPE
  2
CONTINUOUS
 70
    64
  3
実線
 72
    65
 73
     0
 40
0.0
  0
LTYPE
  2
CONTINUOUS
 70
    64
  3
実線
 72
    65
 73
     0
 40
0.0
  0
LTYPE
  2
CONTINUOUS
 70
    64
  3
実線
 72
    65
 73
     0
 40
0.0
  0
LTYPE
  2
CONTINUOUS
 70
    64
  3
実線
 72
    65
 73
     0
 40
0.0
  0
ENDTAB
  0
TABLE
  2
LAYER
 70
    35
  0
LAYER
  2
通り芯
 70
     0
 62
    15
  6
CONTINUOUS
  0
LAYER
  2
補助線
 70
     0
 62
    16
  6
DOT
  0
LAYER
  2
躯体
 70
     0
 62
    31
  6
CONTINUOUS
  0
LAYER
  2
型材
 70
     0
 62
    32
  6
CONTINUOUS
  0
LAYER
  2
型材断面
 70
     0
 62
    47
  6
CONTINUOUS
  0
LAYER
  2
ガラス
 70
     0
 62
    48
  6
CONTINUOUS
  0
LAYER
  2
ゴム等
 70
     0
 62
    63
  6
CONTINUOUS
  0
LAYER
  2
ボルト／ビス
 70
     0
 62
    64
  6
CONTINUOUS
  0
LAYER
  2
文字
 70
     0
 62
    79
  6
CONTINUOUS
  0
LAYER
  2
寸法
 70
     0
 62
    80
  6
CONTINUOUS
  0
LAYER
  2
ﾊｯﾁﾝｸﾞ
 70
     0
 62
    95
  6
CONTINUOUS
  0
LAYER
  2
別途部材
 70
     0
 62
    96
  6
CONTINUOUS
  0
LAYER
  2
曲げ物
 70
     0
 62
   111
  6
CONTINUOUS
  0
LAYER
  2
鉄骨等
 70
     0
 62
   112
  6
CONTINUOUS
  0
LAYER
  2
St
 70
     0
 62
   127
  6
CONTINUOUS
  0
LAYER
  2
その他部品等
 70
     0
 62
   128
  6
CONTINUOUS
  0
LAYER
  2
ｶﾞｽｹｯﾄ
 70
     0
 62
   143
  6
CONTINUOUS
  0
LAYER
  2
ｽｹｯﾁ
 70
     0
 62
    14
  6
CONTINUOUS
  0
LAYER
  2
0
 70
     0
 62
    17
  6
CONTINUOUS
  0
LAYER
  2
1
 70
     0
 62
    30
  6
CONTINUOUS
  0
LAYER
  2
4
 70
     0
 62
    33
  6
CONTINUOUS
  0
LAYER
  2
ﾚｲﾔ3
 70
     0
 62
    46
  6
CONTINUOUS
  0
LAYER
  2
外形線
 70
     0
 62
    49
  6
CONTINUOUS
  0
LAYER
  2
部品
 70
     0
 62
    14
  6
CONTINUOUS
  0
LAYER
  2
サッシ芯
 70
     0
 62
    17
  6
DASHDOTX2
  0
LAYER
  2
寸法線
 70
     0
 62
    62
  6
CONTINUOUS
  0
LAYER
  2
姿図外形線
 70
     0
 62
    65
  6
CONTINUOUS
  0
LAYER
  2
姿補助線
 70
     0
 62
    30
  6
CONTINUOUS
  0
LAYER
  2
透視線
 70
     0
 62
    78
  6
DOT
  0
LAYER
  2
用紙
 70
     0
 62
    81
  6
CONTINUOUS
  0
LAYER
  2
実線図枠
 70
     0
 62
    94
  6
CONTINUOUS
  0
LAYER
  2
補助図枠
 70
     0
 62
    97
  6
CONTINUOUS
  0
LAYER
  2
建具記号
 70
     0
 62
   110
  6
CONTINUOUS
  0
LAYER
  2
補助文字
 70
     0
 62
   113
  6
CONTINUOUS
  0
LAYER
  2
LAYER010
 70
     0
 62
    11
  6
CONTINUOUS
  0
ENDTAB
  0
TABLE
  2
STYLE
 70
    10
  0
STYLE
  2
STANDARD
 70
     0
 40
1.0
 41
1.0
 42
1.0
 50
0.0
 71
     0
  3
TXT
  4
BIGFONT
  0
STYLE
  2
TATE
 70
     4
 40
1.0
 41
1.0
 42
1.0
 50
0.0
 71
     0
  3
TXT
  4
BIGFONT
  0
STYLE
  2
TextStyle03
 70
     0
 40
1.0
 41
1.0
 42
1.0
 50
0.0
 71
     0
  3
MONOTXT
  4
BIGFONT
  0
STYLE
  2
TextStyle04
 70
     0
 40
1.0
 41
1.0
 42
1.0
 50
0.0
 71
     0
  3
MONOTXT
  4
BIGFONT
  0
STYLE
  2
TextStyle05
 70
     0
 40
1.0
 41
1.0
 42
1.0
 50
0.0
 71
     0
  3
MONOTXT
  4
BIGFONT
  0
STYLE
  2
TextStyle06
 70
     0
 40
1.0
 41
1.0
 42
1.0
 50
0.0
 71
     0
  3
MONOTXT
  4
BIGFONT
  0
STYLE
  2
TextStyle07
 70
     0
 40
1.0
 41
1.0
 42
1.0
 50
0.0
 71
     0
  3
MONOTXT
  4
BIGFONT
  0
STYLE
  2
TextStyle08
 70
     0
 40
1.0
 41
1.0
 42
1.0
 50
0.0
 71
     0
  3
MONOTXT
  4
BIGFONT
  0
STYLE
  2
TextStyle09
 70
     0
 40
1.0
 41
1.0
 42
1.0
 50
0.0
 71
     0
  3
MONOTXT
  4
BIGFONT
  0
STYLE
  2
TextStyle10
 70
     0
 40
1.0
 41
1.0
 42
1.0
 50
0.0
 71
     0
  3
MONOTXT
  4
BIGFONT
  0
ENDTAB
  0
ENDSEC
  0
SECTION
  2
BLOCKS
  0
BLOCK
  2
*GRP_0001
 70
    65
 10
0.0
 20
0.0
  0
LINE
  8
型材断面
  6
CONTINUOUS
 10
195.0
 20
133.5
 11
195.0
 21
-133.5
  0
LINE
  8
型材断面
  6
CONTINUOUS
 10
195.0
 20
-133.5
 11
-185.0
 21
-133.5
  0
LINE
  8
型材断面
  6
CONTINUOUS
 10
-185.0
 20
-133.5
 11
-185.0
 21
133.5
  0
LINE
  8
型材断面
  6
CONTINUOUS
 10
195.0
 20
133.5
 11
-185.0
 21
133.5
  0
LINE
  8
型材断面
  6
CONTINUOUS
 10
145.0
 20
-133.5
 11
145.0
 21
-118.5
  0
LINE
  8
型材断面
  6
CONTINUOUS
 10
195.0
 20
-118.5
 11
145.0
 21
-118.5
  0
ENDBLK
  0
BLOCK
  2
*DIM_0002
 70
    65
 10
0.0
 20
0.0
  0
LINE
  8
寸法
  6
BYBLOCK
 62
     0
 10
71.257007
 20
-22.536362
 11
-112.076325
 21
-22.536362
  0
POINT
  8
寸法
 62
     0
 10
71.257007
 20
-22.536362
  0
POINT
  8
寸法
 62
     0
 10
-112.076325
 20
-22.536362
  0
TEXT
  7
TextStyle03
  8
寸法
  6
CONTINUOUS
 62
     0
 10
-32.14375
 20
-22.175
  1
呼称寸法　5500
 40
3.0
 72
     5
 11
-8.70625
 21
-22.175
  0
ENDBLK
  0
BLOCK
  2
*DIM_0003
 70
    65
 10
0.0
 20
0.0
  0
LINE
  8
寸法
  6
BYBLOCK
 62
     0
 10
-95.409657
 20
9.76892
 11
-95.409657
 21
4.438815
  0
LINE
  8
寸法
  6
BYBLOCK
 62
     0
 10
-20.40966
 20
9.76892
 11
-20.40966
 21
4.438815
  0
LINE
  8
寸法
  6
BYBLOCK
 62
     0
 10
-95.409657
 20
4.438815
 11
-20.40966
 21
4.438815
  0
POINT
  8
寸法
 62
     0
 10
-95.409657
 20
4.438815
  0
POINT
  8
寸法
 62
     0
 10
-20.40966
 20
4.438815
  0
TEXT
  7
TextStyle03
  8
寸法
  6
CONTINUOUS
 62
     0
 10
-61.20625
 20
4.8
  1
2250
 40
3.0
 72
     5
 11
-54.64375
 21
4.8
  0
ENDBLK
  0
BLOCK
  2
*DIM_0004
 70
    65
 10
0.0
 20
0.0
  0
LINE
  8
寸法
  6
BYBLOCK
 62
     0
 10
54.590337
 20
9.76892
 11
54.590337
 21
4.438815
  0
LINE
  8
寸法
  6
BYBLOCK
 62
     0
 10
-20.40966
 20
4.438815
 11
54.590337
 21
4.438815
  0
POINT
  8
寸法
 62
     0
 10
54.590337
 20
4.438815
  0
TEXT
  7
TextStyle03
  8
寸法
  6
CONTINUOUS
 62
     0
 10
13.79375
 20
4.8
  1
2250
 40
3.0
 72
     5
 11
20.35625
 21
4.8
  0
ENDBLK
  0
BLOCK
  2
*DIM_0005
 70
    65
 10
0.0
 20
0.0
  0
LINE
  8
寸法
  6
BYBLOCK
 62
     0
 10
74.257052
 20
-78.991382
 11
74.257052
 21
-22.536362
  0
LINE
  8
寸法
  6
BYBLOCK
 62
     0
 10
71.257007
 20
-22.536362
 11
74.257052
 21
-22.536362
  0
POINT
  8
寸法
 62
     0
 10
71.257007
 20
-22.536362
  0
POINT
  8
寸法
 62
     0
 10
74.257052
 20
-22.536362
  0
TEXT
  7
TextStyle03
  8
寸法
  6
CONTINUOUS
 62
     0
 10
71.13125
 20
-22.175
  1
90
 40
3.0
 72
     5
 11
74.31875
 21
-22.175
  0
ENDBLK
  0
BLOCK
  2
*DIM_0006
 70
    65
 10
0.0
 20
0.0
  0
LINE
  8
寸法
  6
BYBLOCK
 62
     0
 10
-115.076372
 20
-78.991382
 11
-115.076372
 21
-22.536362
  0
LINE
  8
寸法
  6
BYBLOCK
 62
     0
 10
-112.076328
 20
-22.536362
 11
-115.076372
 21
-22.536362
  0
POINT
  8
寸法
 62
     0
 10
-112.076328
 20
-22.536362
  0
POINT
  8
寸法
 62
     0
 10
-115.076372
 20
-22.536362
  0
TEXT
  7
TextStyle03
  8
寸法
  6
CONTINUOUS
 62
     0
 10
-115.19375
 20
-22.175
  1
90
 40
3.0
 72
     5
 11
-112.00625
 21
-22.175
  0
ENDBLK
  0
BLOCK
  2
*DIM_0007
 70
    65
 10
0.0
 20
0.0
  0
LINE
  8
寸法
  6
BYBLOCK
 62
     0
 10
167.343563
 20
-49.867045
 11
175.77841
 21
-49.867045
  0
LINE
  8
寸法
  6
BYBLOCK
 62
     0
 10
167.343563
 20
-92.533713
 11
175.77841
 21
-92.533713
  0
LINE
  8
寸法
  6
BYBLOCK
 62
     0
 10
175.77841
 20
-49.867045
 11
175.77841
 21
-92.533713
  0
POINT
  8
寸法
 62
     0
 10
175.77841
 20
-49.867045
  0
POINT
  8
寸法
 62
     0
 10
175.77841
 20
-92.533713
  0
TEXT
  7
TextStyle03
  8
寸法
  6
CONTINUOUS
 62
     0
 10
175.4
 20
-74.48125
  1
1280
 40
3.0
 50
90.0
 72
     5
 11
175.4
 21
-67.91875
  0
ENDBLK
  0
BLOCK
  2
*DIM_0008
 70
    65
 10
0.0
 20
0.0
  0
LINE
  8
寸法
  6
BYBLOCK
 62
     0
 10
-115.076325
 20
23.399048
 11
-144.02149
 21
23.399048
  0
LINE
  8
寸法
  6
BYBLOCK
 62
     0
 10
-115.076325
 20
46.732382
 11
-144.02149
 21
46.732382
  0
LINE
  8
寸法
  6
BYBLOCK
 62
     0
 10
-144.02149
 20
23.399048
 11
-144.02149
 21
46.732382
  0
POINT
  8
寸法
 62
     0
 10
-144.02149
 20
23.399048
  0
POINT
  8
寸法
 62
     0
 10
-144.02149
 20
46.732382
  0
TEXT
  7
TextStyle03
  8
寸法
  6
CONTINUOUS
 62
     0
 10
-144.35
 20
32.6125
  1
700
 40
3.0
 50
90.0
 72
     5
 11
-144.35
 21
37.4875
  0
ENDBLK
  0
BLOCK
  2
*DIM_0009
 70
    65
 10
0.0
 20
0.0
  0
LINE
  8
寸法
  6
BYBLOCK
 62
     0
 10
-100.40966
 20
59.73238
 11
-100.40966
 21
88.840452
  0
LINE
  8
寸法
  6
BYBLOCK
 62
     0
 10
-73.742993
 20
59.73238
 11
-73.742993
 21
88.840452
  0
LINE
  8
寸法
  6
BYBLOCK
 62
     0
 10
-100.40966
 20
88.840452
 11
-73.742993
 21
88.840452
  0
POINT
  8
寸法
 62
     0
 10
-100.40966
 20
88.840452
  0
POINT
  8
寸法
 62
     0
 10
-73.742993
 20
88.840452
  0
TEXT
  7
TextStyle03
  8
寸法
  6
CONTINUOUS
 62
     0
 10
-89.5375
 20
89.2
  1
800
 40
3.0
 72
     5
 11
-84.6625
 21
89.2
  0
ENDBLK
  0
BLOCK
  2
*DIM_0010
 70
    65
 10
0.0
 20
0.0
  0
LINE
  8
寸法
  6
BYBLOCK
 62
     0
 10
-47.076328
 20
59.73238
 11
-47.076328
 21
88.840452
  0
LINE
  8
寸法
  6
BYBLOCK
 62
     0
 10
-73.742993
 20
88.840452
 11
-47.076328
 21
88.840452
  0
POINT
  8
寸法
 62
     0
 10
-47.076328
 20
88.840452
  0
TEXT
  7
TextStyle03
  8
寸法
  6
CONTINUOUS
 62
     0
 10
-62.8625
 20
89.2
  1
800
 40
3.0
 72
     5
 11
-57.9875
 21
89.2
  0
ENDBLK
  0
BLOCK
  2
*DIM_0011
 70
    65
 10
0.0
 20
0.0
  0
LINE
  8
寸法
  6
BYBLOCK
 62
     0
 10
-20.40966
 20
59.73238
 11
-20.40966
 21
88.840452
  0
LINE
  8
寸法
  6
BYBLOCK
 62
     0
 10
-47.076328
 20
88.840452
 11
-20.40966
 21
88.840452
  0
POINT
  8
寸法
 62
     0
 10
-20.40966
 20
88.840452
  0
TEXT
  7
TextStyle03
  8
寸法
  6
CONTINUOUS
 62
     0
 10
-36.1875
 20
89.2
  1
800
 40
3.0
 72
     5
 11
-31.3125
 21
89.2
  0
ENDBLK
  0
BLOCK
  2
*DIM_0012
 70
    65
 10
0.0
 20
0.0
  0
LINE
  8
寸法
  6
BYBLOCK
 62
     0
 10
6.257007
 20
59.73238
 11
6.257007
 21
88.840452
  0
LINE
  8
寸法
  6
BYBLOCK
 62
     0
 10
-20.40966
 20
88.840452
 11
6.257007
 21
88.840452
  0
POINT
  8
寸法
 62
     0
 10
6.257007
 20
88.840452
  0
TEXT
  7
TextStyle03
  8
寸法
  6
CONTINUOUS
 62
     0
 10
-9.5375
 20
89.2
  1
800
 40
3.0
 72
     5
 11
-4.6625
 21
89.2
  0
ENDBLK
  0
BLOCK
  2
*DIM_0013
 70
    65
 10
0.0
 20
0.0
  0
LINE
  8
寸法
  6
BYBLOCK
 62
     0
 10
32.923673
 20
59.73238
 11
32.923673
 21
88.840452
  0
LINE
  8
寸法
  6
BYBLOCK
 62
     0
 10
6.257007
 20
88.840452
 11
32.923673
 21
88.840452
  0
POINT
  8
寸法
 62
     0
 10
32.923673
 20
88.840452
  0
TEXT
  7
TextStyle03
  8
寸法
  6
CONTINUOUS
 62
     0
 10
17.1375
 20
89.2
  1
800
 40
3.0
 72
     5
 11
22.0125
 21
89.2
  0
ENDBLK
  0
BLOCK
  2
*DIM_0014
 70
    65
 10
0.0
 20
0.0
  0
LINE
  8
寸法
  6
BYBLOCK
 62
     0
 10
59.59034
 20
59.73238
 11
59.59034
 21
88.840452
  0
LINE
  8
寸法
  6
BYBLOCK
 62
     0
 10
32.923673
 20
88.840452
 11
59.59034
 21
88.840452
  0
POINT
  8
寸法
 62
     0
 10
59.59034
 20
88.840452
  0
TEXT
  7
TextStyle03
  8
寸法
  6
CONTINUOUS
 62
     0
 10
43.8125
 20
89.2
  1
800
 40
3.0
 72
     5
 11
48.6875
 21
89.2
  0
ENDBLK
  0
BLOCK
  2
*DIM_0015
 70
    65
 10
0.0
 20
0.0
  0
LINE
  8
寸法
  6
CONTINUOUS
 10
126.239788
 20
70.37154
 11
129.556455
 21
70.37154
  0
POINT
  8
寸法
 10
126.239788
 20
70.37154
  0
POINT
  8
寸法
 10
129.556455
 20
70.37154
  0
TEXT
  7
TextStyle03
  8
寸法
  6
CONTINUOUS
 10
124.39375
 20
70.55
  1
99.5
 40
3.0
 72
     5
 11
130.95625
 21
70.55
  0
ENDBLK
  0
BLOCK
  2
*DIM_0016
 70
    65
 10
0.0
 20
0.0
  0
LINE
  8
寸法
  6
CONTINUOUS
 10
84.896215
 20
-77.804983
 11
84.896215
 21
-81.12165
  0
POINT
  8
寸法
 10
84.896215
 20
-77.804983
  0
POINT
  8
寸法
 10
84.896215
 20
-81.12165
  0
TEXT
  7
TextStyle03
  8
寸法
  6
CONTINUOUS
 10
88.025
 20
-82.68125
  1
99.5
 40
3.0
 50
90.0
 72
     5
 11
88.025
 21
-76.11875
  0
ENDBLK
  0
BLOCK
  2
*DIM_0017
 70
    65
 10
0.0
 20
0.0
  0
LINE
  8
寸法
  6
CONTINUOUS
 10
166.343563
 20
-40.755577
 11
130.743563
 21
-40.755577
  0
POINT
  8
寸法
 10
166.343563
 20
-40.755577
  0
POINT
  8
寸法
 10
130.743563
 20
-40.755577
  0
TEXT
  7
TextStyle03
  8
寸法
  6
CONTINUOUS
 10
145.24375
 20
-40.4
  1
1068
 40
3.0
 72
     5
 11
151.80625
 21
-40.4
  0
ENDBLK
  0
ENDSEC
  0
SECTION
  2
ENTITIES
  0
POLYLINE
  8
通り芯
  6
CONTINUOUS
 66
     1
 70
     1
  0
VERTEX
  8
通り芯
 10
-210.0
 20
-148.5
  0
VERTEX
  8
通り芯
 10
210.0
 20
-148.5
  0
VERTEX
  8
通り芯
 10
210.0
 20
148.5
  0
VERTEX
  8
通り芯
 10
-210.0
 20
148.5
  0
SEQEND
  0
INSERT
  2
*GRP_0001
  8
型材断面
  6
CONTINUOUS
 10
0.0
 20
0.0
  0
LINE
  8
型材断面
  6
DASHDOT
 10
71.257007
 20
-87.251428
 11
71.257007
 21
56.73238
  0
LINE
  8
型材断面
  6
DASHDOT
 10
-112.076325
 20
-87.251428
 11
-112.076325
 21
56.73238
  0
LINE
  8
型材断面
  6
DASHDOT
 10
-20.40966
 20
-87.251428
 11
-20.40966
 21
56.73238
  0
LINE
  8
型材断面
  6
CONTINUOUS
 10
-114.706455
 20
35.065715
 11
-117.296962
 21
36.561345
  0
LINE
  8
型材断面
  6
CONTINUOUS
 10
-114.706455
 20
35.065715
 11
-117.296962
 21
33.570085
  0
LINE
  8
型材断面
  6
CONTINUOUS
 10
-117.296962
 20
33.570085
 11
-117.296962
 21
36.561345
  0
LINE
  8
型材断面
  6
CONTINUOUS
 10
-95.409657
 20
59.36251
 11
-96.905288
 21
61.953017
  0
LINE
  8
型材断面
  6
CONTINUOUS
 10
-95.409657
 20
59.36251
 11
-93.914027
 21
61.953017
  0
LINE
  8
型材断面
  6
CONTINUOUS
 10
-93.914027
 20
61.953017
 11
-96.905288
 21
61.953017
  0
LINE
  8
型材断面
  6
CONTINUOUS
 10
-152.928532
 20
101.239727
 11
-154.424162
 21
98.64922
  0
LINE
  8
型材断面
  6
CONTINUOUS
 10
-152.928532
 20
101.239727
 11
-151.432903
 21
98.64922
  0
LINE
  8
型材断面
  6
CONTINUOUS
 10
-151.432903
 20
98.64922
 11
-154.424162
 21
98.64922
  0
LINE
  8
型材断面
  6
CONTINUOUS
 10
-158.95112
 20
97.710625
 11
-112.709343
 21
97.710625
  0
LINE
  8
型材断面
  6
CONTINUOUS
 10
-95.409657
 20
10.76892
 11
-96.905288
 21
8.178413
  0
LINE
  8
型材断面
  6
CONTINUOUS
 10
-95.409657
 20
10.76892
 11
-93.914027
 21
8.178413
  0
LINE
  8
型材断面
  6
CONTINUOUS
 10
-93.914027
 20
8.178413
 11
-96.905288
 21
8.178413
  0
LINE
  8
型材断面
  6
CONTINUOUS
 10
73.887135
 20
35.065715
 11
76.477643
 21
36.561345
  0
LINE
  8
型材断面
  6
CONTINUOUS
 10
73.887135
 20
35.065715
 11
76.477643
 21
33.570085
  0
LINE
  8
型材断面
  6
CONTINUOUS
 10
76.477643
 20
33.570085
 11
76.477643
 21
36.561345
  0
LINE
  8
型材断面
  6
CONTINUOUS
 10
54.590337
 20
59.36251
 11
56.085967
 21
61.953017
  0
LINE
  8
型材断面
  6
CONTINUOUS
 10
54.590337
 20
59.36251
 11
53.094708
 21
61.953017
  0
LINE
  8
型材断面
  6
CONTINUOUS
 10
53.094708
 20
61.953017
 11
56.085967
 21
61.953017
  0
LINE
  8
型材断面
  6
CONTINUOUS
 10
54.590337
 20
10.76892
 11
56.085967
 21
8.178413
  0
LINE
  8
型材断面
  6
CONTINUOUS
 10
54.590337
 20
10.76892
 11
53.094708
 21
8.178413
  0
LINE
  8
型材断面
  6
CONTINUOUS
 10
53.094708
 20
8.178413
 11
56.085967
 21
8.178413
  0
LINE
  8
型材断面
  6
CONTINUOUS
 10
-20.40966
 20
59.36251
 11
-21.90529
 21
61.953017
  0
LINE
  8
型材断面
  6
CONTINUOUS
 10
-20.40966
 20
59.36251
 11
-18.91403
 21
61.953017
  0
LINE
  8
型材断面
  6
CONTINUOUS
 10
-18.91403
 20
61.953017
 11
-21.90529
 21
61.953017
  0
LINE
  8
型材断面
  6
CONTINUOUS
 10
-20.40966
 20
10.76892
 11
-21.90529
 21
8.178413
  0
LINE
  8
型材断面
  6
CONTINUOUS
 10
-20.40966
 20
10.76892
 11
-18.91403
 21
8.178413
  0
LINE
  8
型材断面
  6
CONTINUOUS
 10
-18.91403
 20
8.178413
 11
-21.90529
 21
8.178413
  0
LINE
  8
型材断面
  6
CONTINUOUS
 10
-158.95112
 20
91.25877
 11
-112.709343
 21
91.25877
  0
LINE
  8
型材断面
  6
DASHDOT
 10
-112.076325
 20
35.065715
 11
71.257007
 21
35.065715
  0
LINE
  8
型材断面
  6
CONTINUOUS
 10
-115.076372
 20
10.399007
 11
-20.40966
 21
10.399007
  0
LINE
  8
型材断面
  6
CONTINUOUS
 10
-115.076372
 20
59.732423
 11
-20.40966
 21
59.732423
  0
LINE
  8
型材断面
  6
CONTINUOUS
 10
74.257052
 20
59.732423
 11
-20.40966
 21
59.732423
  0
LINE
  8
型材断面
  6
CONTINUOUS
 10
74.257052
 20
10.399007
 11
-20.40966
 21
10.399007
  0
CIRCLE
  8
型材断面
  6
CONTINUOUS
 62
    47
 10
129.056458
 20
59.732323
 40
0.011113
  0
LINE
  8
型材断面
  6
CONTINUOUS
 62
    47
 10
129.556455
 20
59.232332
 11
129.556455
 21
59.732323
  0
LINE
  8
型材断面
  6
CONTINUOUS
 62
    47
 10
129.556455
 20
59.732323
 11
129.056458
 21
59.732323
  0
LINE
  8
型材断面
  6
CONTINUOUS
 62
    47
 10
129.056458
 20
59.732323
 11
128.559277
 21
56.798992
  0
LINE
  8
型材断面
  6
CONTINUOUS
 62
    47
 10
129.556455
 20
59.232332
 11
130.056455
 21
59.232332
  0
LINE
  8
型材断面
  6
CONTINUOUS
 62
    47
 10
128.559277
 20
56.798992
 11
127.906455
 21
56.798992
  0
CIRCLE
  8
型材断面
  6
CONTINUOUS
 62
    47
 10
129.056458
 20
10.399007
 40
0.011113
  0
LINE
  8
型材断面
  6
CONTINUOUS
 62
    47
 10
129.556455
 20
10.898998
 11
129.556455
 21
10.399007
  0
LINE
  8
型材断面
  6
CONTINUOUS
 62
    47
 10
129.556455
 20
10.399007
 11
129.056458
 21
10.399007
  0
LINE
  8
型材断面
  6
CONTINUOUS
 62
    47
 10
129.056458
 20
10.399007
 11
128.559277
 21
13.332337
  0
LINE
  8
型材断面
  6
CONTINUOUS
 62
    47
 10
129.556455
 20
10.898998
 11
130.056455
 21
10.898998
  0
LINE
  8
型材断面
  6
CONTINUOUS
 62
    47
 10
128.559277
 20
13.332337
 11
127.906455
 21
13.332337
  0
LINE
  8
型材断面
  6
DOT
 10
137.032465
 20
35.065665
 11
126.239788
 21
35.065665
  0
LINE
  8
型材断面
  6
CONTINUOUS
 62
    47
 10
126.406455
 20
11.752537
 11
126.406455
 21
35.065665
  0
LINE
  8
型材断面
  6
CONTINUOUS
 62
    47
 10
126.239788
 20
11.909058
 11
126.239788
 21
35.065665
  0
LINE
  8
型材断面
  6
CONTINUOUS
 62
    47
 10
127.906455
 20
11.909058
 11
127.906455
 21
35.065665
  0
LINE
  8
型材断面
  6
CONTINUOUS
 10
128.559277
 20
13.332285
 11
128.559277
 21
35.065665
  0
LINE
  8
型材断面
  6
CONTINUOUS
 10
129.05646
 20
10.398953
 11
129.05646
 21
35.065665
  0
LINE
  8
型材断面
  6
CONTINUOUS
 62
    47
 10
129.556455
 20
10.398953
 11
129.556455
 21
35.065665
  0
LINE
  8
型材断面
  6
CONTINUOUS
 10
130.056455
 20
10.898942
 11
130.056455
 21
35.065665
  0
LINE
  8
型材断面
  6
CONTINUOUS
 62
    47
 10
129.556455
 20
59.732378
 11
129.556455
 21
35.065665
  0
LINE
  8
型材断面
  6
CONTINUOUS
 10
128.559277
 20
56.799045
 11
128.559277
 21
35.065665
  0
LINE
  8
型材断面
  6
CONTINUOUS
 62
    47
 10
126.406455
 20
58.378793
 11
126.406455
 21
35.065665
  0
LINE
  8
型材断面
  6
CONTINUOUS
 62
    47
 10
126.239788
 20
58.222272
 11
126.239788
 21
35.065665
  0
LINE
  8
型材断面
  6
CONTINUOUS
 62
    47
 10
127.906455
 20
58.222272
 11
127.906455
 21
35.065665
  0
LINE
  8
型材断面
  6
CONTINUOUS
 10
129.05646
 20
59.732378
 11
129.05646
 21
35.065665
  0
LINE
  8
型材断面
  6
CONTINUOUS
 10
130.056455
 20
59.232388
 11
130.056455
 21
35.065665
  0
CIRCLE
  8
型材断面
  6
CONTINUOUS
 62
    47
 10
-115.076318
 20
-80.621652
 40
0.011113
  0
LINE
  8
型材断面
  6
CONTINUOUS
 62
    47
 10
-114.576328
 20
-81.12165
 11
-115.076318
 21
-81.12165
  0
LINE
  8
型材断面
  6
CONTINUOUS
 62
    47
 10
-115.076318
 20
-81.12165
 11
-115.076318
 21
-80.621652
  0
LINE
  8
型材断面
  6
CONTINUOUS
 62
    47
 10
-115.076318
 20
-80.621652
 11
-112.142987
 21
-80.124472
  0
LINE
  8
型材断面
  6
CONTINUOUS
 62
    47
 10
-114.576328
 20
-81.12165
 11
-114.576328
 21
-81.62165
  0
LINE
  8
型材断面
  6
CONTINUOUS
 62
    47
 10
-112.142987
 20
-80.124472
 11
-112.142987
 21
-79.47165
  0
CIRCLE
  8
型材断面
  6
CONTINUOUS
 62
    47
 10
74.256998
 20
-80.621652
 40
0.011113
  0
LINE
  8
型材断面
  6
CONTINUOUS
 62
    47
 10
73.757007
 20
-81.12165
 11
74.256998
 21
-81.12165
  0
LINE
  8
型材断面
  6
CONTINUOUS
 62
    47
 10
74.256998
 20
-81.12165
 11
74.256998
 21
-80.621652
  0
LINE
  8
型材断面
  6
CONTINUOUS
 62
    47
 10
74.256998
 20
-80.621652
 11
71.323668
 21
-80.124472
  0
LINE
  8
型材断面
  6
CONTINUOUS
 62
    47
 10
73.757007
 20
-81.12165
 11
73.757007
 21
-81.62165
  0
LINE
  8
型材断面
  6
CONTINUOUS
 62
    47
 10
71.323668
 20
-80.124472
 11
71.323668
 21
-79.47165
  0
LINE
  8
型材断面
  6
CONTINUOUS
 10
-115.076372
 20
-80.621655
 11
-20.40966
 21
-80.621655
  0
LINE
  8
型材断面
  6
CONTINUOUS
 10
-112.14304
 20
-80.124472
 11
-20.40966
 21
-80.124472
  0
LINE
  8
型材断面
  6
CONTINUOUS
 62
    47
 10
-113.566267
 20
-77.804983
 11
-20.40966
 21
-77.804983
  0
LINE
  8
型材断面
  6
CONTINUOUS
 62
    47
 10
-113.722787
 20
-77.97165
 11
-20.40966
 21
-77.97165
  0
LINE
  8
型材断面
  6
CONTINUOUS
 62
    47
 10
-113.566267
 20
-79.47165
 11
-20.40966
 21
-79.47165
  0
LINE
  8
型材断面
  6
CONTINUOUS
 62
    47
 10
-115.076372
 20
-81.12165
 11
-20.40966
 21
-81.12165
  0
LINE
  8
型材断面
  6
CONTINUOUS
 10
-114.576382
 20
-81.62165
 11
-20.40966
 21
-81.62165
  0
LINE
  8
型材断面
  6
CONTINUOUS
 10
73.757063
 20
-81.62165
 11
-20.40966
 21
-81.62165
  0
LINE
  8
型材断面
  6
CONTINUOUS
 62
    47
 10
74.257052
 20
-81.12165
 11
-20.40966
 21
-81.12165
  0
LINE
  8
型材断面
  6
CONTINUOUS
 10
74.257052
 20
-80.621655
 11
-20.40966
 21
-80.621655
  0
LINE
  8
型材断面
  6
CONTINUOUS
 62
    47
 10
72.746947
 20
-79.47165
 11
-20.40966
 21
-79.47165
  0
LINE
  8
型材断面
  6
CONTINUOUS
 10
71.32372
 20
-80.124472
 11
-20.40966
 21
-80.124472
  0
LINE
  8
型材断面
  6
CONTINUOUS
 62
    47
 10
72.746947
 20
-77.804983
 11
-20.40966
 21
-77.804983
  0
LINE
  8
型材断面
  6
CONTINUOUS
 62
    47
 10
72.903468
 20
-77.97165
 11
-20.40966
 21
-77.97165
  0
LINE
  8
型材断面
  6
DASHDOT
 10
137.032465
 20
13.398998
 11
-112.076325
 21
13.398998
  0
LINE
  8
型材断面
  6
DASHDOT
 10
137.032465
 20
56.732332
 11
-112.076325
 21
56.732332
  0
LINE
  8
型材断面
  6
DASHDOT
 10
-75.559657
 20
13.399048
 11
-75.559657
 21
56.73238
  0
LINE
  8
型材断面
  6
DASHDOT
 10
-38.79299
 20
13.399048
 11
-38.79299
 21
56.73238
  0
LINE
  8
型材断面
  6
DASHDOT
 10
34.740337
 20
13.399048
 11
34.740337
 21
56.73238
  0
LINE
  8
型材断面
  6
DASHDOT
 10
-2.02633
 20
13.399048
 11
-2.02633
 21
56.73238
  0
LINE
  8
型材断面
  6
CONTINUOUS
 10
16.773673
 20
14.252537
 11
52.582005
 21
14.252537
  0
LINE
  8
型材断面
  6
CONTINUOUS
 10
16.773673
 20
55.878893
 11
52.582005
 21
55.878893
  0
LINE
  8
型材断面
  6
CONTINUOUS
 10
-19.992995
 20
55.878893
 11
15.940337
 21
55.878893
  0
LINE
  8
型材断面
  6
CONTINUOUS
 10
-19.992995
 20
14.252537
 11
15.940337
 21
14.252537
  0
LINE
  8
型材断面
  6
CONTINUOUS
 10
-56.759657
 20
14.252537
 11
-20.82633
 21
14.252537
  0
LINE
  8
型材断面
  6
CONTINUOUS
 10
-56.759657
 20
55.878893
 11
-20.82633
 21
55.878893
  0
LINE
  8
型材断面
  6
CONTINUOUS
 10
-93.401325
 20
55.878893
 11
-57.592993
 21
55.878893
  0
LINE
  8
型材断面
  6
CONTINUOUS
 10
-93.401325
 20
14.252537
 11
-57.592993
 21
14.252537
  0
LINE
  8
型材断面
  6
CONTINUOUS
 10
74.257055
 20
35.06571
 11
74.257055
 21
59.732423
  0
LINE
  8
型材断面
  6
CONTINUOUS
 10
74.257055
 20
35.06572
 11
74.257055
 21
10.399007
  0
LINE
  8
型材断面
  6
CONTINUOUS
 10
72.66777
 20
11.752537
 11
72.90347
 21
11.988237
  0
LINE
  8
型材断面
  6
CONTINUOUS
 10
74.257055
 20
10.399007
 11
72.785648
 21
11.870415
  0
LINE
  8
型材断面
  6
CONTINUOUS
 10
72.90347
 20
11.988237
 11
70.40347
 21
14.488237
  0
LINE
  8
型材断面
  6
CONTINUOUS
 10
72.66777
 20
11.752537
 11
70.16777
 21
14.252537
  0
LINE
  8
型材断面
  6
CONTINUOUS
 10
70.16777
 20
14.252537
 11
70.40347
 21
14.488237
  0
LINE
  8
型材断面
  6
CONTINUOUS
 10
70.40347
 20
34.649048
 11
70.40347
 21
14.488237
  0
LINE
  8
型材断面
  6
CONTINUOUS
 10
72.66777
 20
58.378893
 11
72.90347
 21
58.143193
  0
LINE
  8
型材断面
  6
CONTINUOUS
 10
74.257055
 20
59.732423
 11
72.785648
 21
58.261015
  0
LINE
  8
型材断面
  6
CONTINUOUS
 10
72.66777
 20
58.378893
 11
70.16777
 21
55.878893
  0
LINE
  8
型材断面
  6
CONTINUOUS
 10
70.16777
 20
55.878893
 11
70.40347
 21
55.643193
  0
LINE
  8
型材断面
  6
CONTINUOUS
 10
70.40347
 20
55.643193
 11
72.90347
 21
58.143193
  0
LINE
  8
型材断面
  6
CONTINUOUS
 10
72.90347
 20
11.988237
 11
72.90347
 21
58.143193
  0
LINE
  8
型材断面
  6
CONTINUOUS
 10
70.40347
 20
35.482382
 11
70.40347
 21
55.643193
  0
LINE
  8
型材断面
  6
CONTINUOUS
 10
-115.076375
 20
35.06571
 11
-115.076375
 21
59.732423
  0
LINE
  8
型材断面
  6
CONTINUOUS
 10
-115.076375
 20
35.06572
 11
-115.076375
 21
10.399007
  0
LINE
  8
型材断面
  6
CONTINUOUS
 10
-113.48709
 20
11.752537
 11
-113.72279
 21
11.988237
  0
LINE
  8
型材断面
  6
CONTINUOUS
 10
-115.076375
 20
10.399007
 11
-113.604968
 21
11.870415
  0
LINE
  8
型材断面
  6
CONTINUOUS
 10
-113.72279
 20
11.988237
 11
-111.22279
 21
14.488237
  0
LINE
  8
型材断面
  6
CONTINUOUS
 10
-113.48709
 20
11.752537
 11
-110.98709
 21
14.252537
  0
LINE
  8
型材断面
  6
CONTINUOUS
 10
-110.98709
 20
14.252537
 11
-111.22279
 21
14.488237
  0
LINE
  8
型材断面
  6
CONTINUOUS
 10
-111.22279
 20
34.649048
 11
-111.22279
 21
14.488237
  0
LINE
  8
型材断面
  6
CONTINUOUS
 10
-113.48709
 20
58.378893
 11
-113.72279
 21
58.143193
  0
LINE
  8
型材断面
  6
CONTINUOUS
 10
-115.076375
 20
59.732423
 11
-113.604968
 21
58.261015
  0
LINE
  8
型材断面
  6
CONTINUOUS
 10
-113.48709
 20
58.378893
 11
-110.98709
 21
55.878893
  0
LINE
  8
型材断面
  6
CONTINUOUS
 10
-110.98709
 20
55.878893
 11
-111.22279
 21
55.643193
  0
LINE
  8
型材断面
  6
CONTINUOUS
 10
-111.22279
 20
55.643193
 11
-113.72279
 21
58.143193
  0
LINE
  8
型材断面
  6
CONTINUOUS
 10
-113.72279
 20
11.988237
 11
-113.72279
 21
58.143193
  0
LINE
  8
型材断面
  6
CONTINUOUS
 10
-111.22279
 20
35.482382
 11
-111.22279
 21
55.643193
  0
LINE
  8
型材断面
  6
CONTINUOUS
 10
53.41534
 20
14.252537
 11
70.16777
 21
14.252537
  0
LINE
  8
型材断面
  6
CONTINUOUS
 10
53.41534
 20
55.878893
 11
70.16777
 21
55.878893
  0
LINE
  8
型材断面
  6
CONTINUOUS
 10
-94.23466
 20
55.878893
 11
-110.98709
 21
55.878893
  0
LINE
  8
型材断面
  6
CONTINUOUS
 10
72.66777
 20
58.378893
 11
-113.48709
 21
58.378893
  0
LINE
  8
型材断面
  6
CONTINUOUS
 10
-94.23466
 20
14.252537
 11
-110.98709
 21
14.252537
  0
LINE
  8
型材断面
  6
CONTINUOUS
 10
72.66777
 20
11.752537
 11
-113.48709
 21
11.752537
  0
LINE
  8
型材断面
  6
CONTINUOUS
 10
35.990337
 20
15.08587
 11
35.990337
 21
55.04556
  0
LINE
  8
型材断面
  6
CONTINUOUS
 10
33.490337
 20
15.08587
 11
33.490337
 21
55.04556
  0
LINE
  8
型材断面
  6
CONTINUOUS
 10
-0.77633
 20
15.08587
 11
-0.77633
 21
55.04556
  0
LINE
  8
型材断面
  6
CONTINUOUS
 10
-3.27633
 20
15.08587
 11
-3.27633
 21
55.04556
  0
LINE
  8
型材断面
  6
CONTINUOUS
 10
-76.809657
 20
15.08587
 11
-76.809657
 21
55.04556
  0
LINE
  8
型材断面
  6
CONTINUOUS
 10
-74.309657
 20
15.08587
 11
-74.309657
 21
55.04556
  0
LINE
  8
型材断面
  6
CONTINUOUS
 10
-40.04299
 20
15.08587
 11
-40.04299
 21
55.04556
  0
LINE
  8
型材断面
  6
CONTINUOUS
 10
-37.54299
 20
15.08587
 11
-37.54299
 21
55.04556
  0
TEXT
  7
TextStyle03
  8
文字
  6
CONTINUOUS
 10
-150.125
 20
98.85
  1
は排水穴位置を示す
 40
3.0
 72
     5
 11
-120.125
 21
98.85
  0
TEXT
  7
TextStyle03
  8
文字
  6
CONTINUOUS
 10
60.45
 20
104.525
  1
ＮＳコード：ＮＳＦＫＺ
 40
5.0
 72
     5
 11
121.7
 21
104.525
  0
TEXT
  7
TextStyle03
  8
文字
  6
CONTINUOUS
 10
147.775
 20
-86.1
  1
網入り6.8t
 40
3.0
 72
     5
 11
164.4625
 21
-86.1
  0
TEXT
  7
TextStyle03
  8
文字
  6
CONTINUOUS
 10
154.45
 20
-90.775
  1
×５枚
 40
3.0
 72
     5
 11
164.2
 21
-90.775
  0
TEXT
  7
TextStyle03
  8
文字
  6
CONTINUOUS
 10
-149.55
 20
23.975
  1
アンカーピッチ
 40
3.0
 50
90.0
 72
     5
 11
-149.55
 21
47.225
  0
TEXT
  7
TextStyle03
  8
文字
  6
CONTINUOUS
 10
-98.025
 20
93.125
  1
アンカーピッチ
 40
3.0
 72
     5
 11
-74.775
 21
93.125
  0
TEXT
  7
TextStyle03
  8
文字
  6
CONTINUOUS
 10
-153.85
 20
92.175
  1
アンカー数量　１８ヶ所
 40
3.0
 72
     5
 11
-117.1
 21
92.175
  0
LINE
  8
文字
  6
CONTINUOUS
 10
126.239788
 20
70.37154
 11
126.239788
 21
61.018383
  0
LINE
  8
文字
  6
CONTINUOUS
 10
129.556455
 20
70.37154
 11
129.556455
 21
61.083737
  0
LINE
  8
文字
  6
CONTINUOUS
 10
84.896215
 20
-77.804983
 11
75.543058
 21
-77.804983
  0
LINE
  8
文字
  6
CONTINUOUS
 10
84.896215
 20
-81.12165
 11
75.608412
 21
-81.12165
  0
LINE
  8
文字
  6
CONTINUOUS
 10
166.343563
 20
-40.755577
 11
166.343563
 21
-48.270857
  0
LINE
  8
文字
  6
CONTINUOUS
 10
130.743563
 20
-40.755577
 11
130.743563
 21
-48.270857
  0
TEXT
  7
TextStyle03
  8
文字
  6
CONTINUOUS
 10
60.3
 20
125.25
  1
シリーズ：ＴＦ２ＦＫＬ
 40
5.0
 72
     5
 11
121.55
 21
125.25
  0
TEXT
  7
TextStyle03
  8
文字
  6
CONTINUOUS
 10
60.3
 20
119.625
  1
　　　　　（固定）1300×5500タイプ
 40
5.0
 72
     5
 11
155.3
 21
119.625
  0
TEXT
  7
TextStyle03
  8
文字
  6
CONTINUOUS
 10
60.3
 20
114.0
  1
図面名　：外観姿図
 40
5.0
 72
     5
 11
110.3
 21
114.0
  0
TEXT
  7
TextStyle03
  8
文字
  6
CONTINUOUS
 10
60.3
 20
108.375
  1
　　　　　　
 40
5.0
 72
     5
 11
93.425
 21
108.375
  0
LINE
  8
文字
  6
CONTINUOUS
 10
53.41534
 20
14.252537
 11
53.41534
 21
11.752537
  0
LINE
  8
文字
  6
CONTINUOUS
 10
52.582005
 20
14.252537
 11
52.582005
 21
11.752537
  0
LINE
  8
文字
  6
CONTINUOUS
 10
16.773673
 20
14.252537
 11
16.773673
 21
11.752537
  0
LINE
  8
文字
  6
CONTINUOUS
 10
15.940337
 20
14.252537
 11
15.940337
 21
11.752537
  0
LINE
  8
文字
  6
CONTINUOUS
 10
-19.992995
 20
14.252537
 11
-19.992995
 21
11.752537
  0
LINE
  8
文字
  6
CONTINUOUS
 10
-20.82633
 20
14.252537
 11
-20.82633
 21
11.752537
  0
LINE
  8
文字
  6
CONTINUOUS
 10
-94.23466
 20
14.252537
 11
-94.23466
 21
11.752537
  0
LINE
  8
文字
  6
CONTINUOUS
 10
-93.401325
 20
14.252537
 11
-93.401325
 21
11.752537
  0
LINE
  8
文字
  6
CONTINUOUS
 10
-57.592993
 20
14.252537
 11
-57.592993
 21
11.752537
  0
LINE
  8
文字
  6
CONTINUOUS
 10
-56.759657
 20
14.252537
 11
-56.759657
 21
11.752537
  0
LINE
  8
文字
  6
CONTINUOUS
 10
53.41534
 20
55.878893
 11
53.41534
 21
58.378893
  0
LINE
  8
文字
  6
CONTINUOUS
 10
52.582005
 20
55.878893
 11
52.582005
 21
58.378893
  0
LINE
  8
文字
  6
CONTINUOUS
 10
16.773673
 20
55.878893
 11
16.773673
 21
58.378893
  0
LINE
  8
文字
  6
CONTINUOUS
 10
15.940337
 20
55.878893
 11
15.940337
 21
58.378893
  0
LINE
  8
文字
  6
CONTINUOUS
 10
-19.992995
 20
55.878893
 11
-19.992995
 21
58.378893
  0
LINE
  8
文字
  6
CONTINUOUS
 10
-20.82633
 20
55.878893
 11
-20.82633
 21
58.378893
  0
LINE
  8
文字
  6
CONTINUOUS
 10
-94.23466
 20
55.878893
 11
-94.23466
 21
58.378893
  0
LINE
  8
文字
  6
CONTINUOUS
 10
-93.401325
 20
55.878893
 11
-93.401325
 21
58.378893
  0
LINE
  8
文字
  6
CONTINUOUS
 10
-57.592993
 20
55.878893
 11
-57.592993
 21
58.378893
  0
LINE
  8
文字
  6
CONTINUOUS
 10
-56.759657
 20
55.878893
 11
-56.759657
 21
58.378893
  0
LINE
  8
文字
  6
CONTINUOUS
 10
70.40347
 20
34.649048
 11
72.90347
 21
34.649048
  0
LINE
  8
文字
  6
CONTINUOUS
 10
70.40347
 20
35.482382
 11
72.90347
 21
35.482382
  0
LINE
  8
文字
  6
CONTINUOUS
 10
-111.22279
 20
34.649048
 11
-113.72279
 21
34.649048
  0
LINE
  8
文字
  6
CONTINUOUS
 10
-111.22279
 20
35.482382
 11
-113.72279
 21
35.482382
  0
LINE
  8
文字
  6
CONTINUOUS
 10
35.990337
 20
15.08587
 11
33.490337
 21
15.08587
  0
LINE
  8
文字
  6
CONTINUOUS
 10
35.990337
 20
55.04556
 11
33.490337
 21
55.04556
  0
LINE
  8
文字
  6
CONTINUOUS
 10
-0.77633
 20
15.08587
 11
-3.27633
 21
15.08587
  0
LINE
  8
文字
  6
CONTINUOUS
 10
-0.77633
 20
55.04556
 11
-3.27633
 21
55.04556
  0
LINE
  8
文字
  6
CONTINUOUS
 10
-76.809657
 20
15.08587
 11
-74.309657
 21
15.08587
  0
LINE
  8
文字
  6
CONTINUOUS
 10
-76.809657
 20
55.04556
 11
-74.309657
 21
55.04556
  0
LINE
  8
文字
  6
CONTINUOUS
 10
-40.04299
 20
15.08587
 11
-37.54299
 21
15.08587
  0
LINE
  8
文字
  6
CONTINUOUS
 10
-40.04299
 20
55.04556
 11
-37.54299
 21
55.04556
  0
INSERT
  2
*DIM_0002
  8
寸法
  6
CONTINUOUS
 10
0.0
 20
0.0
  0
INSERT
  2
*DIM_0003
  8
寸法
  6
CONTINUOUS
 10
0.0
 20
0.0
  0
INSERT
  2
*DIM_0004
  8
寸法
  6
CONTINUOUS
 10
0.0
 20
0.0
  0
INSERT
  2
*DIM_0005
  8
寸法
  6
CONTINUOUS
 10
0.0
 20
0.0
  0
INSERT
  2
*DIM_0006
  8
寸法
  6
CONTINUOUS
 10
0.0
 20
0.0
  0
INSERT
  2
*DIM_0007
  8
寸法
  6
CONTINUOUS
 10
0.0
 20
0.0
  0
INSERT
  2
*DIM_0008
  8
寸法
  6
CONTINUOUS
 10
0.0
 20
0.0
  0
INSERT
  2
*DIM_0009
  8
寸法
  6
CONTINUOUS
 10
0.0
 20
0.0
  0
INSERT
  2
*DIM_0010
  8
寸法
  6
CONTINUOUS
 10
0.0
 20
0.0
  0
INSERT
  2
*DIM_0011
  8
寸法
  6
CONTINUOUS
 10
0.0
 20
0.0
  0
INSERT
  2
*DIM_0012
  8
寸法
  6
CONTINUOUS
 10
0.0
 20
0.0
  0
INSERT
  2
*DIM_0013
  8
寸法
  6
CONTINUOUS
 10
0.0
 20
0.0
  0
INSERT
  2
*DIM_0014
  8
寸法
  6
CONTINUOUS
 10
0.0
 20
0.0
  0
INSERT
  2
*DIM_0015
  8
寸法
  6
CONTINUOUS
 10
0.0
 20
0.0
  0
INSERT
  2
*DIM_0016
  8
寸法
  6
CONTINUOUS
 10
0.0
 20
0.0
  0
INSERT
  2
*DIM_0017
  8
寸法
  6
CONTINUOUS
 10
0.0
 20
0.0
  0
LINE
  8
別途部材
  6
CONTINUOUS
 62
    47
 10
126.339788
 20
58.378793
 11
126.406455
 21
58.378793
  0
ARC
  8
別途部材
  6
CONTINUOUS
 62
    47
 10
126.339783
 20
58.278794
 40
0.1
 50
90.0
 51
180.0
  0
LINE
  8
別途部材
  6
CONTINUOUS
 62
    47
 10
126.239788
 20
58.278793
 11
126.239788
 21
58.222272
  0
LINE
  8
別途部材
  6
CONTINUOUS
 62
    47
 10
127.906455
 20
58.222272
 11
126.406455
 21
58.222272
  0
LINE
  8
別途部材
  6
CONTINUOUS
 62
    47
 10
126.339788
 20
11.752537
 11
126.406455
 21
11.752537
  0
ARC
  8
別途部材
  6
CONTINUOUS
 62
    47
 10
126.339783
 20
11.852536
 40
0.1
 50
180.0
 51
270.0
  0
LINE
  8
別途部材
  6
CONTINUOUS
 62
    47
 10
126.239788
 20
11.852537
 11
126.239788
 21
11.909058
  0
LINE
  8
別途部材
  6
CONTINUOUS
 62
    47
 10
127.906455
 20
11.909058
 11
126.406455
 21
11.909058
  0
LINE
  8
別途部材
  6
CONTINUOUS
 62
    47
 10
-113.722787
 20
-77.904983
 11
-113.722787
 21
-77.97165
  0
ARC
  8
別途部材
  6
CONTINUOUS
 62
    47
 10
-113.62279
 20
-77.904979
 40
0.1
 50
90.0
 51
180.0
  0
LINE
  8
別途部材
  6
CONTINUOUS
 62
    47
 10
-113.622787
 20
-77.804983
 11
-113.566267
 21
-77.804983
  0
LINE
  8
別途部材
  6
CONTINUOUS
 62
    47
 10
-113.566267
 20
-79.47165
 11
-113.566267
 21
-77.97165
  0
LINE
  8
別途部材
  6
CONTINUOUS
 62
    47
 10
72.903468
 20
-77.904983
 11
72.903468
 21
-77.97165
  0
ARC
  8
別途部材
  6
CONTINUOUS
 62
    47
 10
72.803468
 20
-77.904979
 40
0.1
 50
0.0
 51
90.0
  0
LINE
  8
別途部材
  6
CONTINUOUS
 62
    47
 10
72.803468
 20
-77.804983
 11
72.746947
 21
-77.804983
  0
LINE
  8
別途部材
  6
CONTINUOUS
 62
    47
 10
72.746947
 20
-79.47165
 11
72.746947
 21
-77.97165
  0
LINE
  8
曲げ物
  6
CONTINUOUS
 10
55.982738
 20
37.022003
 11
52.287425
 21
33.32669
  0
LINE
  8
曲げ物
  6
CONTINUOUS
 10
55.279268
 20
35.485893
 11
53.823538
 21
34.030163
  0
LINE
  8
曲げ物
  6
CONTINUOUS
 10
54.446628
 20
36.318533
 11
52.990898
 21
34.862803
  0
LINE
  8
曲げ物
  6
CONTINUOUS
 10
19.732727
 20
37.022003
 11
16.037415
 21
33.32669
  0
LINE
  8
曲げ物
  6
CONTINUOUS
 10
19.029257
 20
35.485893
 11
17.573527
 21
34.030163
  0
LINE
  8
曲げ物
  6
CONTINUOUS
 10
18.196617
 20
36.318533
 11
16.740887
 21
34.862803
  0
LINE
  8
曲げ物
  6
CONTINUOUS
 10
-18.715007
 20
37.022003
 11
-22.41032
 21
33.32669
  0
LINE
  8
曲げ物
  6
CONTINUOUS
 10
-19.418477
 20
35.485893
 11
-20.874208
 21
34.030163
  0
LINE
  8
曲げ物
  6
CONTINUOUS
 10
-20.251117
 20
36.318533
 11
-21.706848
 21
34.862803
  0
LINE
  8
曲げ物
  6
CONTINUOUS
 10
-54.98961
 20
37.022003
 11
-58.684922
 21
33.32669
  0
LINE
  8
曲げ物
  6
CONTINUOUS
 10
-55.69308
 20
35.485893
 11
-57.14881
 21
34.030163
  0
LINE
  8
曲げ物
  6
CONTINUOUS
 10
-56.52572
 20
36.318533
 11
-57.98145
 21
34.862803
  0
LINE
  8
曲げ物
  6
CONTINUOUS
 10
-91.262047
 20
37.022003
 11
-94.95736
 21
33.32669
  0
LINE
  8
曲げ物
  6
CONTINUOUS
 10
-91.965517
 20
35.485893
 11
-93.421248
 21
34.030163
  0
LINE
  8
曲げ物
  6
CONTINUOUS
 10
-92.798157
 20
36.318533
 11
-94.253888
 21
34.862803
  0
LINE
  8
曲げ物
  6
CONTINUOUS
 10
166.343563
 20
-92.533713
 11
166.343563
 21
-49.867045
  0
LINE
  8
曲げ物
  6
CONTINUOUS
 10
130.743563
 20
-92.533713
 11
130.743563
 21
-49.867045
  0
LINE
  8
曲げ物
  6
CONTINUOUS
 10
166.343563
 20
-49.867045
 11
130.743563
 21
-49.867045
  0
LINE
  8
曲げ物
  6
CONTINUOUS
 10
166.343563
 20
-92.533713
 11
130.743563
 21
-92.533713
  0
CIRCLE
  8
LAYER010
  6
CONTINUOUS
 62
    47
 10
129.056458
 20
59.732323
 40
0.011113
  0
CIRCLE
  8
LAYER010
  6
CONTINUOUS
 62
    47
 10
129.056458
 20
10.399007
 40
0.011113
  0
CIRCLE
  8
LAYER010
  6
CONTINUOUS
 62
    47
 10
-115.076318
 20
-80.621652
 40
0.011113
  0
CIRCLE
  8
LAYER010
  6
CONTINUOUS
 62
    47
 10
74.256998
 20
-80.621652
 40
0.011113
  0
ENDSEC
  0
EOF
