  0
SECTION
  2
HEADER
  9
$EXTMIN
 10
-210.0
 20
-148.5
  9
$EXTMAX
 10
210.0
 20
148.5
  9
$PDMODE
 70
    32
  9
$PDSIZE
 40
1.5
  9
$LTSCALE
 40
10.0
  0
ENDSEC
  0
SECTION
  2
TABLES
  0
TABLE
  2
LTYPE
 70
    15
  0
LTYPE
  2
CONTINUOUS
 70
    64
  3
実線
 72
    65
 73
     0
 40
0.0
  0
LTYPE
  2
DASHED
 70
    64
  3
破線A
 72
    65
 73
     2
 40
0.6
 49
0.4
 49
-0.2
  0
LTYPE
  2
DASHEDX2
 70
    64
  3
破線B
 72
    65
 73
     2
 40
1.3
 49
0.9
 49
-0.4
  0
LTYPE
  2
DASHDOT
 70
    64
  3
１点鎖線A
 72
    65
 73
     4
 40
0.5375
 49
0.375
 49
-0.05
 49
0.0625
 49
-0.05
  0
LTYPE
  2
DASHDOTX2
 70
    64
  3
１点鎖線B
 72
    65
 73
     4
 40
1.075
 49
0.75
 49
-0.1
 49
0.125
 49
-0.1
  0
LTYPE
  2
DIVIDE2
 70
    64
  3
２点鎖線A
 72
    65
 73
     6
 40
0.5125
 49
0.3
 49
-0.0375
 49
0.05
 49
-0.0375
 49
0.05
 49
-0.0375
  0
LTYPE
  2
DIVIDE
 70
    64
  3
２点鎖線B
 72
    65
 73
     6
 40
1.05
 49
0.55
 49
-0.1
 49
0.1
 49
-0.1
 49
0.1
 49
-0.1
  0
LTYPE
  2
DOT
 70
    64
  3
点線A
 72
    65
 73
     2
 40
0.1125
 49
0.0625
 49
-0.05
  0
LTYPE
  2
DOTX2
 70
    64
  3
点線B
 72
    65
 73
     2
 40
0.275
 49
0.15
 49
-0.125
  0
LTYPE
  2
CONTINUOUS
 70
    64
  3
実線
 72
    65
 73
     0
 40
0.0
  0
LTYPE
  2
CONTINUOUS
 70
    64
  3
実線
 72
    65
 73
     0
 40
0.0
  0
LTYPE
  2
CONTINUOUS
 70
    64
  3
実線
 72
    65
 73
     0
 40
0.0
  0
LTYPE
  2
CONTINUOUS
 70
    64
  3
実線
 72
    65
 73
     0
 40
0.0
  0
LTYPE
  2
CONTINUOUS
 70
    64
  3
実線
 72
    65
 73
     0
 40
0.0
  0
LTYPE
  2
CONTINUOUS
 70
    64
  3
実線
 72
    65
 73
     0
 40
0.0
  0
ENDTAB
  0
TABLE
  2
LAYER
 70
    35
  0
LAYER
  2
通り芯
 70
     0
 62
    15
  6
CONTINUOUS
  0
LAYER
  2
補助線
 70
     0
 62
    16
  6
DOT
  0
LAYER
  2
躯体
 70
     0
 62
    31
  6
CONTINUOUS
  0
LAYER
  2
型材
 70
     0
 62
    32
  6
CONTINUOUS
  0
LAYER
  2
型材断面
 70
     0
 62
    47
  6
CONTINUOUS
  0
LAYER
  2
ガラス
 70
     0
 62
    48
  6
CONTINUOUS
  0
LAYER
  2
ゴム等
 70
     0
 62
    63
  6
CONTINUOUS
  0
LAYER
  2
ボルト／ビス
 70
     0
 62
    64
  6
CONTINUOUS
  0
LAYER
  2
文字
 70
     0
 62
    79
  6
CONTINUOUS
  0
LAYER
  2
寸法
 70
     0
 62
    80
  6
CONTINUOUS
  0
LAYER
  2
ﾊｯﾁﾝｸﾞ
 70
     0
 62
    95
  6
CONTINUOUS
  0
LAYER
  2
別途部材
 70
     0
 62
    96
  6
CONTINUOUS
  0
LAYER
  2
曲げ物
 70
     0
 62
   111
  6
CONTINUOUS
  0
LAYER
  2
鉄骨等
 70
     0
 62
   112
  6
CONTINUOUS
  0
LAYER
  2
St
 70
     0
 62
   127
  6
CONTINUOUS
  0
LAYER
  2
その他部品等
 70
     0
 62
   128
  6
CONTINUOUS
  0
LAYER
  2
ｶﾞｽｹｯﾄ
 70
     0
 62
   143
  6
CONTINUOUS
  0
LAYER
  2
ｽｹｯﾁ
 70
     0
 62
    14
  6
CONTINUOUS
  0
LAYER
  2
0
 70
     0
 62
    17
  6
CONTINUOUS
  0
LAYER
  2
1
 70
     0
 62
    30
  6
CONTINUOUS
  0
LAYER
  2
4
 70
     0
 62
    33
  6
CONTINUOUS
  0
LAYER
  2
ﾚｲﾔ3
 70
     0
 62
    46
  6
CONTINUOUS
  0
LAYER
  2
外形線
 70
     0
 62
    49
  6
CONTINUOUS
  0
LAYER
  2
部品
 70
     0
 62
    14
  6
CONTINUOUS
  0
LAYER
  2
サッシ芯
 70
     0
 62
    17
  6
DASHDOTX2
  0
LAYER
  2
寸法線
 70
     0
 62
    62
  6
CONTINUOUS
  0
LAYER
  2
姿図外形線
 70
     0
 62
    65
  6
CONTINUOUS
  0
LAYER
  2
姿補助線
 70
     0
 62
    30
  6
CONTINUOUS
  0
LAYER
  2
透視線
 70
     0
 62
    78
  6
DOT
  0
LAYER
  2
用紙
 70
     0
 62
    81
  6
CONTINUOUS
  0
LAYER
  2
実線図枠
 70
     0
 62
    94
  6
CONTINUOUS
  0
LAYER
  2
補助図枠
 70
     0
 62
    97
  6
CONTINUOUS
  0
LAYER
  2
建具記号
 70
     0
 62
   110
  6
CONTINUOUS
  0
LAYER
  2
補助文字
 70
     0
 62
   113
  6
CONTINUOUS
  0
LAYER
  2
LAYER010
 70
     0
 62
    11
  6
CONTINUOUS
  0
ENDTAB
  0
TABLE
  2
STYLE
 70
    10
  0
STYLE
  2
STANDARD
 70
     0
 40
1.0
 41
1.0
 42
1.0
 50
0.0
 71
     0
  3
TXT
  4
BIGFONT
  0
STYLE
  2
TATE
 70
     4
 40
1.0
 41
1.0
 42
1.0
 50
0.0
 71
     0
  3
TXT
  4
BIGFONT
  0
STYLE
  2
TextStyle03
 70
     0
 40
1.0
 41
1.0
 42
1.0
 50
0.0
 71
     0
  3
MONOTXT
  4
BIGFONT
  0
STYLE
  2
TextStyle04
 70
     0
 40
1.0
 41
1.0
 42
1.0
 50
0.0
 71
     0
  3
MONOTXT
  4
BIGFONT
  0
STYLE
  2
TextStyle05
 70
     0
 40
1.0
 41
1.0
 42
1.0
 50
0.0
 71
     0
  3
MONOTXT
  4
BIGFONT
  0
STYLE
  2
TextStyle06
 70
     0
 40
1.0
 41
1.0
 42
1.0
 50
0.0
 71
     0
  3
MONOTXT
  4
BIGFONT
  0
STYLE
  2
TextStyle07
 70
     0
 40
1.0
 41
1.0
 42
1.0
 50
0.0
 71
     0
  3
MONOTXT
  4
BIGFONT
  0
STYLE
  2
TextStyle08
 70
     0
 40
1.0
 41
1.0
 42
1.0
 50
0.0
 71
     0
  3
MONOTXT
  4
BIGFONT
  0
STYLE
  2
TextStyle09
 70
     0
 40
1.0
 41
1.0
 42
1.0
 50
0.0
 71
     0
  3
MONOTXT
  4
BIGFONT
  0
STYLE
  2
TextStyle10
 70
     0
 40
1.0
 41
1.0
 42
1.0
 50
0.0
 71
     0
  3
MONOTXT
  4
BIGFONT
  0
ENDTAB
  0
ENDSEC
  0
SECTION
  2
BLOCKS
  0
BLOCK
  2
*GRP_0001
 70
    65
 10
0.0
 20
0.0
  0
LINE
  8
型材断面
  6
CONTINUOUS
 10
195.0
 20
133.5
 11
195.0
 21
-133.5
  0
LINE
  8
型材断面
  6
CONTINUOUS
 10
195.0
 20
-133.5
 11
-185.0
 21
-133.5
  0
LINE
  8
型材断面
  6
CONTINUOUS
 10
-185.0
 20
-133.5
 11
-185.0
 21
133.5
  0
LINE
  8
型材断面
  6
CONTINUOUS
 10
195.0
 20
133.5
 11
-185.0
 21
133.5
  0
LINE
  8
型材断面
  6
CONTINUOUS
 10
145.0
 20
-133.5
 11
145.0
 21
-118.5
  0
LINE
  8
型材断面
  6
CONTINUOUS
 10
195.0
 20
-118.5
 11
145.0
 21
-118.5
  0
ENDBLK
  0
BLOCK
  2
*DIM_0002
 70
    65
 10
0.0
 20
0.0
  0
LINE
  8
寸法
  6
BYBLOCK
 62
     0
 10
-61.953802
 20
-16.511205
 11
-61.953802
 21
-13.121378
  0
LINE
  8
寸法
  6
BYBLOCK
 62
     0
 10
4.712865
 20
-13.121378
 11
-61.953802
 21
-13.121378
  0
POINT
  8
寸法
 62
     0
 10
4.712865
 20
-13.121378
  0
POINT
  8
寸法
 62
     0
 10
-61.953802
 20
-13.121378
  0
TEXT
  7
TextStyle03
  8
寸法
  6
CONTINUOUS
 62
     0
 10
-40.34375
 20
-12.75
  1
呼称寸法　2000
 40
3.0
 72
     5
 11
-16.90625
 21
-12.75
  0
ENDBLK
  0
BLOCK
  2
*DIM_0003
 70
    65
 10
0.0
 20
0.0
  0
LINE
  8
寸法
  6
BYBLOCK
 62
     0
 10
-45.287135
 20
19.183902
 11
-45.287135
 21
14.182178
  0
LINE
  8
寸法
  6
BYBLOCK
 62
     0
 10
-11.9538
 20
19.183902
 11
-11.9538
 21
14.182178
  0
LINE
  8
寸法
  6
BYBLOCK
 62
     0
 10
-45.287135
 20
14.182178
 11
-11.9538
 21
14.182178
  0
POINT
  8
寸法
 62
     0
 10
-45.287135
 20
14.182178
  0
POINT
  8
寸法
 62
     0
 10
-11.9538
 20
14.182178
  0
TEXT
  7
TextStyle03
  8
寸法
  6
CONTINUOUS
 62
     0
 10
-31.90625
 20
14.55
  1
1000
 40
3.0
 72
     5
 11
-25.34375
 21
14.55
  0
ENDBLK
  0
BLOCK
  2
*DIM_0004
 70
    65
 10
0.0
 20
0.0
  0
LINE
  8
寸法
  6
BYBLOCK
 62
     0
 10
7.712912
 20
-69.576397
 11
7.712912
 21
-13.121378
  0
LINE
  8
寸法
  6
BYBLOCK
 62
     0
 10
4.712865
 20
-13.121378
 11
7.712912
 21
-13.121378
  0
POINT
  8
寸法
 62
     0
 10
4.712865
 20
-13.121378
  0
POINT
  8
寸法
 62
     0
 10
7.712912
 20
-13.121378
  0
TEXT
  7
TextStyle03
  8
寸法
  6
CONTINUOUS
 62
     0
 10
4.60625
 20
-12.75
  1
90
 40
3.0
 72
     5
 11
7.79375
 21
-12.75
  0
ENDBLK
  0
BLOCK
  2
*DIM_0005
 70
    65
 10
0.0
 20
0.0
  0
LINE
  8
寸法
  6
BYBLOCK
 62
     0
 10
-64.953848
 20
-69.576397
 11
-64.953848
 21
-13.121378
  0
LINE
  8
寸法
  6
BYBLOCK
 62
     0
 10
-61.9538
 20
-13.121378
 11
-64.953848
 21
-13.121378
  0
POINT
  8
寸法
 62
     0
 10
-61.9538
 20
-13.121378
  0
POINT
  8
寸法
 62
     0
 10
-64.953848
 20
-13.121378
  0
TEXT
  7
TextStyle03
  8
寸法
  6
CONTINUOUS
 62
     0
 10
-65.06875
 20
-12.75
  1
90
 40
3.0
 72
     5
 11
-61.88125
 21
-12.75
  0
ENDBLK
  0
BLOCK
  2
*DIM_0006
 70
    65
 10
0.0
 20
0.0
  0
LINE
  8
寸法
  6
BYBLOCK
 62
     0
 10
100.79942
 20
-63.785395
 11
108.91095
 21
-63.785395
  0
LINE
  8
寸法
  6
BYBLOCK
 62
     0
 10
100.79942
 20
-83.118728
 11
108.91095
 21
-83.118728
  0
LINE
  8
寸法
  6
BYBLOCK
 62
     0
 10
108.91095
 20
-63.785395
 11
108.91095
 21
-83.118728
  0
POINT
  8
寸法
 62
     0
 10
108.91095
 20
-63.785395
  0
POINT
  8
寸法
 62
     0
 10
108.91095
 20
-83.118728
  0
TEXT
  7
TextStyle03
  8
寸法
  6
CONTINUOUS
 62
     0
 10
108.525
 20
-75.9125
  1
580
 40
3.0
 50
90.0
 72
     5
 11
108.525
 21
-71.0375
  0
ENDBLK
  0
BLOCK
  2
*DIM_0007
 70
    65
 10
0.0
 20
0.0
  0
LINE
  8
寸法
  6
BYBLOCK
 62
     0
 10
-64.953802
 20
39.4807
 11
-78.24664
 21
39.4807
  0
LINE
  8
寸法
  6
BYBLOCK
 62
     0
 10
-64.953802
 20
26.147365
 11
-78.24664
 21
26.147365
  0
LINE
  8
寸法
  6
BYBLOCK
 62
     0
 10
-78.24664
 20
39.4807
 11
-78.24664
 21
26.147365
  0
POINT
  8
寸法
 62
     0
 10
-78.24664
 20
39.4807
  0
POINT
  8
寸法
 62
     0
 10
-78.24664
 20
26.147365
  0
TEXT
  7
TextStyle03
  8
寸法
  6
CONTINUOUS
 62
     0
 10
-78.7
 20
30.3625
  1
400
 40
3.0
 50
90.0
 72
     5
 11
-78.7
 21
35.2375
  0
ENDBLK
  0
BLOCK
  2
*DIM_0008
 70
    65
 10
0.0
 20
0.0
  0
LINE
  8
寸法
  6
BYBLOCK
 62
     0
 10
-51.9538
 20
45.814033
 11
-51.9538
 21
74.741653
  0
LINE
  8
寸法
  6
BYBLOCK
 62
     0
 10
-28.620467
 20
45.814033
 11
-28.620467
 21
74.741653
  0
LINE
  8
寸法
  6
BYBLOCK
 62
     0
 10
-51.9538
 20
74.741653
 11
-28.620467
 21
74.741653
  0
POINT
  8
寸法
 62
     0
 10
-51.9538
 20
74.741653
  0
POINT
  8
寸法
 62
     0
 10
-28.620467
 20
74.741653
  0
TEXT
  7
TextStyle03
  8
寸法
  6
CONTINUOUS
 62
     0
 10
-42.7125
 20
75.125
  1
700
 40
3.0
 72
     5
 11
-37.8375
 21
75.125
  0
ENDBLK
  0
BLOCK
  2
*DIM_0009
 70
    65
 10
0.0
 20
0.0
  0
LINE
  8
寸法
  6
BYBLOCK
 62
     0
 10
-5.287135
 20
45.814033
 11
-5.287135
 21
74.741653
  0
LINE
  8
寸法
  6
BYBLOCK
 62
     0
 10
-28.620467
 20
74.741653
 11
-5.287135
 21
74.741653
  0
POINT
  8
寸法
 62
     0
 10
-5.287135
 20
74.741653
  0
TEXT
  7
TextStyle03
  8
寸法
  6
CONTINUOUS
 62
     0
 10
-19.3875
 20
75.125
  1
700
 40
3.0
 72
     5
 11
-14.5125
 21
75.125
  0
ENDBLK
  0
BLOCK
  2
*DIM_0010
 70
    65
 10
0.0
 20
0.0
  0
LINE
  8
寸法
  6
CONTINUOUS
 10
110.01104
 20
56.453242
 11
113.327708
 21
56.453242
  0
POINT
  8
寸法
 10
110.01104
 20
56.453242
  0
POINT
  8
寸法
 10
113.327708
 20
56.453242
  0
TEXT
  7
TextStyle03
  8
寸法
  6
CONTINUOUS
 10
108.24375
 20
56.625
  1
99.5
 40
3.0
 72
     5
 11
114.80625
 21
56.625
  0
ENDBLK
  0
BLOCK
  2
*DIM_0011
 70
    65
 10
0.0
 20
0.0
  0
LINE
  8
寸法
  6
CONTINUOUS
 10
18.352075
 20
-67.66311
 11
18.352075
 21
-70.97978
  0
POINT
  8
寸法
 10
18.352075
 20
-67.66311
  0
POINT
  8
寸法
 10
18.352075
 20
-70.97978
  0
TEXT
  7
TextStyle03
  8
寸法
  6
CONTINUOUS
 10
21.5
 20
-72.45625
  1
99.5
 40
3.0
 50
90.0
 72
     5
 11
21.5
 21
-65.89375
  0
ENDBLK
  0
BLOCK
  2
*DIM_0012
 70
    65
 10
0.0
 20
0.0
  0
LINE
  8
寸法
  6
CONTINUOUS
 10
99.79942
 20
-55.91121
 11
67.382753
 21
-55.91121
  0
POINT
  8
寸法
 10
99.79942
 20
-55.91121
  0
POINT
  8
寸法
 10
67.382753
 20
-55.91121
  0
TEXT
  7
TextStyle03
  8
寸法
  6
CONTINUOUS
 10
79.45
 20
-55.525
  1
972.5
 40
3.0
 72
     5
 11
87.7
 21
-55.525
  0
ENDBLK
  0
ENDSEC
  0
SECTION
  2
ENTITIES
  0
POLYLINE
  8
通り芯
  6
CONTINUOUS
 66
     1
 70
     1
  0
VERTEX
  8
通り芯
 10
-210.0
 20
-148.5
  0
VERTEX
  8
通り芯
 10
210.0
 20
-148.5
  0
VERTEX
  8
通り芯
 10
210.0
 20
148.5
  0
VERTEX
  8
通り芯
 10
-210.0
 20
148.5
  0
SEQEND
  0
INSERT
  2
*GRP_0001
  8
型材断面
  6
CONTINUOUS
 10
0.0
 20
0.0
  0
LINE
  8
型材断面
  6
DASHDOT
 10
4.712865
 20
-77.836442
 11
4.712865
 21
42.814033
  0
LINE
  8
型材断面
  6
DASHDOT
 10
-28.620467
 20
-77.836442
 11
-28.620467
 21
42.814033
  0
LINE
  8
型材断面
  6
DASHDOT
 10
-61.953802
 20
-77.836442
 11
-61.953802
 21
42.814033
  0
LINE
  8
型材断面
  6
DASHDOT
 10
-28.620467
 20
22.814033
 11
-28.620467
 21
42.814033
  0
LINE
  8
型材断面
  6
CONTINUOUS
 10
-45.287135
 20
45.444162
 11
-46.782765
 21
48.03467
  0
LINE
  8
型材断面
  6
CONTINUOUS
 10
-45.287135
 20
45.444162
 11
-43.791505
 21
48.03467
  0
LINE
  8
型材断面
  6
CONTINUOUS
 10
-43.791505
 20
48.03467
 11
-46.782765
 21
48.03467
  0
LINE
  8
型材断面
  6
CONTINUOUS
 10
-102.80601
 20
87.32138
 11
-104.30164
 21
84.730873
  0
LINE
  8
型材断面
  6
CONTINUOUS
 10
-102.80601
 20
87.32138
 11
-101.31038
 21
84.730873
  0
LINE
  8
型材断面
  6
CONTINUOUS
 10
-101.31038
 20
84.730873
 11
-104.30164
 21
84.730873
  0
LINE
  8
型材断面
  6
CONTINUOUS
 10
-108.828597
 20
83.792277
 11
-62.58682
 21
83.792277
  0
LINE
  8
型材断面
  6
CONTINUOUS
 10
-64.583932
 20
32.814033
 11
-67.17444
 21
34.309663
  0
LINE
  8
型材断面
  6
CONTINUOUS
 10
-64.583932
 20
32.814033
 11
-67.17444
 21
31.318403
  0
LINE
  8
型材断面
  6
CONTINUOUS
 10
-67.17444
 20
31.318403
 11
-67.17444
 21
34.309663
  0
LINE
  8
型材断面
  6
CONTINUOUS
 10
-45.287135
 20
20.183902
 11
-46.782765
 21
17.593395
  0
LINE
  8
型材断面
  6
CONTINUOUS
 10
-45.287135
 20
20.183902
 11
-43.791505
 21
17.593395
  0
LINE
  8
型材断面
  6
CONTINUOUS
 10
-43.791505
 20
17.593395
 11
-46.782765
 21
17.593395
  0
LINE
  8
型材断面
  6
CONTINUOUS
 10
-11.9538
 20
45.444162
 11
-10.45817
 21
48.03467
  0
LINE
  8
型材断面
  6
CONTINUOUS
 10
-11.9538
 20
45.444162
 11
-13.44943
 21
48.03467
  0
LINE
  8
型材断面
  6
CONTINUOUS
 10
-13.44943
 20
48.03467
 11
-10.45817
 21
48.03467
  0
LINE
  8
型材断面
  6
CONTINUOUS
 10
7.342997
 20
32.814033
 11
9.933505
 21
34.309663
  0
LINE
  8
型材断面
  6
CONTINUOUS
 10
7.342997
 20
32.814033
 11
9.933505
 21
31.318403
  0
LINE
  8
型材断面
  6
CONTINUOUS
 10
9.933505
 20
31.318403
 11
9.933505
 21
34.309663
  0
LINE
  8
型材断面
  6
CONTINUOUS
 10
-11.9538
 20
20.183902
 11
-10.45817
 21
17.593395
  0
LINE
  8
型材断面
  6
CONTINUOUS
 10
-11.9538
 20
20.183902
 11
-13.44943
 21
17.593395
  0
LINE
  8
型材断面
  6
CONTINUOUS
 10
-13.44943
 20
17.593395
 11
-10.45817
 21
17.593395
  0
LINE
  8
型材断面
  6
CONTINUOUS
 10
-108.828597
 20
77.65944
 11
-62.58682
 21
77.65944
  0
LINE
  8
型材断面
  6
CONTINUOUS
 10
-64.953845
 20
19.81399
 11
-28.620467
 21
19.81399
  0
LINE
  8
型材断面
  6
CONTINUOUS
 10
-64.953845
 20
45.814075
 11
-28.620467
 21
45.814075
  0
LINE
  8
型材断面
  6
CONTINUOUS
 10
7.71291
 20
45.814075
 11
-28.620467
 21
45.814075
  0
LINE
  8
型材断面
  6
CONTINUOUS
 10
7.71291
 20
19.81399
 11
-28.620467
 21
19.81399
  0
LINE
  8
型材断面
  6
CONTINUOUS
 10
113.827708
 20
20.313977
 11
113.827708
 21
32.814033
  0
CIRCLE
  8
型材断面
  6
CONTINUOUS
 62
    47
 10
112.82771
 20
19.814042
 40
0.011113
  0
LINE
  8
型材断面
  6
CONTINUOUS
 62
    47
 10
113.327708
 20
20.314033
 11
113.327708
 21
19.814042
  0
LINE
  8
型材断面
  6
CONTINUOUS
 62
    47
 10
113.327708
 20
19.814042
 11
112.82771
 21
19.814042
  0
LINE
  8
型材断面
  6
CONTINUOUS
 62
    47
 10
112.82771
 20
19.814042
 11
112.33053
 21
22.747372
  0
LINE
  8
型材断面
  6
CONTINUOUS
 62
    47
 10
113.327708
 20
20.314033
 11
113.827708
 21
20.314033
  0
LINE
  8
型材断面
  6
CONTINUOUS
 10
112.33053
 20
22.74732
 11
112.33053
 21
32.814033
  0
LINE
  8
型材断面
  6
CONTINUOUS
 62
    47
 10
111.677708
 20
21.324093
 11
111.677708
 21
32.814033
  0
LINE
  8
型材断面
  6
CONTINUOUS
 62
    47
 10
110.177708
 20
21.167572
 11
110.177708
 21
32.814033
  0
LINE
  8
型材断面
  6
CONTINUOUS
 62
    47
 10
110.01104
 20
21.324093
 11
110.01104
 21
32.814033
  0
LINE
  8
型材断面
  6
CONTINUOUS
 10
112.827713
 20
19.813988
 11
112.827713
 21
32.814033
  0
LINE
  8
型材断面
  6
CONTINUOUS
 62
    47
 10
113.327708
 20
19.813988
 11
113.327708
 21
32.814033
  0
LINE
  8
型材断面
  6
CONTINUOUS
 62
    47
 10
112.33053
 20
22.747372
 11
111.677708
 21
22.747372
  0
LINE
  8
型材断面
  6
CONTINUOUS
 10
113.827708
 20
45.314087
 11
113.827708
 21
32.814033
  0
CIRCLE
  8
型材断面
  6
CONTINUOUS
 62
    47
 10
112.82771
 20
45.814025
 40
0.011113
  0
LINE
  8
型材断面
  6
CONTINUOUS
 62
    47
 10
113.327708
 20
45.314033
 11
113.327708
 21
45.814025
  0
LINE
  8
型材断面
  6
CONTINUOUS
 62
    47
 10
113.327708
 20
45.814025
 11
112.82771
 21
45.814025
  0
LINE
  8
型材断面
  6
CONTINUOUS
 62
    47
 10
112.82771
 20
45.814025
 11
112.33053
 21
42.880693
  0
LINE
  8
型材断面
  6
CONTINUOUS
 62
    47
 10
113.327708
 20
45.314033
 11
113.827708
 21
45.314033
  0
LINE
  8
型材断面
  6
CONTINUOUS
 10
112.33053
 20
42.880747
 11
112.33053
 21
32.814033
  0
LINE
  8
型材断面
  6
CONTINUOUS
 62
    47
 10
111.677708
 20
44.303973
 11
111.677708
 21
32.814033
  0
LINE
  8
型材断面
  6
CONTINUOUS
 62
    47
 10
110.177708
 20
44.460495
 11
110.177708
 21
32.814033
  0
LINE
  8
型材断面
  6
CONTINUOUS
 62
    47
 10
110.01104
 20
44.303973
 11
110.01104
 21
32.814033
  0
LINE
  8
型材断面
  6
CONTINUOUS
 10
112.827713
 20
45.814077
 11
112.827713
 21
32.814033
  0
LINE
  8
型材断面
  6
CONTINUOUS
 62
    47
 10
113.327708
 20
45.814077
 11
113.327708
 21
32.814033
  0
LINE
  8
型材断面
  6
CONTINUOUS
 62
    47
 10
112.33053
 20
42.880693
 11
111.677708
 21
42.880693
  0
CIRCLE
  8
型材断面
  6
CONTINUOUS
 62
    47
 10
-64.953792
 20
-70.47978
 40
0.011113
  0
LINE
  8
型材断面
  6
CONTINUOUS
 62
    47
 10
-64.4538
 20
-70.97978
 11
-64.953792
 21
-70.97978
  0
LINE
  8
型材断面
  6
CONTINUOUS
 62
    47
 10
-64.953792
 20
-70.97978
 11
-64.953792
 21
-70.47978
  0
LINE
  8
型材断面
  6
CONTINUOUS
 62
    47
 10
-64.953792
 20
-70.47978
 11
-62.02046
 21
-69.9826
  0
LINE
  8
型材断面
  6
CONTINUOUS
 62
    47
 10
-64.4538
 20
-70.97978
 11
-64.4538
 21
-71.47978
  0
LINE
  8
型材断面
  6
CONTINUOUS
 62
    47
 10
-62.02046
 20
-69.9826
 11
-62.02046
 21
-69.329778
  0
CIRCLE
  8
型材断面
  6
CONTINUOUS
 62
    47
 10
7.712858
 20
-70.47978
 40
0.011113
  0
LINE
  8
型材断面
  6
CONTINUOUS
 62
    47
 10
7.212865
 20
-70.97978
 11
7.712858
 21
-70.97978
  0
LINE
  8
型材断面
  6
CONTINUOUS
 62
    47
 10
7.712858
 20
-70.97978
 11
7.712858
 21
-70.47978
  0
LINE
  8
型材断面
  6
CONTINUOUS
 62
    47
 10
7.712858
 20
-70.47978
 11
4.779525
 21
-69.9826
  0
LINE
  8
型材断面
  6
CONTINUOUS
 62
    47
 10
7.212865
 20
-70.97978
 11
7.212865
 21
-71.47978
  0
LINE
  8
型材断面
  6
CONTINUOUS
 62
    47
 10
4.779525
 20
-69.9826
 11
4.779525
 21
-69.329778
  0
LINE
  8
型材断面
  6
CONTINUOUS
 62
    47
 10
-63.44374
 20
-69.329778
 11
-28.620467
 21
-69.329778
  0
LINE
  8
型材断面
  6
CONTINUOUS
 62
    47
 10
-63.44374
 20
-67.66311
 11
-28.620467
 21
-67.66311
  0
LINE
  8
型材断面
  6
CONTINUOUS
 62
    47
 10
-63.600263
 20
-67.829778
 11
-28.620467
 21
-67.829778
  0
LINE
  8
型材断面
  6
CONTINUOUS
 10
-62.020515
 20
-69.9826
 11
-28.620467
 21
-69.9826
  0
LINE
  8
型材断面
  6
CONTINUOUS
 10
-64.953845
 20
-70.479782
 11
-28.620467
 21
-70.479782
  0
LINE
  8
型材断面
  6
CONTINUOUS
 10
-64.453855
 20
-71.47978
 11
-28.620467
 21
-71.47978
  0
LINE
  8
型材断面
  6
CONTINUOUS
 62
    47
 10
-64.953845
 20
-70.97978
 11
-28.620467
 21
-70.97978
  0
LINE
  8
型材断面
  6
CONTINUOUS
 10
4.77958
 20
-69.9826
 11
-28.620467
 21
-69.9826
  0
LINE
  8
型材断面
  6
CONTINUOUS
 62
    47
 10
6.202805
 20
-69.329778
 11
-28.620467
 21
-69.329778
  0
LINE
  8
型材断面
  6
CONTINUOUS
 62
    47
 10
6.359327
 20
-67.829778
 11
-28.620467
 21
-67.829778
  0
LINE
  8
型材断面
  6
CONTINUOUS
 62
    47
 10
6.202805
 20
-67.66311
 11
-28.620467
 21
-67.66311
  0
LINE
  8
型材断面
  6
CONTINUOUS
 10
7.21292
 20
-71.47978
 11
-28.620467
 21
-71.47978
  0
LINE
  8
型材断面
  6
CONTINUOUS
 10
7.71291
 20
-70.479782
 11
-28.620467
 21
-70.479782
  0
LINE
  8
型材断面
  6
CONTINUOUS
 62
    47
 10
7.71291
 20
-70.97978
 11
-28.620467
 21
-70.97978
  0
LINE
  8
型材断面
  6
DASHDOT
 10
120.803717
 20
42.814033
 11
-61.953802
 21
42.814033
  0
LINE
  8
型材断面
  6
DASHDOT
 10
120.803717
 20
22.814033
 11
-61.953802
 21
22.814033
  0
LINE
  8
型材断面
  6
DASHDOT
 10
-61.953802
 20
32.814033
 11
120.803717
 21
32.814033
  0
LINE
  8
型材断面
  6
CONTINUOUS
 10
-11.537133
 20
23.66757
 11
-11.537133
 21
21.16757
  0
LINE
  8
型材断面
  6
CONTINUOUS
 10
-12.370467
 20
23.66757
 11
-12.370467
 21
21.16757
  0
LINE
  8
型材断面
  6
CONTINUOUS
 10
-45.703802
 20
23.66757
 11
-45.703802
 21
21.16757
  0
LINE
  8
型材断面
  6
CONTINUOUS
 10
-44.870467
 20
23.66757
 11
-44.870467
 21
21.16757
  0
LINE
  8
型材断面
  6
CONTINUOUS
 10
-11.537133
 20
41.960495
 11
-11.537133
 21
44.460495
  0
LINE
  8
型材断面
  6
CONTINUOUS
 10
-12.370467
 20
41.960495
 11
-12.370467
 21
44.460495
  0
LINE
  8
型材断面
  6
CONTINUOUS
 10
-45.703802
 20
41.960495
 11
-45.703802
 21
44.460495
  0
LINE
  8
型材断面
  6
CONTINUOUS
 10
-44.870467
 20
41.960495
 11
-44.870467
 21
44.460495
  0
LINE
  8
型材断面
  6
CONTINUOUS
 10
-44.870467
 20
41.960495
 11
-12.370467
 21
41.960495
  0
LINE
  8
型材断面
  6
CONTINUOUS
 10
-44.870467
 20
23.66757
 11
-12.370467
 21
23.66757
  0
LINE
  8
型材断面
  6
CONTINUOUS
 10
-27.370467
 20
24.500902
 11
-29.870467
 21
24.500902
  0
LINE
  8
型材断面
  6
CONTINUOUS
 10
-27.370467
 20
41.127162
 11
-29.870467
 21
41.127162
  0
LINE
  8
型材断面
  6
CONTINUOUS
 10
-27.370467
 20
24.500902
 11
-27.370467
 21
41.127162
  0
LINE
  8
型材断面
  6
CONTINUOUS
 10
-29.870467
 20
24.500902
 11
-29.870467
 21
41.127162
  0
LINE
  8
型材断面
  6
CONTINUOUS
 10
7.712912
 20
45.814075
 11
7.712912
 21
32.81403
  0
LINE
  8
型材断面
  6
CONTINUOUS
 10
7.712912
 20
19.81399
 11
7.712912
 21
32.814035
  0
LINE
  8
型材断面
  6
CONTINUOUS
 10
3.859325
 20
32.397365
 11
6.359325
 21
32.397365
  0
LINE
  8
型材断面
  6
CONTINUOUS
 10
3.859325
 20
33.2307
 11
6.359325
 21
33.2307
  0
LINE
  8
型材断面
  6
CONTINUOUS
 10
6.123627
 20
21.16752
 11
6.359327
 21
21.40322
  0
LINE
  8
型材断面
  6
CONTINUOUS
 10
7.712912
 20
19.81399
 11
6.241505
 21
21.285397
  0
LINE
  8
型材断面
  6
CONTINUOUS
 10
3.623627
 20
23.66752
 11
3.859327
 21
23.90322
  0
LINE
  8
型材断面
  6
CONTINUOUS
 10
3.859327
 20
23.90322
 11
6.359325
 21
21.403223
  0
LINE
  8
型材断面
  6
CONTINUOUS
 10
3.859325
 20
32.397365
 11
3.859325
 21
23.903218
  0
LINE
  8
型材断面
  6
CONTINUOUS
 10
6.123627
 20
44.460545
 11
6.359327
 21
44.224845
  0
LINE
  8
型材断面
  6
CONTINUOUS
 10
7.712912
 20
45.814075
 11
6.241505
 21
44.342668
  0
LINE
  8
型材断面
  6
CONTINUOUS
 10
3.623627
 20
41.960545
 11
3.859327
 21
41.724845
  0
LINE
  8
型材断面
  6
CONTINUOUS
 10
3.623627
 20
41.960545
 11
6.123577
 21
44.460495
  0
LINE
  8
型材断面
  6
CONTINUOUS
 10
3.859327
 20
41.724845
 11
6.359325
 21
44.224842
  0
LINE
  8
型材断面
  6
CONTINUOUS
 10
6.359325
 20
21.403223
 11
6.359325
 21
44.224842
  0
LINE
  8
型材断面
  6
CONTINUOUS
 10
3.859325
 20
33.2307
 11
3.859325
 21
41.724848
  0
LINE
  8
型材断面
  6
CONTINUOUS
 10
-11.537133
 20
41.960495
 11
3.623577
 21
41.960495
  0
LINE
  8
型材断面
  6
CONTINUOUS
 10
-11.537133
 20
23.66757
 11
3.623577
 21
23.66757
  0
LINE
  8
型材断面
  6
CONTINUOUS
 10
6.123577
 20
21.16757
 11
3.623577
 21
23.66757
  0
LINE
  8
型材断面
  6
CONTINUOUS
 10
-64.953848
 20
45.814075
 11
-64.953848
 21
32.81403
  0
LINE
  8
型材断面
  6
CONTINUOUS
 10
-64.953848
 20
19.81399
 11
-64.953848
 21
32.814035
  0
LINE
  8
型材断面
  6
CONTINUOUS
 10
-61.10026
 20
32.397365
 11
-63.60026
 21
32.397365
  0
LINE
  8
型材断面
  6
CONTINUOUS
 10
-61.10026
 20
33.2307
 11
-63.60026
 21
33.2307
  0
LINE
  8
型材断面
  6
CONTINUOUS
 10
-63.364563
 20
21.16752
 11
-63.600263
 21
21.40322
  0
LINE
  8
型材断面
  6
CONTINUOUS
 10
-64.953848
 20
19.81399
 11
-63.48244
 21
21.285397
  0
LINE
  8
型材断面
  6
CONTINUOUS
 10
-60.864563
 20
23.66752
 11
-61.100263
 21
23.90322
  0
LINE
  8
型材断面
  6
CONTINUOUS
 10
-61.100263
 20
23.90322
 11
-63.60026
 21
21.403223
  0
LINE
  8
型材断面
  6
CONTINUOUS
 10
-61.10026
 20
32.397365
 11
-61.10026
 21
23.903218
  0
LINE
  8
型材断面
  6
CONTINUOUS
 10
-63.364563
 20
44.460545
 11
-63.600263
 21
44.224845
  0
LINE
  8
型材断面
  6
CONTINUOUS
 10
-64.953848
 20
45.814075
 11
-63.48244
 21
44.342668
  0
LINE
  8
型材断面
  6
CONTINUOUS
 10
-60.864563
 20
41.960545
 11
-61.100263
 21
41.724845
  0
LINE
  8
型材断面
  6
CONTINUOUS
 10
-60.864563
 20
41.960545
 11
-63.364513
 21
44.460495
  0
LINE
  8
型材断面
  6
CONTINUOUS
 10
-61.100263
 20
41.724845
 11
-63.60026
 21
44.224842
  0
LINE
  8
型材断面
  6
CONTINUOUS
 10
-63.60026
 20
21.403223
 11
-63.60026
 21
44.224842
  0
LINE
  8
型材断面
  6
CONTINUOUS
 10
-61.10026
 20
33.2307
 11
-61.10026
 21
41.724848
  0
LINE
  8
型材断面
  6
CONTINUOUS
 10
-63.364513
 20
21.16757
 11
-60.864513
 21
23.66757
  0
LINE
  8
型材断面
  6
CONTINUOUS
 10
-45.703802
 20
23.66757
 11
-60.864513
 21
23.66757
  0
LINE
  8
型材断面
  6
CONTINUOUS
 10
6.123577
 20
21.16757
 11
-63.364513
 21
21.16757
  0
LINE
  8
型材断面
  6
CONTINUOUS
 10
-45.703802
 20
41.960495
 11
-60.864513
 21
41.960495
  0
LINE
  8
型材断面
  6
CONTINUOUS
 10
6.123577
 20
44.460495
 11
-63.364513
 21
44.460495
  0
TEXT
  7
TextStyle03
  8
文字
  6
CONTINUOUS
 10
-100.025
 20
84.95
  1
は排水穴位置を示す
 40
3.0
 72
     5
 11
-70.025
 21
84.95
  0
TEXT
  7
TextStyle03
  8
文字
  6
CONTINUOUS
 10
60.725
 20
104.525
  1
ＮＳコード：ＮＳＦＫＺ
 40
5.0
 72
     5
 11
121.975
 21
104.525
  0
TEXT
  7
TextStyle03
  8
文字
  6
CONTINUOUS
 10
81.275
 20
-76.7
  1
網入り6.8t
 40
3.0
 72
     5
 11
97.9625
 21
-76.7
  0
TEXT
  7
TextStyle03
  8
文字
  6
CONTINUOUS
 10
87.95
 20
-81.375
  1
×２枚
 40
3.0
 72
     5
 11
97.7
 21
-81.375
  0
TEXT
  7
TextStyle03
  8
文字
  6
CONTINUOUS
 10
-83.05
 20
11.275
  1
アンカーピッチ
 40
3.0
 50
90.0
 72
     5
 11
-83.05
 21
34.525
  0
TEXT
  7
TextStyle03
  8
文字
  6
CONTINUOUS
 10
-54.5
 20
79.675
  1
アンカーピッチ
 40
3.0
 72
     5
 11
-31.25
 21
79.675
  0
TEXT
  7
TextStyle03
  8
文字
  6
CONTINUOUS
 10
-103.75
 20
78.6
  1
アンカー数量　１０ヶ所
 40
3.0
 72
     5
 11
-67.0
 21
78.6
  0
LINE
  8
文字
  6
CONTINUOUS
 10
110.01104
 20
56.453242
 11
110.01104
 21
47.100085
  0
LINE
  8
文字
  6
CONTINUOUS
 10
113.327708
 20
56.453242
 11
113.327708
 21
47.165438
  0
LINE
  8
文字
  6
CONTINUOUS
 10
18.352075
 20
-67.66311
 11
8.998918
 21
-67.66311
  0
LINE
  8
文字
  6
CONTINUOUS
 10
18.352075
 20
-70.97978
 11
9.06427
 21
-70.97978
  0
LINE
  8
文字
  6
CONTINUOUS
 10
99.79942
 20
-55.91121
 11
99.79942
 21
-62.342527
  0
LINE
  8
文字
  6
CONTINUOUS
 10
67.382753
 20
-55.91121
 11
67.382753
 21
-62.342527
  0
TEXT
  7
TextStyle03
  8
文字
  6
CONTINUOUS
 10
60.575
 20
125.25
  1
シリーズ：ＴＦ２ＦＫＬ
 40
5.0
 72
     5
 11
121.825
 21
125.25
  0
TEXT
  7
TextStyle03
  8
文字
  6
CONTINUOUS
 10
60.575
 20
119.625
  1
　　　　　（固定）600×2000タイプ
 40
5.0
 72
     5
 11
152.7625
 21
119.625
  0
TEXT
  7
TextStyle03
  8
文字
  6
CONTINUOUS
 10
60.575
 20
114.0
  1
図面名　：外観姿図
 40
5.0
 72
     5
 11
110.575
 21
114.0
  0
TEXT
  7
TextStyle03
  8
文字
  6
CONTINUOUS
 10
60.575
 20
108.375
  1
　　　　　　
 40
5.0
 72
     5
 11
93.7
 21
108.375
  0
INSERT
  2
*DIM_0002
  8
寸法
  6
CONTINUOUS
 10
0.0
 20
0.0
  0
INSERT
  2
*DIM_0003
  8
寸法
  6
CONTINUOUS
 10
0.0
 20
0.0
  0
INSERT
  2
*DIM_0004
  8
寸法
  6
CONTINUOUS
 10
0.0
 20
0.0
  0
INSERT
  2
*DIM_0005
  8
寸法
  6
CONTINUOUS
 10
0.0
 20
0.0
  0
INSERT
  2
*DIM_0006
  8
寸法
  6
CONTINUOUS
 10
0.0
 20
0.0
  0
INSERT
  2
*DIM_0007
  8
寸法
  6
CONTINUOUS
 10
0.0
 20
0.0
  0
INSERT
  2
*DIM_0008
  8
寸法
  6
CONTINUOUS
 10
0.0
 20
0.0
  0
INSERT
  2
*DIM_0009
  8
寸法
  6
CONTINUOUS
 10
0.0
 20
0.0
  0
INSERT
  2
*DIM_0010
  8
寸法
  6
CONTINUOUS
 10
0.0
 20
0.0
  0
INSERT
  2
*DIM_0011
  8
寸法
  6
CONTINUOUS
 10
0.0
 20
0.0
  0
INSERT
  2
*DIM_0012
  8
寸法
  6
CONTINUOUS
 10
0.0
 20
0.0
  0
LINE
  8
別途部材
  6
CONTINUOUS
 62
    47
 10
110.11104
 20
21.167572
 11
110.177708
 21
21.167572
  0
ARC
  8
別途部材
  6
CONTINUOUS
 62
    47
 10
110.111038
 20
21.267571
 40
0.1
 50
180.0
 51
270.0
  0
LINE
  8
別途部材
  6
CONTINUOUS
 62
    47
 10
110.01104
 20
21.267572
 11
110.01104
 21
21.324093
  0
LINE
  8
別途部材
  6
CONTINUOUS
 62
    47
 10
111.677708
 20
21.324093
 11
110.177708
 21
21.324093
  0
LINE
  8
別途部材
  6
CONTINUOUS
 62
    47
 10
110.11104
 20
44.460495
 11
110.177708
 21
44.460495
  0
ARC
  8
別途部材
  6
CONTINUOUS
 62
    47
 10
110.111038
 20
44.360495
 40
0.1
 50
90.0
 51
180.0
  0
LINE
  8
別途部材
  6
CONTINUOUS
 62
    47
 10
110.01104
 20
44.360495
 11
110.01104
 21
44.303973
  0
LINE
  8
別途部材
  6
CONTINUOUS
 62
    47
 10
111.677708
 20
44.303973
 11
110.177708
 21
44.303973
  0
LINE
  8
別途部材
  6
CONTINUOUS
 62
    47
 10
-63.600263
 20
-67.76311
 11
-63.600263
 21
-67.829778
  0
ARC
  8
別途部材
  6
CONTINUOUS
 62
    47
 10
-63.500263
 20
-67.763106
 40
0.1
 50
90.0
 51
180.0
  0
LINE
  8
別途部材
  6
CONTINUOUS
 62
    47
 10
-63.500263
 20
-67.66311
 11
-63.44374
 21
-67.66311
  0
LINE
  8
別途部材
  6
CONTINUOUS
 62
    47
 10
-63.44374
 20
-69.329778
 11
-63.44374
 21
-67.829778
  0
LINE
  8
別途部材
  6
CONTINUOUS
 62
    47
 10
6.359327
 20
-67.76311
 11
6.359327
 21
-67.829778
  0
ARC
  8
別途部材
  6
CONTINUOUS
 62
    47
 10
6.259327
 20
-67.763106
 40
0.1
 50
0.0
 51
90.0
  0
LINE
  8
別途部材
  6
CONTINUOUS
 62
    47
 10
6.259327
 20
-67.66311
 11
6.202805
 21
-67.66311
  0
LINE
  8
別途部材
  6
CONTINUOUS
 62
    47
 10
6.202805
 20
-69.329778
 11
6.202805
 21
-67.829778
  0
LINE
  8
曲げ物
  6
CONTINUOUS
 10
-9.52482
 20
34.739582
 11
-13.220133
 21
31.04427
  0
LINE
  8
曲げ物
  6
CONTINUOUS
 10
-10.22829
 20
33.203472
 11
-11.68402
 21
31.747742
  0
LINE
  8
曲げ物
  6
CONTINUOUS
 10
-11.06093
 20
34.036112
 11
-12.51666
 21
32.580383
  0
LINE
  8
曲げ物
  6
CONTINUOUS
 10
-42.87684
 20
34.739582
 11
-46.572152
 21
31.04427
  0
LINE
  8
曲げ物
  6
CONTINUOUS
 10
-43.58031
 20
33.203472
 11
-45.03604
 21
31.747742
  0
LINE
  8
曲げ物
  6
CONTINUOUS
 10
-44.41295
 20
34.036112
 11
-45.86868
 21
32.580383
  0
LINE
  8
曲げ物
  6
CONTINUOUS
 10
99.79942
 20
-83.118728
 11
99.79942
 21
-63.785395
  0
LINE
  8
曲げ物
  6
CONTINUOUS
 10
67.382753
 20
-83.118728
 11
67.382753
 21
-63.785395
  0
LINE
  8
曲げ物
  6
CONTINUOUS
 10
99.79942
 20
-63.785395
 11
67.382753
 21
-63.785395
  0
LINE
  8
曲げ物
  6
CONTINUOUS
 10
99.79942
 20
-83.118728
 11
67.382753
 21
-83.118728
  0
CIRCLE
  8
LAYER010
  6
CONTINUOUS
 62
    47
 10
112.82771
 20
19.814042
 40
0.011113
  0
CIRCLE
  8
LAYER010
  6
CONTINUOUS
 62
    47
 10
112.82771
 20
45.814025
 40
0.011113
  0
CIRCLE
  8
LAYER010
  6
CONTINUOUS
 62
    47
 10
-64.953792
 20
-70.47978
 40
0.011113
  0
CIRCLE
  8
LAYER010
  6
CONTINUOUS
 62
    47
 10
7.712858
 20
-70.47978
 40
0.011113
  0
ENDSEC
  0
EOF
