  0
SECTION
  2
HEADER
  9
$EXTMIN
 10
-210.0
 20
-148.5
  9
$EXTMAX
 10
210.0
 20
148.5
  9
$PDMODE
 70
    32
  9
$PDSIZE
 40
1.5
  9
$LTSCALE
 40
10.0
  0
ENDSEC
  0
SECTION
  2
TABLES
  0
TABLE
  2
LTYPE
 70
    15
  0
LTYPE
  2
CONTINUOUS
 70
    64
  3
実線
 72
    65
 73
     0
 40
0.0
  0
LTYPE
  2
DASHED
 70
    64
  3
破線A
 72
    65
 73
     2
 40
0.6
 49
0.4
 49
-0.2
  0
LTYPE
  2
DASHEDX2
 70
    64
  3
破線B
 72
    65
 73
     2
 40
1.3
 49
0.9
 49
-0.4
  0
LTYPE
  2
DASHDOT
 70
    64
  3
１点鎖線A
 72
    65
 73
     4
 40
0.5375
 49
0.375
 49
-0.05
 49
0.0625
 49
-0.05
  0
LTYPE
  2
DASHDOTX2
 70
    64
  3
１点鎖線B
 72
    65
 73
     4
 40
1.075
 49
0.75
 49
-0.1
 49
0.125
 49
-0.1
  0
LTYPE
  2
DIVIDE2
 70
    64
  3
２点鎖線A
 72
    65
 73
     6
 40
0.5125
 49
0.3
 49
-0.0375
 49
0.05
 49
-0.0375
 49
0.05
 49
-0.0375
  0
LTYPE
  2
DIVIDE
 70
    64
  3
２点鎖線B
 72
    65
 73
     6
 40
1.05
 49
0.55
 49
-0.1
 49
0.1
 49
-0.1
 49
0.1
 49
-0.1
  0
LTYPE
  2
DOT
 70
    64
  3
点線A
 72
    65
 73
     2
 40
0.1125
 49
0.0625
 49
-0.05
  0
LTYPE
  2
DOTX2
 70
    64
  3
点線B
 72
    65
 73
     2
 40
0.275
 49
0.15
 49
-0.125
  0
LTYPE
  2
CONTINUOUS
 70
    64
  3
実線
 72
    65
 73
     0
 40
0.0
  0
LTYPE
  2
CONTINUOUS
 70
    64
  3
実線
 72
    65
 73
     0
 40
0.0
  0
LTYPE
  2
CONTINUOUS
 70
    64
  3
実線
 72
    65
 73
     0
 40
0.0
  0
LTYPE
  2
CONTINUOUS
 70
    64
  3
実線
 72
    65
 73
     0
 40
0.0
  0
LTYPE
  2
CONTINUOUS
 70
    64
  3
実線
 72
    65
 73
     0
 40
0.0
  0
LTYPE
  2
CONTINUOUS
 70
    64
  3
実線
 72
    65
 73
     0
 40
0.0
  0
ENDTAB
  0
TABLE
  2
LAYER
 70
    35
  0
LAYER
  2
通り芯
 70
     0
 62
    15
  6
CONTINUOUS
  0
LAYER
  2
補助線
 70
     0
 62
    16
  6
DOT
  0
LAYER
  2
躯体
 70
     0
 62
    31
  6
CONTINUOUS
  0
LAYER
  2
型材
 70
     0
 62
    32
  6
CONTINUOUS
  0
LAYER
  2
型材断面
 70
     0
 62
    47
  6
CONTINUOUS
  0
LAYER
  2
ガラス
 70
     0
 62
    48
  6
CONTINUOUS
  0
LAYER
  2
ゴム等
 70
     0
 62
    63
  6
CONTINUOUS
  0
LAYER
  2
ボルト／ビス
 70
     0
 62
    64
  6
CONTINUOUS
  0
LAYER
  2
文字
 70
     0
 62
    79
  6
CONTINUOUS
  0
LAYER
  2
寸法
 70
     0
 62
    80
  6
CONTINUOUS
  0
LAYER
  2
ﾊｯﾁﾝｸﾞ
 70
     0
 62
    95
  6
CONTINUOUS
  0
LAYER
  2
別途部材
 70
     0
 62
    96
  6
CONTINUOUS
  0
LAYER
  2
曲げ物
 70
     0
 62
   111
  6
CONTINUOUS
  0
LAYER
  2
鉄骨等
 70
     0
 62
   112
  6
CONTINUOUS
  0
LAYER
  2
St
 70
     0
 62
   127
  6
CONTINUOUS
  0
LAYER
  2
その他部品等
 70
     0
 62
   128
  6
CONTINUOUS
  0
LAYER
  2
ｶﾞｽｹｯﾄ
 70
     0
 62
   143
  6
CONTINUOUS
  0
LAYER
  2
ｽｹｯﾁ
 70
     0
 62
    14
  6
CONTINUOUS
  0
LAYER
  2
0
 70
     0
 62
    17
  6
CONTINUOUS
  0
LAYER
  2
1
 70
     0
 62
    30
  6
CONTINUOUS
  0
LAYER
  2
4
 70
     0
 62
    33
  6
CONTINUOUS
  0
LAYER
  2
ﾚｲﾔ3
 70
     0
 62
    46
  6
CONTINUOUS
  0
LAYER
  2
外形線
 70
     0
 62
    49
  6
CONTINUOUS
  0
LAYER
  2
部品
 70
     0
 62
    14
  6
CONTINUOUS
  0
LAYER
  2
サッシ芯
 70
     0
 62
    17
  6
DASHDOTX2
  0
LAYER
  2
寸法線
 70
     0
 62
    62
  6
CONTINUOUS
  0
LAYER
  2
姿図外形線
 70
     0
 62
    65
  6
CONTINUOUS
  0
LAYER
  2
姿補助線
 70
     0
 62
    30
  6
CONTINUOUS
  0
LAYER
  2
透視線
 70
     0
 62
    78
  6
DOT
  0
LAYER
  2
用紙
 70
     0
 62
    81
  6
CONTINUOUS
  0
LAYER
  2
実線図枠
 70
     0
 62
    94
  6
CONTINUOUS
  0
LAYER
  2
補助図枠
 70
     0
 62
    97
  6
CONTINUOUS
  0
LAYER
  2
建具記号
 70
     0
 62
   110
  6
CONTINUOUS
  0
LAYER
  2
補助文字
 70
     0
 62
   113
  6
CONTINUOUS
  0
LAYER
  2
LAYER010
 70
     0
 62
    11
  6
CONTINUOUS
  0
ENDTAB
  0
TABLE
  2
STYLE
 70
    10
  0
STYLE
  2
STANDARD
 70
     0
 40
1.0
 41
1.0
 42
1.0
 50
0.0
 71
     0
  3
TXT
  4
BIGFONT
  0
STYLE
  2
TATE
 70
     4
 40
1.0
 41
1.0
 42
1.0
 50
0.0
 71
     0
  3
TXT
  4
BIGFONT
  0
STYLE
  2
TextStyle03
 70
     0
 40
1.0
 41
1.0
 42
1.0
 50
0.0
 71
     0
  3
MONOTXT
  4
BIGFONT
  0
STYLE
  2
TextStyle04
 70
     0
 40
1.0
 41
1.0
 42
1.0
 50
0.0
 71
     0
  3
MONOTXT
  4
BIGFONT
  0
STYLE
  2
TextStyle05
 70
     0
 40
1.0
 41
1.0
 42
1.0
 50
0.0
 71
     0
  3
MONOTXT
  4
BIGFONT
  0
STYLE
  2
TextStyle06
 70
     0
 40
1.0
 41
1.0
 42
1.0
 50
0.0
 71
     0
  3
MONOTXT
  4
BIGFONT
  0
STYLE
  2
TextStyle07
 70
     0
 40
1.0
 41
1.0
 42
1.0
 50
0.0
 71
     0
  3
MONOTXT
  4
BIGFONT
  0
STYLE
  2
TextStyle08
 70
     0
 40
1.0
 41
1.0
 42
1.0
 50
0.0
 71
     0
  3
MONOTXT
  4
BIGFONT
  0
STYLE
  2
TextStyle09
 70
     0
 40
1.0
 41
1.0
 42
1.0
 50
0.0
 71
     0
  3
MONOTXT
  4
BIGFONT
  0
STYLE
  2
TextStyle10
 70
     0
 40
1.0
 41
1.0
 42
1.0
 50
0.0
 71
     0
  3
MONOTXT
  4
BIGFONT
  0
ENDTAB
  0
ENDSEC
  0
SECTION
  2
BLOCKS
  0
BLOCK
  2
*GRP_0001
 70
    65
 10
0.0
 20
0.0
  0
LINE
  8
型材断面
  6
CONTINUOUS
 10
195.0
 20
133.5
 11
195.0
 21
-133.5
  0
LINE
  8
型材断面
  6
CONTINUOUS
 10
195.0
 20
-133.5
 11
-185.0
 21
-133.5
  0
LINE
  8
型材断面
  6
CONTINUOUS
 10
-185.0
 20
-133.5
 11
-185.0
 21
133.5
  0
LINE
  8
型材断面
  6
CONTINUOUS
 10
195.0
 20
133.5
 11
-185.0
 21
133.5
  0
LINE
  8
型材断面
  6
CONTINUOUS
 10
145.0
 20
-133.5
 11
145.0
 21
-118.5
  0
LINE
  8
型材断面
  6
CONTINUOUS
 10
195.0
 20
-118.5
 11
145.0
 21
-118.5
  0
ENDBLK
  0
BLOCK
  2
*DIM_0002
 70
    65
 10
0.0
 20
0.0
  0
LINE
  8
寸法
  6
BYBLOCK
 62
     0
 10
4.712865
 20
-13.121378
 11
-95.287135
 21
-13.121378
  0
POINT
  8
寸法
 62
     0
 10
4.712865
 20
-13.121378
  0
POINT
  8
寸法
 62
     0
 10
-95.287135
 20
-13.121378
  0
TEXT
  7
TextStyle03
  8
寸法
  6
CONTINUOUS
 62
     0
 10
-57.01875
 20
-12.75
  1
呼称寸法　3000
 40
3.0
 72
     5
 11
-33.58125
 21
-12.75
  0
ENDBLK
  0
BLOCK
  2
*DIM_0003
 70
    65
 10
0.0
 20
0.0
  0
LINE
  8
寸法
  6
BYBLOCK
 62
     0
 10
-78.620467
 20
19.183902
 11
-78.620467
 21
14.10329
  0
LINE
  8
寸法
  6
BYBLOCK
 62
     0
 10
-11.953802
 20
19.183902
 11
-11.953802
 21
14.10329
  0
LINE
  8
寸法
  6
BYBLOCK
 62
     0
 10
-78.620467
 20
14.10329
 11
-11.953802
 21
14.10329
  0
POINT
  8
寸法
 62
     0
 10
-78.620467
 20
14.10329
  0
POINT
  8
寸法
 62
     0
 10
-11.953802
 20
14.10329
  0
TEXT
  7
TextStyle03
  8
寸法
  6
CONTINUOUS
 62
     0
 10
-48.55625
 20
14.475
  1
2000
 40
3.0
 72
     5
 11
-41.99375
 21
14.475
  0
ENDBLK
  0
BLOCK
  2
*DIM_0004
 70
    65
 10
0.0
 20
0.0
  0
LINE
  8
寸法
  6
BYBLOCK
 62
     0
 10
7.712912
 20
-69.576397
 11
7.712912
 21
-13.121378
  0
LINE
  8
寸法
  6
BYBLOCK
 62
     0
 10
4.712865
 20
-13.121378
 11
7.712912
 21
-13.121378
  0
POINT
  8
寸法
 62
     0
 10
4.712865
 20
-13.121378
  0
POINT
  8
寸法
 62
     0
 10
7.712912
 20
-13.121378
  0
TEXT
  7
TextStyle03
  8
寸法
  6
CONTINUOUS
 62
     0
 10
4.60625
 20
-12.75
  1
90
 40
3.0
 72
     5
 11
7.79375
 21
-12.75
  0
ENDBLK
  0
BLOCK
  2
*DIM_0005
 70
    65
 10
0.0
 20
0.0
  0
LINE
  8
寸法
  6
BYBLOCK
 62
     0
 10
-98.287183
 20
-69.576397
 11
-98.287183
 21
-13.121378
  0
LINE
  8
寸法
  6
BYBLOCK
 62
     0
 10
-95.287135
 20
-13.121378
 11
-98.287183
 21
-13.121378
  0
POINT
  8
寸法
 62
     0
 10
-95.287135
 20
-13.121378
  0
POINT
  8
寸法
 62
     0
 10
-98.287183
 20
-13.121378
  0
TEXT
  7
TextStyle03
  8
寸法
  6
CONTINUOUS
 62
     0
 10
-98.39375
 20
-12.75
  1
90
 40
3.0
 72
     5
 11
-95.20625
 21
-12.75
  0
ENDBLK
  0
BLOCK
  2
*DIM_0006
 70
    65
 10
0.0
 20
0.0
  0
LINE
  8
寸法
  6
BYBLOCK
 62
     0
 10
100.79942
 20
-63.785395
 11
108.91095
 21
-63.785395
  0
LINE
  8
寸法
  6
BYBLOCK
 62
     0
 10
100.79942
 20
-83.118728
 11
108.91095
 21
-83.118728
  0
LINE
  8
寸法
  6
BYBLOCK
 62
     0
 10
108.91095
 20
-63.785395
 11
108.91095
 21
-83.118728
  0
POINT
  8
寸法
 62
     0
 10
108.91095
 20
-63.785395
  0
POINT
  8
寸法
 62
     0
 10
108.91095
 20
-83.118728
  0
TEXT
  7
TextStyle03
  8
寸法
  6
CONTINUOUS
 62
     0
 10
108.525
 20
-75.9125
  1
580
 40
3.0
 50
90.0
 72
     5
 11
108.525
 21
-71.0375
  0
ENDBLK
  0
BLOCK
  2
*DIM_0007
 70
    65
 10
0.0
 20
0.0
  0
LINE
  8
寸法
  6
BYBLOCK
 62
     0
 10
-98.287135
 20
39.4807
 11
-111.579972
 21
39.4807
  0
LINE
  8
寸法
  6
BYBLOCK
 62
     0
 10
-98.287135
 20
26.147365
 11
-111.579972
 21
26.147365
  0
LINE
  8
寸法
  6
BYBLOCK
 62
     0
 10
-111.579972
 20
39.4807
 11
-111.579972
 21
26.147365
  0
POINT
  8
寸法
 62
     0
 10
-111.579972
 20
39.4807
  0
POINT
  8
寸法
 62
     0
 10
-111.579972
 20
26.147365
  0
TEXT
  7
TextStyle03
  8
寸法
  6
CONTINUOUS
 62
     0
 10
-112.0
 20
30.3625
  1
400
 40
3.0
 50
90.0
 72
     5
 11
-112.0
 21
35.2375
  0
ENDBLK
  0
BLOCK
  2
*DIM_0008
 70
    65
 10
0.0
 20
0.0
  0
LINE
  8
寸法
  6
BYBLOCK
 62
     0
 10
-85.287135
 20
45.814033
 11
-85.287135
 21
74.922105
  0
LINE
  8
寸法
  6
BYBLOCK
 62
     0
 10
-58.620467
 20
45.814033
 11
-58.620467
 21
74.922105
  0
LINE
  8
寸法
  6
BYBLOCK
 62
     0
 10
-85.287135
 20
74.922105
 11
-58.620467
 21
74.922105
  0
POINT
  8
寸法
 62
     0
 10
-85.287135
 20
74.922105
  0
POINT
  8
寸法
 62
     0
 10
-58.620467
 20
74.922105
  0
TEXT
  7
TextStyle03
  8
寸法
  6
CONTINUOUS
 62
     0
 10
-74.3875
 20
75.3
  1
800
 40
3.0
 72
     5
 11
-69.5125
 21
75.3
  0
ENDBLK
  0
BLOCK
  2
*DIM_0009
 70
    65
 10
0.0
 20
0.0
  0
LINE
  8
寸法
  6
BYBLOCK
 62
     0
 10
-31.953802
 20
45.814033
 11
-31.953802
 21
74.922105
  0
LINE
  8
寸法
  6
BYBLOCK
 62
     0
 10
-58.620467
 20
74.922105
 11
-31.953802
 21
74.922105
  0
POINT
  8
寸法
 62
     0
 10
-31.953802
 20
74.922105
  0
TEXT
  7
TextStyle03
  8
寸法
  6
CONTINUOUS
 62
     0
 10
-47.7125
 20
75.3
  1
800
 40
3.0
 72
     5
 11
-42.8375
 21
75.3
  0
ENDBLK
  0
BLOCK
  2
*DIM_0010
 70
    65
 10
0.0
 20
0.0
  0
LINE
  8
寸法
  6
BYBLOCK
 62
     0
 10
-5.287135
 20
45.814033
 11
-5.287135
 21
74.922105
  0
LINE
  8
寸法
  6
BYBLOCK
 62
     0
 10
-31.953802
 20
74.922105
 11
-5.287135
 21
74.922105
  0
POINT
  8
寸法
 62
     0
 10
-5.287135
 20
74.922105
  0
TEXT
  7
TextStyle03
  8
寸法
  6
CONTINUOUS
 62
     0
 10
-21.0375
 20
75.3
  1
800
 40
3.0
 72
     5
 11
-16.1625
 21
75.3
  0
ENDBLK
  0
BLOCK
  2
*DIM_0011
 70
    65
 10
0.0
 20
0.0
  0
LINE
  8
寸法
  6
CONTINUOUS
 10
111.11385
 20
56.453242
 11
114.430517
 21
56.453242
  0
POINT
  8
寸法
 10
111.11385
 20
56.453242
  0
POINT
  8
寸法
 10
114.430517
 20
56.453242
  0
TEXT
  7
TextStyle03
  8
寸法
  6
CONTINUOUS
 10
109.36875
 20
56.625
  1
99.5
 40
3.0
 72
     5
 11
115.93125
 21
56.625
  0
ENDBLK
  0
BLOCK
  2
*DIM_0012
 70
    65
 10
0.0
 20
0.0
  0
LINE
  8
寸法
  6
CONTINUOUS
 10
18.352073
 20
-68.621625
 11
18.352073
 21
-71.938292
  0
POINT
  8
寸法
 10
18.352073
 20
-68.621625
  0
POINT
  8
寸法
 10
18.352073
 20
-71.938292
  0
TEXT
  7
TextStyle03
  8
寸法
  6
CONTINUOUS
 10
21.5
 20
-73.45625
  1
99.5
 40
3.0
 50
90.0
 72
     5
 11
21.5
 21
-66.89375
  0
ENDBLK
  0
BLOCK
  2
*DIM_0013
 70
    65
 10
0.0
 20
0.0
  0
LINE
  8
寸法
  6
CONTINUOUS
 10
99.79942
 20
-56.234433
 11
67.466087
 21
-56.234433
  0
POINT
  8
寸法
 10
99.79942
 20
-56.234433
  0
POINT
  8
寸法
 10
67.466087
 20
-56.234433
  0
TEXT
  7
TextStyle03
  8
寸法
  6
CONTINUOUS
 10
81.1875
 20
-55.9
  1
970
 40
3.0
 72
     5
 11
86.0625
 21
-55.9
  0
ENDBLK
  0
ENDSEC
  0
SECTION
  2
ENTITIES
  0
POLYLINE
  8
通り芯
  6
CONTINUOUS
 66
     1
 70
     1
  0
VERTEX
  8
通り芯
 10
-210.0
 20
-148.5
  0
VERTEX
  8
通り芯
 10
210.0
 20
-148.5
  0
VERTEX
  8
通り芯
 10
210.0
 20
148.5
  0
VERTEX
  8
通り芯
 10
-210.0
 20
148.5
  0
SEQEND
  0
INSERT
  2
*GRP_0001
  8
型材断面
  6
CONTINUOUS
 10
0.0
 20
0.0
  0
LINE
  8
型材断面
  6
DASHDOT
 10
4.712865
 20
-77.836442
 11
4.712865
 21
42.814033
  0
LINE
  8
型材断面
  6
DASHDOT
 10
-45.287135
 20
-77.836442
 11
-45.287135
 21
42.814033
  0
LINE
  8
型材断面
  6
DASHDOT
 10
-95.287135
 20
-77.836442
 11
-95.287135
 21
42.814033
  0
LINE
  8
型材断面
  6
CONTINUOUS
 10
-78.620467
 20
45.444162
 11
-80.116097
 21
48.03467
  0
LINE
  8
型材断面
  6
CONTINUOUS
 10
-78.620467
 20
45.444162
 11
-77.124838
 21
48.03467
  0
LINE
  8
型材断面
  6
CONTINUOUS
 10
-77.124838
 20
48.03467
 11
-80.116097
 21
48.03467
  0
LINE
  8
型材断面
  6
CONTINUOUS
 10
-136.139343
 20
87.32138
 11
-137.634973
 21
84.730873
  0
LINE
  8
型材断面
  6
CONTINUOUS
 10
-136.139343
 20
87.32138
 11
-134.643713
 21
84.730873
  0
LINE
  8
型材断面
  6
CONTINUOUS
 10
-134.643713
 20
84.730873
 11
-137.634973
 21
84.730873
  0
LINE
  8
型材断面
  6
CONTINUOUS
 10
-142.16193
 20
83.792277
 11
-95.920153
 21
83.792277
  0
LINE
  8
型材断面
  6
CONTINUOUS
 10
-97.917265
 20
32.814033
 11
-100.507773
 21
34.309663
  0
LINE
  8
型材断面
  6
CONTINUOUS
 10
-97.917265
 20
32.814033
 11
-100.507773
 21
31.318403
  0
LINE
  8
型材断面
  6
CONTINUOUS
 10
-100.507773
 20
31.318403
 11
-100.507773
 21
34.309663
  0
LINE
  8
型材断面
  6
CONTINUOUS
 10
-78.620467
 20
20.183902
 11
-80.116097
 21
17.593395
  0
LINE
  8
型材断面
  6
CONTINUOUS
 10
-78.620467
 20
20.183902
 11
-77.124838
 21
17.593395
  0
LINE
  8
型材断面
  6
CONTINUOUS
 10
-77.124838
 20
17.593395
 11
-80.116097
 21
17.593395
  0
LINE
  8
型材断面
  6
CONTINUOUS
 10
-11.953802
 20
45.444162
 11
-10.458173
 21
48.03467
  0
LINE
  8
型材断面
  6
CONTINUOUS
 10
-11.953802
 20
45.444162
 11
-13.449432
 21
48.03467
  0
LINE
  8
型材断面
  6
CONTINUOUS
 10
-13.449432
 20
48.03467
 11
-10.458173
 21
48.03467
  0
LINE
  8
型材断面
  6
CONTINUOUS
 10
-11.953802
 20
20.183902
 11
-10.458173
 21
17.593395
  0
LINE
  8
型材断面
  6
CONTINUOUS
 10
-11.953802
 20
20.183902
 11
-13.449432
 21
17.593395
  0
LINE
  8
型材断面
  6
CONTINUOUS
 10
-13.449432
 20
17.593395
 11
-10.458173
 21
17.593395
  0
LINE
  8
型材断面
  6
CONTINUOUS
 10
7.342995
 20
32.814033
 11
9.933503
 21
34.309663
  0
LINE
  8
型材断面
  6
CONTINUOUS
 10
7.342995
 20
32.814033
 11
9.933503
 21
31.318403
  0
LINE
  8
型材断面
  6
CONTINUOUS
 10
9.933503
 20
31.318403
 11
9.933503
 21
34.309663
  0
LINE
  8
型材断面
  6
CONTINUOUS
 10
-142.16193
 20
77.65944
 11
-95.920153
 21
77.65944
  0
LINE
  8
型材断面
  6
CONTINUOUS
 10
-98.287183
 20
19.81399
 11
-45.287135
 21
19.81399
  0
LINE
  8
型材断面
  6
CONTINUOUS
 10
-98.287183
 20
45.814075
 11
-45.287135
 21
45.814075
  0
LINE
  8
型材断面
  6
CONTINUOUS
 10
7.712912
 20
45.814075
 11
-45.287135
 21
45.814075
  0
LINE
  8
型材断面
  6
CONTINUOUS
 10
7.712912
 20
19.81399
 11
-45.287135
 21
19.81399
  0
LINE
  8
型材断面
  6
CONTINUOUS
 10
114.930517
 20
20.313977
 11
114.930517
 21
32.814033
  0
CIRCLE
  8
型材断面
  6
CONTINUOUS
 62
    47
 10
113.93052
 20
19.814042
 40
0.011113
  0
LINE
  8
型材断面
  6
CONTINUOUS
 62
    47
 10
114.430517
 20
20.314033
 11
114.430517
 21
19.814042
  0
LINE
  8
型材断面
  6
CONTINUOUS
 62
    47
 10
114.430517
 20
19.814042
 11
113.93052
 21
19.814042
  0
LINE
  8
型材断面
  6
CONTINUOUS
 62
    47
 10
113.93052
 20
19.814042
 11
113.43334
 21
22.747372
  0
LINE
  8
型材断面
  6
CONTINUOUS
 62
    47
 10
114.430517
 20
20.314033
 11
114.930517
 21
20.314033
  0
LINE
  8
型材断面
  6
CONTINUOUS
 10
113.43334
 20
22.74732
 11
113.43334
 21
32.814033
  0
LINE
  8
型材断面
  6
CONTINUOUS
 62
    47
 10
112.780517
 20
21.324093
 11
112.780517
 21
32.814033
  0
LINE
  8
型材断面
  6
CONTINUOUS
 62
    47
 10
111.280517
 20
21.167572
 11
111.280517
 21
32.814033
  0
LINE
  8
型材断面
  6
CONTINUOUS
 62
    47
 10
111.11385
 20
21.324093
 11
111.11385
 21
32.814033
  0
LINE
  8
型材断面
  6
CONTINUOUS
 10
113.930523
 20
19.813988
 11
113.930523
 21
32.814033
  0
LINE
  8
型材断面
  6
CONTINUOUS
 62
    47
 10
114.430517
 20
19.813988
 11
114.430517
 21
32.814033
  0
LINE
  8
型材断面
  6
CONTINUOUS
 62
    47
 10
113.43334
 20
22.747372
 11
112.780517
 21
22.747372
  0
LINE
  8
型材断面
  6
CONTINUOUS
 10
114.930517
 20
45.314087
 11
114.930517
 21
32.814033
  0
CIRCLE
  8
型材断面
  6
CONTINUOUS
 62
    47
 10
113.93052
 20
45.814025
 40
0.011113
  0
LINE
  8
型材断面
  6
CONTINUOUS
 62
    47
 10
114.430517
 20
45.314033
 11
114.430517
 21
45.814025
  0
LINE
  8
型材断面
  6
CONTINUOUS
 62
    47
 10
114.430517
 20
45.814025
 11
113.93052
 21
45.814025
  0
LINE
  8
型材断面
  6
CONTINUOUS
 62
    47
 10
113.93052
 20
45.814025
 11
113.43334
 21
42.880693
  0
LINE
  8
型材断面
  6
CONTINUOUS
 62
    47
 10
114.430517
 20
45.314033
 11
114.930517
 21
45.314033
  0
LINE
  8
型材断面
  6
CONTINUOUS
 10
113.43334
 20
42.880747
 11
113.43334
 21
32.814033
  0
LINE
  8
型材断面
  6
CONTINUOUS
 62
    47
 10
112.780517
 20
44.303973
 11
112.780517
 21
32.814033
  0
LINE
  8
型材断面
  6
CONTINUOUS
 62
    47
 10
111.280517
 20
44.460495
 11
111.280517
 21
32.814033
  0
LINE
  8
型材断面
  6
CONTINUOUS
 62
    47
 10
111.11385
 20
44.303973
 11
111.11385
 21
32.814033
  0
LINE
  8
型材断面
  6
CONTINUOUS
 10
113.930523
 20
45.814077
 11
113.930523
 21
32.814033
  0
LINE
  8
型材断面
  6
CONTINUOUS
 62
    47
 10
114.430517
 20
45.814077
 11
114.430517
 21
32.814033
  0
LINE
  8
型材断面
  6
CONTINUOUS
 62
    47
 10
113.43334
 20
42.880693
 11
112.780517
 21
42.880693
  0
LINE
  8
型材断面
  6
DASHDOT
 10
121.906528
 20
42.814033
 11
-95.287135
 21
42.814033
  0
LINE
  8
型材断面
  6
DASHDOT
 10
121.906528
 20
22.814033
 11
-95.287135
 21
22.814033
  0
LINE
  8
型材断面
  6
DASHDOT
 10
-95.287135
 20
32.814033
 11
121.906528
 21
32.814033
  0
CIRCLE
  8
型材断面
  6
CONTINUOUS
 62
    47
 10
-98.287128
 20
-71.438295
 40
0.011113
  0
LINE
  8
型材断面
  6
CONTINUOUS
 62
    47
 10
-97.787135
 20
-71.938292
 11
-98.287128
 21
-71.938292
  0
LINE
  8
型材断面
  6
CONTINUOUS
 62
    47
 10
-98.287128
 20
-71.938292
 11
-98.287128
 21
-71.438295
  0
LINE
  8
型材断面
  6
CONTINUOUS
 62
    47
 10
-98.287128
 20
-71.438295
 11
-95.353795
 21
-70.941115
  0
LINE
  8
型材断面
  6
CONTINUOUS
 62
    47
 10
-97.787135
 20
-71.938292
 11
-97.787135
 21
-72.438292
  0
LINE
  8
型材断面
  6
CONTINUOUS
 62
    47
 10
-95.353795
 20
-70.941115
 11
-95.353795
 21
-70.28829
  0
CIRCLE
  8
型材断面
  6
CONTINUOUS
 62
    47
 10
7.712858
 20
-71.438295
 40
0.011113
  0
LINE
  8
型材断面
  6
CONTINUOUS
 62
    47
 10
7.212865
 20
-71.938292
 11
7.712858
 21
-71.938292
  0
LINE
  8
型材断面
  6
CONTINUOUS
 62
    47
 10
7.712858
 20
-71.938292
 11
7.712858
 21
-71.438295
  0
LINE
  8
型材断面
  6
CONTINUOUS
 62
    47
 10
7.712858
 20
-71.438295
 11
4.779525
 21
-70.941115
  0
LINE
  8
型材断面
  6
CONTINUOUS
 62
    47
 10
7.212865
 20
-71.938292
 11
7.212865
 21
-72.438292
  0
LINE
  8
型材断面
  6
CONTINUOUS
 62
    47
 10
4.779525
 20
-70.941115
 11
4.779525
 21
-70.28829
  0
LINE
  8
型材断面
  6
CONTINUOUS
 62
    47
 10
-96.777075
 20
-70.28829
 11
-45.287135
 21
-70.28829
  0
LINE
  8
型材断面
  6
CONTINUOUS
 62
    47
 10
-96.933597
 20
-68.78829
 11
-45.287135
 21
-68.78829
  0
LINE
  8
型材断面
  6
CONTINUOUS
 62
    47
 10
-96.777075
 20
-68.621625
 11
-45.287135
 21
-68.621625
  0
LINE
  8
型材断面
  6
CONTINUOUS
 10
-95.353848
 20
-70.941115
 11
-45.287135
 21
-70.941115
  0
LINE
  8
型材断面
  6
CONTINUOUS
 10
-98.28718
 20
-71.438295
 11
-45.287135
 21
-71.438295
  0
LINE
  8
型材断面
  6
CONTINUOUS
 10
-97.78719
 20
-72.438292
 11
-45.287135
 21
-72.438292
  0
LINE
  8
型材断面
  6
CONTINUOUS
 62
    47
 10
-98.28718
 20
-71.938292
 11
-45.287135
 21
-71.938292
  0
LINE
  8
型材断面
  6
CONTINUOUS
 10
7.71291
 20
-71.438295
 11
-45.287135
 21
-71.438295
  0
LINE
  8
型材断面
  6
CONTINUOUS
 10
7.21292
 20
-72.438292
 11
-45.287135
 21
-72.438292
  0
LINE
  8
型材断面
  6
CONTINUOUS
 62
    47
 10
7.71291
 20
-71.938292
 11
-45.287135
 21
-71.938292
  0
LINE
  8
型材断面
  6
CONTINUOUS
 10
4.779578
 20
-70.941115
 11
-45.287135
 21
-70.941115
  0
LINE
  8
型材断面
  6
CONTINUOUS
 62
    47
 10
6.202805
 20
-70.28829
 11
-45.287135
 21
-70.28829
  0
LINE
  8
型材断面
  6
CONTINUOUS
 62
    47
 10
6.359327
 20
-68.78829
 11
-45.287135
 21
-68.78829
  0
LINE
  8
型材断面
  6
CONTINUOUS
 62
    47
 10
6.202805
 20
-68.621625
 11
-45.287135
 21
-68.621625
  0
LINE
  8
型材断面
  6
DASHDOT
 10
-62.037135
 20
22.814033
 11
-62.037135
 21
42.814033
  0
LINE
  8
型材断面
  6
DASHDOT
 10
-28.537135
 20
22.814033
 11
-28.537135
 21
42.814033
  0
LINE
  8
型材断面
  6
CONTINUOUS
 10
-44.870467
 20
41.960495
 11
-12.328802
 21
41.960495
  0
LINE
  8
型材断面
  6
CONTINUOUS
 10
-44.870467
 20
23.66757
 11
-12.328802
 21
23.66757
  0
LINE
  8
型材断面
  6
CONTINUOUS
 10
-78.245467
 20
23.66757
 11
-45.703802
 21
23.66757
  0
LINE
  8
型材断面
  6
CONTINUOUS
 10
-78.245467
 20
41.960495
 11
-45.703802
 21
41.960495
  0
LINE
  8
型材断面
  6
CONTINUOUS
 10
-27.287135
 20
24.500902
 11
-29.787135
 21
24.500902
  0
LINE
  8
型材断面
  6
CONTINUOUS
 10
-27.287135
 20
41.127162
 11
-29.787135
 21
41.127162
  0
LINE
  8
型材断面
  6
CONTINUOUS
 10
-27.287135
 20
24.500902
 11
-27.287135
 21
41.127162
  0
LINE
  8
型材断面
  6
CONTINUOUS
 10
-29.787135
 20
24.500902
 11
-29.787135
 21
41.127162
  0
LINE
  8
型材断面
  6
CONTINUOUS
 10
-60.787135
 20
24.500902
 11
-63.287135
 21
24.500902
  0
LINE
  8
型材断面
  6
CONTINUOUS
 10
-60.787135
 20
41.127162
 11
-63.287135
 21
41.127162
  0
LINE
  8
型材断面
  6
CONTINUOUS
 10
-60.787135
 20
24.500902
 11
-60.787135
 21
41.127162
  0
LINE
  8
型材断面
  6
CONTINUOUS
 10
-63.287135
 20
24.500902
 11
-63.287135
 21
41.127162
  0
LINE
  8
型材断面
  6
CONTINUOUS
 10
7.712912
 20
45.814075
 11
7.712912
 21
32.81403
  0
LINE
  8
型材断面
  6
CONTINUOUS
 10
7.712912
 20
19.81399
 11
7.712912
 21
32.814035
  0
LINE
  8
型材断面
  6
CONTINUOUS
 10
3.859325
 20
32.397365
 11
6.359325
 21
32.397365
  0
LINE
  8
型材断面
  6
CONTINUOUS
 10
3.859325
 20
33.2307
 11
6.359325
 21
33.2307
  0
LINE
  8
型材断面
  6
CONTINUOUS
 10
6.123627
 20
21.16752
 11
6.359327
 21
21.40322
  0
LINE
  8
型材断面
  6
CONTINUOUS
 10
7.712912
 20
19.81399
 11
6.241505
 21
21.285397
  0
LINE
  8
型材断面
  6
CONTINUOUS
 10
3.623627
 20
23.66752
 11
3.859327
 21
23.90322
  0
LINE
  8
型材断面
  6
CONTINUOUS
 10
3.623627
 20
23.66752
 11
6.123577
 21
21.16757
  0
LINE
  8
型材断面
  6
CONTINUOUS
 10
3.859327
 20
23.90322
 11
6.359325
 21
21.403223
  0
LINE
  8
型材断面
  6
CONTINUOUS
 10
3.859325
 20
32.397365
 11
3.859325
 21
23.903218
  0
LINE
  8
型材断面
  6
CONTINUOUS
 10
6.123627
 20
44.460545
 11
6.359327
 21
44.224845
  0
LINE
  8
型材断面
  6
CONTINUOUS
 10
7.712912
 20
45.814075
 11
6.241505
 21
44.342668
  0
LINE
  8
型材断面
  6
CONTINUOUS
 10
3.623627
 20
41.960545
 11
3.859327
 21
41.724845
  0
LINE
  8
型材断面
  6
CONTINUOUS
 10
3.623627
 20
41.960545
 11
6.123577
 21
44.460495
  0
LINE
  8
型材断面
  6
CONTINUOUS
 10
3.859327
 20
41.724845
 11
6.359325
 21
44.224842
  0
LINE
  8
型材断面
  6
CONTINUOUS
 10
6.359325
 20
21.403223
 11
6.359325
 21
44.224842
  0
LINE
  8
型材断面
  6
CONTINUOUS
 10
3.859325
 20
33.2307
 11
3.859325
 21
41.724848
  0
LINE
  8
型材断面
  6
CONTINUOUS
 10
-98.287183
 20
45.814075
 11
-98.287183
 21
32.81403
  0
LINE
  8
型材断面
  6
CONTINUOUS
 10
-98.287183
 20
19.81399
 11
-98.287183
 21
32.814035
  0
LINE
  8
型材断面
  6
CONTINUOUS
 10
-94.433595
 20
32.397365
 11
-96.933595
 21
32.397365
  0
LINE
  8
型材断面
  6
CONTINUOUS
 10
-94.433595
 20
33.2307
 11
-96.933595
 21
33.2307
  0
LINE
  8
型材断面
  6
CONTINUOUS
 10
-96.697897
 20
21.16752
 11
-96.933597
 21
21.40322
  0
LINE
  8
型材断面
  6
CONTINUOUS
 10
-98.287183
 20
19.81399
 11
-96.815775
 21
21.285397
  0
LINE
  8
型材断面
  6
CONTINUOUS
 10
-94.197897
 20
23.66752
 11
-94.433597
 21
23.90322
  0
LINE
  8
型材断面
  6
CONTINUOUS
 10
-94.197897
 20
23.66752
 11
-96.697847
 21
21.16757
  0
LINE
  8
型材断面
  6
CONTINUOUS
 10
-94.433597
 20
23.90322
 11
-96.933595
 21
21.403223
  0
LINE
  8
型材断面
  6
CONTINUOUS
 10
-94.433595
 20
32.397365
 11
-94.433595
 21
23.903218
  0
LINE
  8
型材断面
  6
CONTINUOUS
 10
-96.697897
 20
44.460545
 11
-96.933597
 21
44.224845
  0
LINE
  8
型材断面
  6
CONTINUOUS
 10
-98.287183
 20
45.814075
 11
-96.815775
 21
44.342668
  0
LINE
  8
型材断面
  6
CONTINUOUS
 10
-94.197897
 20
41.960545
 11
-94.433597
 21
41.724845
  0
LINE
  8
型材断面
  6
CONTINUOUS
 10
-94.197897
 20
41.960545
 11
-96.697847
 21
44.460495
  0
LINE
  8
型材断面
  6
CONTINUOUS
 10
-94.433597
 20
41.724845
 11
-96.933595
 21
44.224842
  0
LINE
  8
型材断面
  6
CONTINUOUS
 10
-96.933595
 20
21.403223
 11
-96.933595
 21
44.224842
  0
LINE
  8
型材断面
  6
CONTINUOUS
 10
-94.433595
 20
33.2307
 11
-94.433595
 21
41.724848
  0
LINE
  8
型材断面
  6
CONTINUOUS
 10
-11.495467
 20
23.66757
 11
3.623577
 21
23.66757
  0
LINE
  8
型材断面
  6
CONTINUOUS
 10
-11.495467
 20
41.960495
 11
3.623577
 21
41.960495
  0
LINE
  8
型材断面
  6
CONTINUOUS
 10
-79.078802
 20
41.960495
 11
-94.197847
 21
41.960495
  0
LINE
  8
型材断面
  6
CONTINUOUS
 10
6.123577
 20
44.460495
 11
-96.697847
 21
44.460495
  0
LINE
  8
型材断面
  6
CONTINUOUS
 10
-79.078802
 20
23.66757
 11
-94.197847
 21
23.66757
  0
LINE
  8
型材断面
  6
CONTINUOUS
 10
6.123577
 20
21.16757
 11
-96.697847
 21
21.16757
  0
TEXT
  7
TextStyle03
  8
文字
  6
CONTINUOUS
 10
-133.325
 20
84.95
  1
は排水穴位置を示す
 40
3.0
 72
     5
 11
-103.325
 21
84.95
  0
TEXT
  7
TextStyle03
  8
文字
  6
CONTINUOUS
 10
62.35
 20
104.525
  1
ＮＳコード：ＮＳＦＫＺ
 40
5.0
 72
     5
 11
123.6
 21
104.525
  0
TEXT
  7
TextStyle03
  8
文字
  6
CONTINUOUS
 10
81.275
 20
-76.7
  1
網入り6.8t
 40
3.0
 72
     5
 11
97.9625
 21
-76.7
  0
TEXT
  7
TextStyle03
  8
文字
  6
CONTINUOUS
 10
87.95
 20
-81.375
  1
×３枚
 40
3.0
 72
     5
 11
97.7
 21
-81.375
  0
TEXT
  7
TextStyle03
  8
文字
  6
CONTINUOUS
 10
-116.35
 20
11.275
  1
アンカーピッチ
 40
3.0
 50
90.0
 72
     5
 11
-116.35
 21
34.525
  0
TEXT
  7
TextStyle03
  8
文字
  6
CONTINUOUS
 10
-85.3
 20
80.225
  1
アンカーピッチ
 40
3.0
 72
     5
 11
-62.05
 21
80.225
  0
TEXT
  7
TextStyle03
  8
文字
  6
CONTINUOUS
 10
-137.05
 20
78.6
  1
アンカー数量　１２ヶ所
 40
3.0
 72
     5
 11
-100.3
 21
78.6
  0
LINE
  8
文字
  6
CONTINUOUS
 10
111.11385
 20
56.453242
 11
111.11385
 21
47.100085
  0
LINE
  8
文字
  6
CONTINUOUS
 10
114.430517
 20
56.453242
 11
114.430517
 21
47.165438
  0
LINE
  8
文字
  6
CONTINUOUS
 10
18.352073
 20
-68.621625
 11
8.998918
 21
-68.621625
  0
LINE
  8
文字
  6
CONTINUOUS
 10
18.352073
 20
-71.938292
 11
9.06427
 21
-71.938292
  0
LINE
  8
文字
  6
CONTINUOUS
 10
99.79942
 20
-56.234433
 11
99.79942
 21
-61.98879
  0
LINE
  8
文字
  6
CONTINUOUS
 10
67.466087
 20
-56.234433
 11
67.466087
 21
-61.98879
  0
TEXT
  7
TextStyle03
  8
文字
  6
CONTINUOUS
 10
62.2
 20
125.25
  1
シリーズ：ＴＦ２ＦＫＬ
 40
5.0
 72
     5
 11
123.45
 21
125.25
  0
TEXT
  7
TextStyle03
  8
文字
  6
CONTINUOUS
 10
62.2
 20
119.625
  1
　　　　　（固定）600×3000タイプ
 40
5.0
 72
     5
 11
154.3875
 21
119.625
  0
TEXT
  7
TextStyle03
  8
文字
  6
CONTINUOUS
 10
62.2
 20
114.0
  1
図面名　：外観姿図
 40
5.0
 72
     5
 11
112.2
 21
114.0
  0
TEXT
  7
TextStyle03
  8
文字
  6
CONTINUOUS
 10
62.2
 20
108.375
  1
　　　　　　
 40
5.0
 72
     5
 11
95.325
 21
108.375
  0
LINE
  8
文字
  6
CONTINUOUS
 10
-11.495467
 20
23.66757
 11
-11.495467
 21
21.16757
  0
LINE
  8
文字
  6
CONTINUOUS
 10
-12.328802
 20
23.66757
 11
-12.328802
 21
21.16757
  0
LINE
  8
文字
  6
CONTINUOUS
 10
-44.870467
 20
23.66757
 11
-44.870467
 21
21.16757
  0
LINE
  8
文字
  6
CONTINUOUS
 10
-45.703802
 20
23.66757
 11
-45.703802
 21
21.16757
  0
LINE
  8
文字
  6
CONTINUOUS
 10
-79.078802
 20
23.66757
 11
-79.078802
 21
21.16757
  0
LINE
  8
文字
  6
CONTINUOUS
 10
-78.245467
 20
23.66757
 11
-78.245467
 21
21.16757
  0
LINE
  8
文字
  6
CONTINUOUS
 10
-11.495467
 20
41.960495
 11
-11.495467
 21
44.460495
  0
LINE
  8
文字
  6
CONTINUOUS
 10
-12.328802
 20
41.960495
 11
-12.328802
 21
44.460495
  0
LINE
  8
文字
  6
CONTINUOUS
 10
-44.870467
 20
41.960495
 11
-44.870467
 21
44.460495
  0
LINE
  8
文字
  6
CONTINUOUS
 10
-45.703802
 20
41.960495
 11
-45.703802
 21
44.460495
  0
LINE
  8
文字
  6
CONTINUOUS
 10
-79.078802
 20
41.960495
 11
-79.078802
 21
44.460495
  0
LINE
  8
文字
  6
CONTINUOUS
 10
-78.245467
 20
41.960495
 11
-78.245467
 21
44.460495
  0
INSERT
  2
*DIM_0002
  8
寸法
  6
CONTINUOUS
 10
0.0
 20
0.0
  0
INSERT
  2
*DIM_0003
  8
寸法
  6
CONTINUOUS
 10
0.0
 20
0.0
  0
INSERT
  2
*DIM_0004
  8
寸法
  6
CONTINUOUS
 10
0.0
 20
0.0
  0
INSERT
  2
*DIM_0005
  8
寸法
  6
CONTINUOUS
 10
0.0
 20
0.0
  0
INSERT
  2
*DIM_0006
  8
寸法
  6
CONTINUOUS
 10
0.0
 20
0.0
  0
INSERT
  2
*DIM_0007
  8
寸法
  6
CONTINUOUS
 10
0.0
 20
0.0
  0
INSERT
  2
*DIM_0008
  8
寸法
  6
CONTINUOUS
 10
0.0
 20
0.0
  0
INSERT
  2
*DIM_0009
  8
寸法
  6
CONTINUOUS
 10
0.0
 20
0.0
  0
INSERT
  2
*DIM_0010
  8
寸法
  6
CONTINUOUS
 10
0.0
 20
0.0
  0
INSERT
  2
*DIM_0011
  8
寸法
  6
CONTINUOUS
 10
0.0
 20
0.0
  0
INSERT
  2
*DIM_0012
  8
寸法
  6
CONTINUOUS
 10
0.0
 20
0.0
  0
INSERT
  2
*DIM_0013
  8
寸法
  6
CONTINUOUS
 10
0.0
 20
0.0
  0
LINE
  8
別途部材
  6
CONTINUOUS
 62
    47
 10
111.21385
 20
21.167572
 11
111.280517
 21
21.167572
  0
ARC
  8
別途部材
  6
CONTINUOUS
 62
    47
 10
111.213848
 20
21.267571
 40
0.1
 50
180.0
 51
270.0
  0
LINE
  8
別途部材
  6
CONTINUOUS
 62
    47
 10
111.11385
 20
21.267572
 11
111.11385
 21
21.324093
  0
LINE
  8
別途部材
  6
CONTINUOUS
 62
    47
 10
112.780517
 20
21.324093
 11
111.280517
 21
21.324093
  0
LINE
  8
別途部材
  6
CONTINUOUS
 62
    47
 10
111.21385
 20
44.460495
 11
111.280517
 21
44.460495
  0
ARC
  8
別途部材
  6
CONTINUOUS
 62
    47
 10
111.213848
 20
44.360495
 40
0.1
 50
90.0
 51
180.0
  0
LINE
  8
別途部材
  6
CONTINUOUS
 62
    47
 10
111.11385
 20
44.360495
 11
111.11385
 21
44.303973
  0
LINE
  8
別途部材
  6
CONTINUOUS
 62
    47
 10
112.780517
 20
44.303973
 11
111.280517
 21
44.303973
  0
LINE
  8
別途部材
  6
CONTINUOUS
 62
    47
 10
-96.933597
 20
-68.721625
 11
-96.933597
 21
-68.78829
  0
ARC
  8
別途部材
  6
CONTINUOUS
 62
    47
 10
-96.833598
 20
-68.721621
 40
0.1
 50
90.0
 51
180.0
  0
LINE
  8
別途部材
  6
CONTINUOUS
 62
    47
 10
-96.833597
 20
-68.621625
 11
-96.777075
 21
-68.621625
  0
LINE
  8
別途部材
  6
CONTINUOUS
 62
    47
 10
-96.777075
 20
-70.28829
 11
-96.777075
 21
-68.78829
  0
LINE
  8
別途部材
  6
CONTINUOUS
 62
    47
 10
6.359327
 20
-68.721625
 11
6.359327
 21
-68.78829
  0
ARC
  8
別途部材
  6
CONTINUOUS
 62
    47
 10
6.259326
 20
-68.721621
 40
0.1
 50
0.0
 51
90.0
  0
LINE
  8
別途部材
  6
CONTINUOUS
 62
    47
 10
6.259327
 20
-68.621625
 11
6.202805
 21
-68.621625
  0
LINE
  8
別途部材
  6
CONTINUOUS
 62
    47
 10
6.202805
 20
-70.28829
 11
6.202805
 21
-68.78829
  0
LINE
  8
曲げ物
  6
CONTINUOUS
 10
-10.646095
 20
34.739582
 11
-14.341407
 21
31.04427
  0
LINE
  8
曲げ物
  6
CONTINUOUS
 10
-11.349565
 20
33.203472
 11
-12.805295
 21
31.747742
  0
LINE
  8
曲げ物
  6
CONTINUOUS
 10
-12.182205
 20
34.036112
 11
-13.637935
 21
32.580383
  0
LINE
  8
曲げ物
  6
CONTINUOUS
 10
-43.64297
 20
34.739582
 11
-47.338282
 21
31.04427
  0
LINE
  8
曲げ物
  6
CONTINUOUS
 10
-44.34644
 20
33.203472
 11
-45.80217
 21
31.747742
  0
LINE
  8
曲げ物
  6
CONTINUOUS
 10
-45.17908
 20
34.036112
 11
-46.63481
 21
32.580383
  0
LINE
  8
曲げ物
  6
CONTINUOUS
 10
-78.00547
 20
34.739582
 11
-81.700782
 21
31.04427
  0
LINE
  8
曲げ物
  6
CONTINUOUS
 10
-78.70894
 20
33.203472
 11
-80.16467
 21
31.747742
  0
LINE
  8
曲げ物
  6
CONTINUOUS
 10
-79.54158
 20
34.036112
 11
-80.99731
 21
32.580383
  0
LINE
  8
曲げ物
  6
CONTINUOUS
 10
99.79942
 20
-83.118728
 11
99.79942
 21
-63.785395
  0
LINE
  8
曲げ物
  6
CONTINUOUS
 10
67.466087
 20
-83.118728
 11
67.466087
 21
-63.785395
  0
LINE
  8
曲げ物
  6
CONTINUOUS
 10
99.79942
 20
-63.785395
 11
67.466087
 21
-63.785395
  0
LINE
  8
曲げ物
  6
CONTINUOUS
 10
99.79942
 20
-83.118728
 11
67.466087
 21
-83.118728
  0
CIRCLE
  8
LAYER010
  6
CONTINUOUS
 62
    47
 10
113.93052
 20
19.814042
 40
0.011113
  0
CIRCLE
  8
LAYER010
  6
CONTINUOUS
 62
    47
 10
113.93052
 20
45.814025
 40
0.011113
  0
CIRCLE
  8
LAYER010
  6
CONTINUOUS
 62
    47
 10
-98.287128
 20
-71.438295
 40
0.011113
  0
CIRCLE
  8
LAYER010
  6
CONTINUOUS
 62
    47
 10
7.712858
 20
-71.438295
 40
0.011113
  0
ENDSEC
  0
EOF
