  0
SECTION
  2
HEADER
  9
$EXTMIN
 10
-210.0
 20
-148.5
  9
$EXTMAX
 10
210.0
 20
148.5
  9
$PDMODE
 70
    32
  9
$PDSIZE
 40
1.5
  9
$LTSCALE
 40
10.0
  0
ENDSEC
  0
SECTION
  2
TABLES
  0
TABLE
  2
LTYPE
 70
    15
  0
LTYPE
  2
CONTINUOUS
 70
    64
  3
実線
 72
    65
 73
     0
 40
0.0
  0
LTYPE
  2
DASHED
 70
    64
  3
破線A
 72
    65
 73
     2
 40
0.6
 49
0.4
 49
-0.2
  0
LTYPE
  2
DASHEDX2
 70
    64
  3
破線B
 72
    65
 73
     2
 40
1.3
 49
0.9
 49
-0.4
  0
LTYPE
  2
DASHDOT
 70
    64
  3
１点鎖線A
 72
    65
 73
     4
 40
0.5375
 49
0.375
 49
-0.05
 49
0.0625
 49
-0.05
  0
LTYPE
  2
DASHDOTX2
 70
    64
  3
１点鎖線B
 72
    65
 73
     4
 40
1.075
 49
0.75
 49
-0.1
 49
0.125
 49
-0.1
  0
LTYPE
  2
DIVIDE2
 70
    64
  3
２点鎖線A
 72
    65
 73
     6
 40
0.5125
 49
0.3
 49
-0.0375
 49
0.05
 49
-0.0375
 49
0.05
 49
-0.0375
  0
LTYPE
  2
DIVIDE
 70
    64
  3
２点鎖線B
 72
    65
 73
     6
 40
1.05
 49
0.55
 49
-0.1
 49
0.1
 49
-0.1
 49
0.1
 49
-0.1
  0
LTYPE
  2
DOT
 70
    64
  3
点線A
 72
    65
 73
     2
 40
0.1125
 49
0.0625
 49
-0.05
  0
LTYPE
  2
DOTX2
 70
    64
  3
点線B
 72
    65
 73
     2
 40
0.275
 49
0.15
 49
-0.125
  0
LTYPE
  2
CONTINUOUS
 70
    64
  3
実線
 72
    65
 73
     0
 40
0.0
  0
LTYPE
  2
CONTINUOUS
 70
    64
  3
実線
 72
    65
 73
     0
 40
0.0
  0
LTYPE
  2
CONTINUOUS
 70
    64
  3
実線
 72
    65
 73
     0
 40
0.0
  0
LTYPE
  2
CONTINUOUS
 70
    64
  3
実線
 72
    65
 73
     0
 40
0.0
  0
LTYPE
  2
CONTINUOUS
 70
    64
  3
実線
 72
    65
 73
     0
 40
0.0
  0
LTYPE
  2
CONTINUOUS
 70
    64
  3
実線
 72
    65
 73
     0
 40
0.0
  0
ENDTAB
  0
TABLE
  2
LAYER
 70
    35
  0
LAYER
  2
通り芯
 70
     0
 62
    15
  6
CONTINUOUS
  0
LAYER
  2
補助線
 70
     0
 62
    16
  6
DOT
  0
LAYER
  2
躯体
 70
     0
 62
    31
  6
CONTINUOUS
  0
LAYER
  2
型材
 70
     0
 62
    32
  6
CONTINUOUS
  0
LAYER
  2
型材断面
 70
     0
 62
    47
  6
CONTINUOUS
  0
LAYER
  2
ガラス
 70
     0
 62
    48
  6
CONTINUOUS
  0
LAYER
  2
ゴム等
 70
     0
 62
    63
  6
CONTINUOUS
  0
LAYER
  2
ボルト／ビス
 70
     0
 62
    64
  6
CONTINUOUS
  0
LAYER
  2
文字
 70
     0
 62
    79
  6
CONTINUOUS
  0
LAYER
  2
寸法
 70
     0
 62
    80
  6
CONTINUOUS
  0
LAYER
  2
ﾊｯﾁﾝｸﾞ
 70
     0
 62
    95
  6
CONTINUOUS
  0
LAYER
  2
別途部材
 70
     0
 62
    96
  6
CONTINUOUS
  0
LAYER
  2
曲げ物
 70
     0
 62
   111
  6
CONTINUOUS
  0
LAYER
  2
鉄骨等
 70
     0
 62
   112
  6
CONTINUOUS
  0
LAYER
  2
St
 70
     0
 62
   127
  6
CONTINUOUS
  0
LAYER
  2
その他部品等
 70
     0
 62
   128
  6
CONTINUOUS
  0
LAYER
  2
ｶﾞｽｹｯﾄ
 70
     0
 62
   143
  6
CONTINUOUS
  0
LAYER
  2
ｽｹｯﾁ
 70
     0
 62
    14
  6
CONTINUOUS
  0
LAYER
  2
0
 70
     0
 62
    17
  6
CONTINUOUS
  0
LAYER
  2
1
 70
     0
 62
    30
  6
CONTINUOUS
  0
LAYER
  2
4
 70
     0
 62
    33
  6
CONTINUOUS
  0
LAYER
  2
ﾚｲﾔ3
 70
     0
 62
    46
  6
CONTINUOUS
  0
LAYER
  2
外形線
 70
     0
 62
    49
  6
CONTINUOUS
  0
LAYER
  2
部品
 70
     0
 62
    14
  6
CONTINUOUS
  0
LAYER
  2
サッシ芯
 70
     0
 62
    17
  6
DASHDOTX2
  0
LAYER
  2
寸法線
 70
     0
 62
    62
  6
CONTINUOUS
  0
LAYER
  2
姿図外形線
 70
     0
 62
    65
  6
CONTINUOUS
  0
LAYER
  2
姿補助線
 70
     0
 62
    30
  6
CONTINUOUS
  0
LAYER
  2
透視線
 70
     0
 62
    78
  6
DOT
  0
LAYER
  2
用紙
 70
     0
 62
    81
  6
CONTINUOUS
  0
LAYER
  2
実線図枠
 70
     0
 62
    94
  6
CONTINUOUS
  0
LAYER
  2
補助図枠
 70
     0
 62
    97
  6
CONTINUOUS
  0
LAYER
  2
建具記号
 70
     0
 62
   110
  6
CONTINUOUS
  0
LAYER
  2
補助文字
 70
     0
 62
   113
  6
CONTINUOUS
  0
LAYER
  2
LAYER010
 70
     0
 62
    11
  6
CONTINUOUS
  0
ENDTAB
  0
TABLE
  2
STYLE
 70
    10
  0
STYLE
  2
STANDARD
 70
     0
 40
1.0
 41
1.0
 42
1.0
 50
0.0
 71
     0
  3
TXT
  4
BIGFONT
  0
STYLE
  2
TATE
 70
     4
 40
1.0
 41
1.0
 42
1.0
 50
0.0
 71
     0
  3
TXT
  4
BIGFONT
  0
STYLE
  2
TextStyle03
 70
     0
 40
1.0
 41
1.0
 42
1.0
 50
0.0
 71
     0
  3
MONOTXT
  4
BIGFONT
  0
STYLE
  2
TextStyle04
 70
     0
 40
1.0
 41
1.0
 42
1.0
 50
0.0
 71
     0
  3
MONOTXT
  4
BIGFONT
  0
STYLE
  2
TextStyle05
 70
     0
 40
1.0
 41
1.0
 42
1.0
 50
0.0
 71
     0
  3
MONOTXT
  4
BIGFONT
  0
STYLE
  2
TextStyle06
 70
     0
 40
1.0
 41
1.0
 42
1.0
 50
0.0
 71
     0
  3
MONOTXT
  4
BIGFONT
  0
STYLE
  2
TextStyle07
 70
     0
 40
1.0
 41
1.0
 42
1.0
 50
0.0
 71
     0
  3
MONOTXT
  4
BIGFONT
  0
STYLE
  2
TextStyle08
 70
     0
 40
1.0
 41
1.0
 42
1.0
 50
0.0
 71
     0
  3
MONOTXT
  4
BIGFONT
  0
STYLE
  2
TextStyle09
 70
     0
 40
1.0
 41
1.0
 42
1.0
 50
0.0
 71
     0
  3
MONOTXT
  4
BIGFONT
  0
STYLE
  2
TextStyle10
 70
     0
 40
1.0
 41
1.0
 42
1.0
 50
0.0
 71
     0
  3
MONOTXT
  4
BIGFONT
  0
ENDTAB
  0
ENDSEC
  0
SECTION
  2
BLOCKS
  0
BLOCK
  2
*GRP_0001
 70
    65
 10
0.0
 20
0.0
  0
LINE
  8
型材断面
  6
CONTINUOUS
 10
195.0
 20
133.5
 11
195.0
 21
-133.5
  0
LINE
  8
型材断面
  6
CONTINUOUS
 10
195.0
 20
-133.5
 11
-185.0
 21
-133.5
  0
LINE
  8
型材断面
  6
CONTINUOUS
 10
-185.0
 20
-133.5
 11
-185.0
 21
133.5
  0
LINE
  8
型材断面
  6
CONTINUOUS
 10
195.0
 20
133.5
 11
-185.0
 21
133.5
  0
LINE
  8
型材断面
  6
CONTINUOUS
 10
145.0
 20
-133.5
 11
145.0
 21
-118.5
  0
LINE
  8
型材断面
  6
CONTINUOUS
 10
195.0
 20
-118.5
 11
145.0
 21
-118.5
  0
ENDBLK
  0
BLOCK
  2
*DIM_0002
 70
    65
 10
0.0
 20
0.0
  0
LINE
  8
寸法
  6
BYBLOCK
 62
     0
 10
-70.442275
 20
-16.511205
 11
-70.442275
 21
-13.121378
  0
LINE
  8
寸法
  6
BYBLOCK
 62
     0
 10
46.224393
 20
-13.121378
 11
-70.442275
 21
-13.121378
  0
POINT
  8
寸法
 62
     0
 10
46.224393
 20
-13.121378
  0
POINT
  8
寸法
 62
     0
 10
-70.442275
 20
-13.121378
  0
TEXT
  7
TextStyle03
  8
寸法
  6
CONTINUOUS
 62
     0
 10
-23.84375
 20
-12.75
  1
呼称寸法　3500
 40
3.0
 72
     5
 11
-0.40625
 21
-12.75
  0
ENDBLK
  0
BLOCK
  2
*DIM_0003
 70
    65
 10
0.0
 20
0.0
  0
LINE
  8
寸法
  6
BYBLOCK
 62
     0
 10
-53.775608
 20
19.183902
 11
-53.775608
 21
14.042105
  0
LINE
  8
寸法
  6
BYBLOCK
 62
     0
 10
29.557727
 20
19.183902
 11
29.557727
 21
14.042105
  0
LINE
  8
寸法
  6
BYBLOCK
 62
     0
 10
-53.775608
 20
14.042105
 11
29.557727
 21
14.042105
  0
POINT
  8
寸法
 62
     0
 10
-53.775608
 20
14.042105
  0
POINT
  8
寸法
 62
     0
 10
29.557727
 20
14.042105
  0
TEXT
  7
TextStyle03
  8
寸法
  6
CONTINUOUS
 62
     0
 10
-15.40625
 20
14.4
  1
2500
 40
3.0
 72
     5
 11
-8.84375
 21
14.4
  0
ENDBLK
  0
BLOCK
  2
*DIM_0004
 70
    65
 10
0.0
 20
0.0
  0
LINE
  8
寸法
  6
BYBLOCK
 62
     0
 10
49.22444
 20
-69.576397
 11
49.22444
 21
-13.121378
  0
LINE
  8
寸法
  6
BYBLOCK
 62
     0
 10
46.224393
 20
-13.121378
 11
49.22444
 21
-13.121378
  0
POINT
  8
寸法
 62
     0
 10
46.224393
 20
-13.121378
  0
POINT
  8
寸法
 62
     0
 10
49.22444
 20
-13.121378
  0
TEXT
  7
TextStyle03
  8
寸法
  6
CONTINUOUS
 62
     0
 10
46.10625
 20
-12.75
  1
90
 40
3.0
 72
     5
 11
49.29375
 21
-12.75
  0
ENDBLK
  0
BLOCK
  2
*DIM_0005
 70
    65
 10
0.0
 20
0.0
  0
LINE
  8
寸法
  6
BYBLOCK
 62
     0
 10
-73.44232
 20
-69.576397
 11
-73.44232
 21
-13.121378
  0
LINE
  8
寸法
  6
BYBLOCK
 62
     0
 10
-70.442273
 20
-13.121378
 11
-73.44232
 21
-13.121378
  0
POINT
  8
寸法
 62
     0
 10
-70.442273
 20
-13.121378
  0
POINT
  8
寸法
 62
     0
 10
-73.44232
 20
-13.121378
  0
TEXT
  7
TextStyle03
  8
寸法
  6
CONTINUOUS
 62
     0
 10
-73.54375
 20
-12.75
  1
90
 40
3.0
 72
     5
 11
-70.35625
 21
-12.75
  0
ENDBLK
  0
BLOCK
  2
*DIM_0006
 70
    65
 10
0.0
 20
0.0
  0
LINE
  8
寸法
  6
BYBLOCK
 62
     0
 10
142.310947
 20
-63.785395
 11
150.422478
 21
-63.785395
  0
LINE
  8
寸法
  6
BYBLOCK
 62
     0
 10
142.310947
 20
-83.118728
 11
150.422478
 21
-83.118728
  0
LINE
  8
寸法
  6
BYBLOCK
 62
     0
 10
150.422478
 20
-63.785395
 11
150.422478
 21
-83.118728
  0
POINT
  8
寸法
 62
     0
 10
150.422478
 20
-63.785395
  0
POINT
  8
寸法
 62
     0
 10
150.422478
 20
-83.118728
  0
TEXT
  7
TextStyle03
  8
寸法
  6
CONTINUOUS
 62
     0
 10
150.025
 20
-75.9125
  1
580
 40
3.0
 50
90.0
 72
     5
 11
150.025
 21
-71.0375
  0
ENDBLK
  0
BLOCK
  2
*DIM_0007
 70
    65
 10
0.0
 20
0.0
  0
LINE
  8
寸法
  6
BYBLOCK
 62
     0
 10
-73.442275
 20
39.4807
 11
-86.735113
 21
39.4807
  0
LINE
  8
寸法
  6
BYBLOCK
 62
     0
 10
-73.442275
 20
26.147365
 11
-86.735113
 21
26.147365
  0
LINE
  8
寸法
  6
BYBLOCK
 62
     0
 10
-86.735113
 20
39.4807
 11
-86.735113
 21
26.147365
  0
POINT
  8
寸法
 62
     0
 10
-86.735113
 20
39.4807
  0
POINT
  8
寸法
 62
     0
 10
-86.735113
 20
26.147365
  0
TEXT
  7
TextStyle03
  8
寸法
  6
CONTINUOUS
 62
     0
 10
-87.175
 20
30.3625
  1
400
 40
3.0
 50
90.0
 72
     5
 11
-87.175
 21
35.2375
  0
ENDBLK
  0
BLOCK
  2
*DIM_0008
 70
    65
 10
0.0
 20
0.0
  0
LINE
  8
寸法
  6
BYBLOCK
 62
     0
 10
-65.442273
 20
45.814033
 11
-65.442273
 21
74.922105
  0
LINE
  8
寸法
  6
BYBLOCK
 62
     0
 10
-38.775608
 20
45.814033
 11
-38.775608
 21
74.922105
  0
LINE
  8
寸法
  6
BYBLOCK
 62
     0
 10
-65.442273
 20
74.922105
 11
-38.775608
 21
74.922105
  0
POINT
  8
寸法
 62
     0
 10
-65.442273
 20
74.922105
  0
POINT
  8
寸法
 62
     0
 10
-38.775608
 20
74.922105
  0
TEXT
  7
TextStyle03
  8
寸法
  6
CONTINUOUS
 62
     0
 10
-54.5625
 20
75.3
  1
800
 40
3.0
 72
     5
 11
-49.6875
 21
75.3
  0
ENDBLK
  0
BLOCK
  2
*DIM_0009
 70
    65
 10
0.0
 20
0.0
  0
LINE
  8
寸法
  6
BYBLOCK
 62
     0
 10
-12.10894
 20
45.814033
 11
-12.10894
 21
74.922105
  0
LINE
  8
寸法
  6
BYBLOCK
 62
     0
 10
-38.775608
 20
74.922105
 11
-12.10894
 21
74.922105
  0
POINT
  8
寸法
 62
     0
 10
-12.10894
 20
74.922105
  0
TEXT
  7
TextStyle03
  8
寸法
  6
CONTINUOUS
 62
     0
 10
-27.9125
 20
75.3
  1
800
 40
3.0
 72
     5
 11
-23.0375
 21
75.3
  0
ENDBLK
  0
BLOCK
  2
*DIM_0010
 70
    65
 10
0.0
 20
0.0
  0
LINE
  8
寸法
  6
BYBLOCK
 62
     0
 10
14.557727
 20
45.814033
 11
14.557727
 21
74.922105
  0
LINE
  8
寸法
  6
BYBLOCK
 62
     0
 10
-12.10894
 20
74.922105
 11
14.557727
 21
74.922105
  0
POINT
  8
寸法
 62
     0
 10
14.557727
 20
74.922105
  0
TEXT
  7
TextStyle03
  8
寸法
  6
CONTINUOUS
 62
     0
 10
-1.2375
 20
75.3
  1
800
 40
3.0
 72
     5
 11
3.6375
 21
75.3
  0
ENDBLK
  0
BLOCK
  2
*DIM_0011
 70
    65
 10
0.0
 20
0.0
  0
LINE
  8
寸法
  6
BYBLOCK
 62
     0
 10
41.224393
 20
45.814033
 11
41.224393
 21
74.922105
  0
LINE
  8
寸法
  6
BYBLOCK
 62
     0
 10
14.557727
 20
74.922105
 11
41.224393
 21
74.922105
  0
POINT
  8
寸法
 62
     0
 10
41.224393
 20
74.922105
  0
TEXT
  7
TextStyle03
  8
寸法
  6
CONTINUOUS
 62
     0
 10
25.4375
 20
75.3
  1
800
 40
3.0
 72
     5
 11
30.3125
 21
75.3
  0
ENDBLK
  0
BLOCK
  2
*DIM_0012
 70
    65
 10
0.0
 20
0.0
  0
LINE
  8
寸法
  6
CONTINUOUS
 10
112.31587
 20
56.453242
 11
115.632538
 21
56.453242
  0
POINT
  8
寸法
 10
112.31587
 20
56.453242
  0
POINT
  8
寸法
 10
115.632538
 20
56.453242
  0
TEXT
  7
TextStyle03
  8
寸法
  6
CONTINUOUS
 10
110.56875
 20
56.625
  1
99.5
 40
3.0
 72
     5
 11
117.13125
 21
56.625
  0
ENDBLK
  0
BLOCK
  2
*DIM_0013
 70
    65
 10
0.0
 20
0.0
  0
LINE
  8
寸法
  6
CONTINUOUS
 10
59.8636
 20
-67.543295
 11
59.8636
 21
-70.859962
  0
POINT
  8
寸法
 10
59.8636
 20
-67.543295
  0
POINT
  8
寸法
 10
59.8636
 20
-70.859962
  0
TEXT
  7
TextStyle03
  8
寸法
  6
CONTINUOUS
 10
63.025
 20
-72.38125
  1
99.5
 40
3.0
 50
90.0
 72
     5
 11
63.025
 21
-65.81875
  0
ENDBLK
  0
BLOCK
  2
*DIM_0014
 70
    65
 10
0.0
 20
0.0
  0
LINE
  8
寸法
  6
CONTINUOUS
 10
141.310947
 20
-55.045118
 11
103.420947
 21
-55.045118
  0
POINT
  8
寸法
 10
141.310947
 20
-55.045118
  0
POINT
  8
寸法
 10
103.420947
 20
-55.045118
  0
TEXT
  7
TextStyle03
  8
寸法
  6
CONTINUOUS
 10
117.38125
 20
-54.7
  1
1136.7
 40
3.0
 72
     5
 11
127.31875
 21
-54.7
  0
ENDBLK
  0
ENDSEC
  0
SECTION
  2
ENTITIES
  0
POLYLINE
  8
通り芯
  6
CONTINUOUS
 66
     1
 70
     1
  0
VERTEX
  8
通り芯
 10
-210.0
 20
-148.5
  0
VERTEX
  8
通り芯
 10
210.0
 20
-148.5
  0
VERTEX
  8
通り芯
 10
210.0
 20
148.5
  0
VERTEX
  8
通り芯
 10
-210.0
 20
148.5
  0
SEQEND
  0
INSERT
  2
*GRP_0001
  8
型材断面
  6
CONTINUOUS
 10
0.0
 20
0.0
  0
LINE
  8
型材断面
  6
DASHDOT
 10
46.224393
 20
-77.836442
 11
46.224393
 21
42.814033
  0
LINE
  8
型材断面
  6
DASHDOT
 10
-12.10894
 20
-77.836442
 11
-12.10894
 21
42.814033
  0
LINE
  8
型材断面
  6
DASHDOT
 10
-70.442275
 20
-77.836442
 11
-70.442275
 21
42.814033
  0
LINE
  8
型材断面
  6
CONTINUOUS
 10
-53.775608
 20
45.444162
 11
-55.271238
 21
48.03467
  0
LINE
  8
型材断面
  6
CONTINUOUS
 10
-53.775608
 20
45.444162
 11
-52.279978
 21
48.03467
  0
LINE
  8
型材断面
  6
CONTINUOUS
 10
-52.279978
 20
48.03467
 11
-55.271238
 21
48.03467
  0
LINE
  8
型材断面
  6
CONTINUOUS
 10
-111.294482
 20
87.32138
 11
-112.790113
 21
84.730873
  0
LINE
  8
型材断面
  6
CONTINUOUS
 10
-111.294482
 20
87.32138
 11
-109.798852
 21
84.730873
  0
LINE
  8
型材断面
  6
CONTINUOUS
 10
-109.798852
 20
84.730873
 11
-112.790113
 21
84.730873
  0
LINE
  8
型材断面
  6
CONTINUOUS
 10
-117.31707
 20
83.792277
 11
-71.075292
 21
83.792277
  0
LINE
  8
型材断面
  6
CONTINUOUS
 10
-73.072405
 20
32.814033
 11
-75.662913
 21
34.309663
  0
LINE
  8
型材断面
  6
CONTINUOUS
 10
-73.072405
 20
32.814033
 11
-75.662913
 21
31.318403
  0
LINE
  8
型材断面
  6
CONTINUOUS
 10
-75.662913
 20
31.318403
 11
-75.662913
 21
34.309663
  0
LINE
  8
型材断面
  6
CONTINUOUS
 10
-53.775608
 20
20.183902
 11
-55.271238
 21
17.593395
  0
LINE
  8
型材断面
  6
CONTINUOUS
 10
-53.775608
 20
20.183902
 11
-52.279978
 21
17.593395
  0
LINE
  8
型材断面
  6
CONTINUOUS
 10
-52.279978
 20
17.593395
 11
-55.271238
 21
17.593395
  0
LINE
  8
型材断面
  6
CONTINUOUS
 10
29.557727
 20
45.444162
 11
31.053357
 21
48.03467
  0
LINE
  8
型材断面
  6
CONTINUOUS
 10
29.557727
 20
45.444162
 11
28.062097
 21
48.03467
  0
LINE
  8
型材断面
  6
CONTINUOUS
 10
28.062097
 20
48.03467
 11
31.053357
 21
48.03467
  0
LINE
  8
型材断面
  6
CONTINUOUS
 10
48.854525
 20
32.814033
 11
51.445032
 21
34.309663
  0
LINE
  8
型材断面
  6
CONTINUOUS
 10
48.854525
 20
32.814033
 11
51.445032
 21
31.318403
  0
LINE
  8
型材断面
  6
CONTINUOUS
 10
51.445032
 20
31.318403
 11
51.445032
 21
34.309663
  0
LINE
  8
型材断面
  6
CONTINUOUS
 10
29.557727
 20
20.183902
 11
31.053357
 21
17.593395
  0
LINE
  8
型材断面
  6
CONTINUOUS
 10
29.557727
 20
20.183902
 11
28.062097
 21
17.593395
  0
LINE
  8
型材断面
  6
CONTINUOUS
 10
28.062097
 20
17.593395
 11
31.053357
 21
17.593395
  0
LINE
  8
型材断面
  6
CONTINUOUS
 10
-117.31707
 20
77.492275
 11
-71.075292
 21
77.492275
  0
LINE
  8
型材断面
  6
CONTINUOUS
 10
-73.442322
 20
19.81399
 11
-12.10894
 21
19.81399
  0
LINE
  8
型材断面
  6
CONTINUOUS
 10
-73.442322
 20
45.814075
 11
-12.10894
 21
45.814075
  0
LINE
  8
型材断面
  6
CONTINUOUS
 10
49.224443
 20
45.814075
 11
-12.10894
 21
45.814075
  0
LINE
  8
型材断面
  6
CONTINUOUS
 10
49.224443
 20
19.81399
 11
-12.10894
 21
19.81399
  0
LINE
  8
型材断面
  6
CONTINUOUS
 10
116.132538
 20
20.313977
 11
116.132538
 21
32.814033
  0
CIRCLE
  8
型材断面
  6
CONTINUOUS
 62
    47
 10
115.13254
 20
19.814042
 40
0.011113
  0
LINE
  8
型材断面
  6
CONTINUOUS
 62
    47
 10
115.632538
 20
20.314033
 11
115.632538
 21
19.814042
  0
LINE
  8
型材断面
  6
CONTINUOUS
 62
    47
 10
115.632538
 20
19.814042
 11
115.13254
 21
19.814042
  0
LINE
  8
型材断面
  6
CONTINUOUS
 62
    47
 10
115.13254
 20
19.814042
 11
114.63536
 21
22.747372
  0
LINE
  8
型材断面
  6
CONTINUOUS
 62
    47
 10
115.632538
 20
20.314033
 11
116.132538
 21
20.314033
  0
LINE
  8
型材断面
  6
CONTINUOUS
 10
114.63536
 20
22.74732
 11
114.63536
 21
32.814033
  0
LINE
  8
型材断面
  6
CONTINUOUS
 62
    47
 10
113.982538
 20
21.324093
 11
113.982538
 21
32.814033
  0
LINE
  8
型材断面
  6
CONTINUOUS
 62
    47
 10
112.482538
 20
21.167572
 11
112.482538
 21
32.814033
  0
LINE
  8
型材断面
  6
CONTINUOUS
 62
    47
 10
112.31587
 20
21.324093
 11
112.31587
 21
32.814033
  0
LINE
  8
型材断面
  6
CONTINUOUS
 10
115.132543
 20
19.813988
 11
115.132543
 21
32.814033
  0
LINE
  8
型材断面
  6
CONTINUOUS
 62
    47
 10
115.632538
 20
19.813988
 11
115.632538
 21
32.814033
  0
LINE
  8
型材断面
  6
CONTINUOUS
 62
    47
 10
114.63536
 20
22.747372
 11
113.982538
 21
22.747372
  0
LINE
  8
型材断面
  6
CONTINUOUS
 10
116.132538
 20
45.314087
 11
116.132538
 21
32.814033
  0
CIRCLE
  8
型材断面
  6
CONTINUOUS
 62
    47
 10
115.13254
 20
45.814025
 40
0.011113
  0
LINE
  8
型材断面
  6
CONTINUOUS
 62
    47
 10
115.632538
 20
45.314033
 11
115.632538
 21
45.814025
  0
LINE
  8
型材断面
  6
CONTINUOUS
 62
    47
 10
115.632538
 20
45.814025
 11
115.13254
 21
45.814025
  0
LINE
  8
型材断面
  6
CONTINUOUS
 62
    47
 10
115.13254
 20
45.814025
 11
114.63536
 21
42.880693
  0
LINE
  8
型材断面
  6
CONTINUOUS
 62
    47
 10
115.632538
 20
45.314033
 11
116.132538
 21
45.314033
  0
LINE
  8
型材断面
  6
CONTINUOUS
 10
114.63536
 20
42.880747
 11
114.63536
 21
32.814033
  0
LINE
  8
型材断面
  6
CONTINUOUS
 62
    47
 10
113.982538
 20
44.303973
 11
113.982538
 21
32.814033
  0
LINE
  8
型材断面
  6
CONTINUOUS
 62
    47
 10
112.482538
 20
44.460495
 11
112.482538
 21
32.814033
  0
LINE
  8
型材断面
  6
CONTINUOUS
 62
    47
 10
112.31587
 20
44.303973
 11
112.31587
 21
32.814033
  0
LINE
  8
型材断面
  6
CONTINUOUS
 10
115.132543
 20
45.814077
 11
115.132543
 21
32.814033
  0
LINE
  8
型材断面
  6
CONTINUOUS
 62
    47
 10
115.632538
 20
45.814077
 11
115.632538
 21
32.814033
  0
LINE
  8
型材断面
  6
CONTINUOUS
 62
    47
 10
114.63536
 20
42.880693
 11
113.982538
 21
42.880693
  0
CIRCLE
  8
型材断面
  6
CONTINUOUS
 62
    47
 10
-73.442267
 20
-70.359965
 40
0.011113
  0
LINE
  8
型材断面
  6
CONTINUOUS
 62
    47
 10
-72.942275
 20
-70.859962
 11
-73.442267
 21
-70.859962
  0
LINE
  8
型材断面
  6
CONTINUOUS
 62
    47
 10
-73.442267
 20
-70.859962
 11
-73.442267
 21
-70.359965
  0
LINE
  8
型材断面
  6
CONTINUOUS
 62
    47
 10
-73.442267
 20
-70.359965
 11
-70.508935
 21
-69.862785
  0
LINE
  8
型材断面
  6
CONTINUOUS
 62
    47
 10
-72.942275
 20
-70.859962
 11
-72.942275
 21
-71.359962
  0
LINE
  8
型材断面
  6
CONTINUOUS
 62
    47
 10
-70.508935
 20
-69.862785
 11
-70.508935
 21
-69.20996
  0
CIRCLE
  8
型材断面
  6
CONTINUOUS
 62
    47
 10
49.224382
 20
-70.359965
 40
0.011113
  0
LINE
  8
型材断面
  6
CONTINUOUS
 62
    47
 10
48.724393
 20
-70.859962
 11
49.224382
 21
-70.859962
  0
LINE
  8
型材断面
  6
CONTINUOUS
 62
    47
 10
49.224382
 20
-70.859962
 11
49.224382
 21
-70.359965
  0
LINE
  8
型材断面
  6
CONTINUOUS
 62
    47
 10
49.224382
 20
-70.359965
 11
46.291052
 21
-69.862785
  0
LINE
  8
型材断面
  6
CONTINUOUS
 62
    47
 10
48.724393
 20
-70.859962
 11
48.724393
 21
-71.359962
  0
LINE
  8
型材断面
  6
CONTINUOUS
 62
    47
 10
46.291052
 20
-69.862785
 11
46.291052
 21
-69.20996
  0
LINE
  8
型材断面
  6
CONTINUOUS
 10
-70.508987
 20
-69.862785
 11
-12.108943
 21
-69.862785
  0
LINE
  8
型材断面
  6
CONTINUOUS
 10
-73.44232
 20
-70.359965
 11
-12.108943
 21
-70.359965
  0
LINE
  8
型材断面
  6
CONTINUOUS
 62
    47
 10
-71.932215
 20
-67.543295
 11
-12.108943
 21
-67.543295
  0
LINE
  8
型材断面
  6
CONTINUOUS
 62
    47
 10
-72.088738
 20
-67.70996
 11
-12.108943
 21
-67.70996
  0
LINE
  8
型材断面
  6
CONTINUOUS
 62
    47
 10
-71.932215
 20
-69.20996
 11
-12.108943
 21
-69.20996
  0
LINE
  8
型材断面
  6
CONTINUOUS
 62
    47
 10
-73.44232
 20
-70.859962
 11
-12.108943
 21
-70.859962
  0
LINE
  8
型材断面
  6
CONTINUOUS
 10
-72.94233
 20
-71.359962
 11
-12.108943
 21
-71.359962
  0
LINE
  8
型材断面
  6
CONTINUOUS
 62
    47
 10
49.224438
 20
-70.859962
 11
-12.108943
 21
-70.859962
  0
LINE
  8
型材断面
  6
CONTINUOUS
 10
49.224438
 20
-70.359965
 11
-12.108943
 21
-70.359965
  0
LINE
  8
型材断面
  6
CONTINUOUS
 62
    47
 10
47.714332
 20
-69.20996
 11
-12.108943
 21
-69.20996
  0
LINE
  8
型材断面
  6
CONTINUOUS
 10
46.291105
 20
-69.862785
 11
-12.108943
 21
-69.862785
  0
LINE
  8
型材断面
  6
CONTINUOUS
 62
    47
 10
47.714332
 20
-67.543295
 11
-12.108943
 21
-67.543295
  0
LINE
  8
型材断面
  6
CONTINUOUS
 62
    47
 10
47.870852
 20
-67.70996
 11
-12.108943
 21
-67.70996
  0
LINE
  8
型材断面
  6
CONTINUOUS
 10
48.724447
 20
-71.359962
 11
-12.108943
 21
-71.359962
  0
LINE
  8
型材断面
  6
DASHDOT
 10
123.108547
 20
22.814033
 11
-70.442275
 21
22.814033
  0
LINE
  8
型材断面
  6
DASHDOT
 10
123.108547
 20
42.814033
 11
-70.442275
 21
42.814033
  0
LINE
  8
型材断面
  6
DASHDOT
 10
-70.442275
 20
32.814033
 11
123.108547
 21
32.814033
  0
LINE
  8
型材断面
  6
DASHDOT
 10
-31.635607
 20
22.814033
 11
-31.635607
 21
42.814033
  0
LINE
  8
型材断面
  6
DASHDOT
 10
7.417728
 20
22.814033
 11
7.417728
 21
42.814033
  0
LINE
  8
型材断面
  6
CONTINUOUS
 10
-11.692273
 20
41.960495
 11
26.404392
 21
41.960495
  0
LINE
  8
型材断面
  6
CONTINUOUS
 10
-11.692273
 20
23.66757
 11
26.404392
 21
23.66757
  0
LINE
  8
型材断面
  6
CONTINUOUS
 10
-50.622272
 20
23.66757
 11
-12.525608
 21
23.66757
  0
LINE
  8
型材断面
  6
CONTINUOUS
 10
-50.622272
 20
41.960495
 11
-12.525608
 21
41.960495
  0
LINE
  8
型材断面
  6
CONTINUOUS
 10
8.667728
 20
24.500902
 11
6.167728
 21
24.500902
  0
LINE
  8
型材断面
  6
CONTINUOUS
 10
8.667728
 20
41.127162
 11
6.167728
 21
41.127162
  0
LINE
  8
型材断面
  6
CONTINUOUS
 10
8.667728
 20
24.500902
 11
8.667728
 21
41.127162
  0
LINE
  8
型材断面
  6
CONTINUOUS
 10
6.167728
 20
24.500902
 11
6.167728
 21
41.127162
  0
LINE
  8
型材断面
  6
CONTINUOUS
 10
-32.885607
 20
24.500902
 11
-30.385607
 21
24.500902
  0
LINE
  8
型材断面
  6
CONTINUOUS
 10
-32.885607
 20
41.127162
 11
-30.385607
 21
41.127162
  0
LINE
  8
型材断面
  6
CONTINUOUS
 10
-32.885607
 20
24.500902
 11
-32.885607
 21
41.127162
  0
LINE
  8
型材断面
  6
CONTINUOUS
 10
-30.385607
 20
24.500902
 11
-30.385607
 21
41.127162
  0
LINE
  8
型材断面
  6
CONTINUOUS
 10
49.22444
 20
45.814075
 11
49.22444
 21
32.81403
  0
LINE
  8
型材断面
  6
CONTINUOUS
 10
49.22444
 20
19.81399
 11
49.22444
 21
32.814035
  0
LINE
  8
型材断面
  6
CONTINUOUS
 10
45.370852
 20
32.397365
 11
47.870852
 21
32.397365
  0
LINE
  8
型材断面
  6
CONTINUOUS
 10
45.370852
 20
33.2307
 11
47.870852
 21
33.2307
  0
LINE
  8
型材断面
  6
CONTINUOUS
 10
47.635155
 20
21.16752
 11
47.870855
 21
21.40322
  0
LINE
  8
型材断面
  6
CONTINUOUS
 10
49.22444
 20
19.81399
 11
47.753032
 21
21.285397
  0
LINE
  8
型材断面
  6
CONTINUOUS
 10
45.135155
 20
23.66752
 11
45.370855
 21
23.90322
  0
LINE
  8
型材断面
  6
CONTINUOUS
 10
45.135155
 20
23.66752
 11
47.635105
 21
21.16757
  0
LINE
  8
型材断面
  6
CONTINUOUS
 10
45.370855
 20
23.90322
 11
47.870852
 21
21.403223
  0
LINE
  8
型材断面
  6
CONTINUOUS
 10
45.370852
 20
32.397365
 11
45.370852
 21
23.903218
  0
LINE
  8
型材断面
  6
CONTINUOUS
 10
47.635155
 20
44.460545
 11
47.870855
 21
44.224845
  0
LINE
  8
型材断面
  6
CONTINUOUS
 10
49.22444
 20
45.814075
 11
47.753032
 21
44.342668
  0
LINE
  8
型材断面
  6
CONTINUOUS
 10
45.135155
 20
41.960545
 11
45.370855
 21
41.724845
  0
LINE
  8
型材断面
  6
CONTINUOUS
 10
45.135155
 20
41.960545
 11
47.635105
 21
44.460495
  0
LINE
  8
型材断面
  6
CONTINUOUS
 10
45.370855
 20
41.724845
 11
47.870852
 21
44.224842
  0
LINE
  8
型材断面
  6
CONTINUOUS
 10
47.870852
 20
21.403223
 11
47.870852
 21
44.224842
  0
LINE
  8
型材断面
  6
CONTINUOUS
 10
45.370852
 20
33.2307
 11
45.370852
 21
41.724848
  0
LINE
  8
型材断面
  6
CONTINUOUS
 10
27.237728
 20
41.960495
 11
45.135105
 21
41.960495
  0
LINE
  8
型材断面
  6
CONTINUOUS
 10
27.237728
 20
23.66757
 11
45.135105
 21
23.66757
  0
LINE
  8
型材断面
  6
CONTINUOUS
 10
-73.44232
 20
45.814075
 11
-73.44232
 21
32.81403
  0
LINE
  8
型材断面
  6
CONTINUOUS
 10
-73.44232
 20
19.81399
 11
-73.44232
 21
32.814035
  0
LINE
  8
型材断面
  6
CONTINUOUS
 10
-69.588732
 20
32.397365
 11
-72.088732
 21
32.397365
  0
LINE
  8
型材断面
  6
CONTINUOUS
 10
-69.588732
 20
33.2307
 11
-72.088732
 21
33.2307
  0
LINE
  8
型材断面
  6
CONTINUOUS
 10
-71.853035
 20
21.16752
 11
-72.088735
 21
21.40322
  0
LINE
  8
型材断面
  6
CONTINUOUS
 10
-73.44232
 20
19.81399
 11
-71.970913
 21
21.285397
  0
LINE
  8
型材断面
  6
CONTINUOUS
 10
-69.353035
 20
23.66752
 11
-69.588735
 21
23.90322
  0
LINE
  8
型材断面
  6
CONTINUOUS
 10
-69.353035
 20
23.66752
 11
-71.852985
 21
21.16757
  0
LINE
  8
型材断面
  6
CONTINUOUS
 10
-69.588735
 20
23.90322
 11
-72.088732
 21
21.403223
  0
LINE
  8
型材断面
  6
CONTINUOUS
 10
-69.588732
 20
32.397365
 11
-69.588732
 21
23.903218
  0
LINE
  8
型材断面
  6
CONTINUOUS
 10
-71.853035
 20
44.460545
 11
-72.088735
 21
44.224845
  0
LINE
  8
型材断面
  6
CONTINUOUS
 10
-73.44232
 20
45.814075
 11
-71.970913
 21
44.342668
  0
LINE
  8
型材断面
  6
CONTINUOUS
 10
-69.353035
 20
41.960545
 11
-69.588735
 21
41.724845
  0
LINE
  8
型材断面
  6
CONTINUOUS
 10
-69.353035
 20
41.960545
 11
-71.852985
 21
44.460495
  0
LINE
  8
型材断面
  6
CONTINUOUS
 10
-69.588735
 20
41.724845
 11
-72.088732
 21
44.224842
  0
LINE
  8
型材断面
  6
CONTINUOUS
 10
-72.088732
 20
21.403223
 11
-72.088732
 21
44.224842
  0
LINE
  8
型材断面
  6
CONTINUOUS
 10
-69.588732
 20
33.2307
 11
-69.588732
 21
41.724848
  0
LINE
  8
型材断面
  6
CONTINUOUS
 10
-51.455608
 20
23.66757
 11
-69.352985
 21
23.66757
  0
LINE
  8
型材断面
  6
CONTINUOUS
 10
47.635105
 20
21.16757
 11
-71.852985
 21
21.16757
  0
LINE
  8
型材断面
  6
CONTINUOUS
 10
-51.455608
 20
41.960495
 11
-69.352985
 21
41.960495
  0
LINE
  8
型材断面
  6
CONTINUOUS
 10
47.635105
 20
44.460495
 11
-71.852985
 21
44.460495
  0
TEXT
  7
TextStyle03
  8
文字
  6
CONTINUOUS
 10
-108.5
 20
84.95
  1
は排水穴位置を示す
 40
3.0
 72
     5
 11
-78.5
 21
84.95
  0
TEXT
  7
TextStyle03
  8
文字
  6
CONTINUOUS
 10
62.075
 20
104.525
  1
ＮＳコード：ＮＳＦＫＺ
 40
5.0
 72
     5
 11
123.325
 21
104.525
  0
TEXT
  7
TextStyle03
  8
文字
  6
CONTINUOUS
 10
122.775
 20
-76.7
  1
網入り6.8t
 40
3.0
 72
     5
 11
139.4625
 21
-76.7
  0
TEXT
  7
TextStyle03
  8
文字
  6
CONTINUOUS
 10
129.45
 20
-81.375
  1
×３枚
 40
3.0
 72
     5
 11
139.2
 21
-81.375
  0
TEXT
  7
TextStyle03
  8
文字
  6
CONTINUOUS
 10
-91.525
 20
11.275
  1
アンカーピッチ
 40
3.0
 50
90.0
 72
     5
 11
-91.525
 21
34.525
  0
TEXT
  7
TextStyle03
  8
文字
  6
CONTINUOUS
 10
-59.3
 20
79.775
  1
アンカーピッチ
 40
3.0
 72
     5
 11
-36.05
 21
79.775
  0
TEXT
  7
TextStyle03
  8
文字
  6
CONTINUOUS
 10
-112.225
 20
78.425
  1
アンカー数量　１４ヶ所
 40
3.0
 72
     5
 11
-75.475
 21
78.425
  0
LINE
  8
文字
  6
CONTINUOUS
 10
112.31587
 20
56.453242
 11
112.31587
 21
47.100085
  0
LINE
  8
文字
  6
CONTINUOUS
 10
115.632538
 20
56.453242
 11
115.632538
 21
47.165438
  0
LINE
  8
文字
  6
CONTINUOUS
 10
59.8636
 20
-67.543295
 11
50.510442
 21
-67.543295
  0
LINE
  8
文字
  6
CONTINUOUS
 10
59.8636
 20
-70.859962
 11
50.575798
 21
-70.859962
  0
LINE
  8
文字
  6
CONTINUOUS
 10
141.310947
 20
-55.045118
 11
141.310947
 21
-62.807473
  0
LINE
  8
文字
  6
CONTINUOUS
 10
103.420947
 20
-55.045118
 11
103.420947
 21
-62.807473
  0
TEXT
  7
TextStyle03
  8
文字
  6
CONTINUOUS
 10
61.925
 20
125.25
  1
シリーズ：ＴＦ２ＦＫＬ
 40
5.0
 72
     5
 11
123.175
 21
125.25
  0
TEXT
  7
TextStyle03
  8
文字
  6
CONTINUOUS
 10
61.925
 20
119.625
  1
　　　　　（固定）600×3500タイプ
 40
5.0
 72
     5
 11
154.1125
 21
119.625
  0
TEXT
  7
TextStyle03
  8
文字
  6
CONTINUOUS
 10
61.925
 20
114.0
  1
図面名　：外観姿図
 40
5.0
 72
     5
 11
111.925
 21
114.0
  0
TEXT
  7
TextStyle03
  8
文字
  6
CONTINUOUS
 10
61.925
 20
108.375
  1
　　　　　　
 40
5.0
 72
     5
 11
95.05
 21
108.375
  0
LINE
  8
文字
  6
CONTINUOUS
 10
27.237728
 20
23.66757
 11
27.237728
 21
21.16757
  0
LINE
  8
文字
  6
CONTINUOUS
 10
26.404392
 20
23.66757
 11
26.404392
 21
21.16757
  0
LINE
  8
文字
  6
CONTINUOUS
 10
-11.692273
 20
23.66757
 11
-11.692273
 21
21.16757
  0
LINE
  8
文字
  6
CONTINUOUS
 10
-12.525608
 20
23.66757
 11
-12.525608
 21
21.16757
  0
LINE
  8
文字
  6
CONTINUOUS
 10
-51.455608
 20
23.66757
 11
-51.455608
 21
21.16757
  0
LINE
  8
文字
  6
CONTINUOUS
 10
-50.622272
 20
23.66757
 11
-50.622272
 21
21.16757
  0
LINE
  8
文字
  6
CONTINUOUS
 10
27.237728
 20
41.960495
 11
27.237728
 21
44.460495
  0
LINE
  8
文字
  6
CONTINUOUS
 10
26.404392
 20
41.960495
 11
26.404392
 21
44.460495
  0
LINE
  8
文字
  6
CONTINUOUS
 10
-11.692273
 20
41.960495
 11
-11.692273
 21
44.460495
  0
LINE
  8
文字
  6
CONTINUOUS
 10
-12.525608
 20
41.960495
 11
-12.525608
 21
44.460495
  0
LINE
  8
文字
  6
CONTINUOUS
 10
-51.455608
 20
41.960495
 11
-51.455608
 21
44.460495
  0
LINE
  8
文字
  6
CONTINUOUS
 10
-50.622272
 20
41.960495
 11
-50.622272
 21
44.460495
  0
INSERT
  2
*DIM_0002
  8
寸法
  6
CONTINUOUS
 10
0.0
 20
0.0
  0
INSERT
  2
*DIM_0003
  8
寸法
  6
CONTINUOUS
 10
0.0
 20
0.0
  0
INSERT
  2
*DIM_0004
  8
寸法
  6
CONTINUOUS
 10
0.0
 20
0.0
  0
INSERT
  2
*DIM_0005
  8
寸法
  6
CONTINUOUS
 10
0.0
 20
0.0
  0
INSERT
  2
*DIM_0006
  8
寸法
  6
CONTINUOUS
 10
0.0
 20
0.0
  0
INSERT
  2
*DIM_0007
  8
寸法
  6
CONTINUOUS
 10
0.0
 20
0.0
  0
INSERT
  2
*DIM_0008
  8
寸法
  6
CONTINUOUS
 10
0.0
 20
0.0
  0
INSERT
  2
*DIM_0009
  8
寸法
  6
CONTINUOUS
 10
0.0
 20
0.0
  0
INSERT
  2
*DIM_0010
  8
寸法
  6
CONTINUOUS
 10
0.0
 20
0.0
  0
INSERT
  2
*DIM_0011
  8
寸法
  6
CONTINUOUS
 10
0.0
 20
0.0
  0
INSERT
  2
*DIM_0012
  8
寸法
  6
CONTINUOUS
 10
0.0
 20
0.0
  0
INSERT
  2
*DIM_0013
  8
寸法
  6
CONTINUOUS
 10
0.0
 20
0.0
  0
INSERT
  2
*DIM_0014
  8
寸法
  6
CONTINUOUS
 10
0.0
 20
0.0
  0
LINE
  8
別途部材
  6
CONTINUOUS
 62
    47
 10
112.41587
 20
21.167572
 11
112.482538
 21
21.167572
  0
ARC
  8
別途部材
  6
CONTINUOUS
 62
    47
 10
112.415869
 20
21.267571
 40
0.1
 50
180.0
 51
270.0
  0
LINE
  8
別途部材
  6
CONTINUOUS
 62
    47
 10
112.31587
 20
21.267572
 11
112.31587
 21
21.324093
  0
LINE
  8
別途部材
  6
CONTINUOUS
 62
    47
 10
113.982538
 20
21.324093
 11
112.482538
 21
21.324093
  0
LINE
  8
別途部材
  6
CONTINUOUS
 62
    47
 10
112.41587
 20
44.460495
 11
112.482538
 21
44.460495
  0
ARC
  8
別途部材
  6
CONTINUOUS
 62
    47
 10
112.415869
 20
44.360495
 40
0.1
 50
90.0
 51
180.0
  0
LINE
  8
別途部材
  6
CONTINUOUS
 62
    47
 10
112.31587
 20
44.360495
 11
112.31587
 21
44.303973
  0
LINE
  8
別途部材
  6
CONTINUOUS
 62
    47
 10
113.982538
 20
44.303973
 11
112.482538
 21
44.303973
  0
LINE
  8
別途部材
  6
CONTINUOUS
 62
    47
 10
-72.088738
 20
-67.643295
 11
-72.088738
 21
-67.70996
  0
ARC
  8
別途部材
  6
CONTINUOUS
 62
    47
 10
-71.988738
 20
-67.643292
 40
0.1
 50
90.0
 51
180.0
  0
LINE
  8
別途部材
  6
CONTINUOUS
 62
    47
 10
-71.988738
 20
-67.543295
 11
-71.932215
 21
-67.543295
  0
LINE
  8
別途部材
  6
CONTINUOUS
 62
    47
 10
-71.932215
 20
-69.20996
 11
-71.932215
 21
-67.70996
  0
LINE
  8
別途部材
  6
CONTINUOUS
 62
    47
 10
47.870852
 20
-67.643295
 11
47.870852
 21
-67.70996
  0
ARC
  8
別途部材
  6
CONTINUOUS
 62
    47
 10
47.770853
 20
-67.643292
 40
0.1
 50
0.0
 51
90.0
  0
LINE
  8
別途部材
  6
CONTINUOUS
 62
    47
 10
47.770853
 20
-67.543295
 11
47.714332
 21
-67.543295
  0
LINE
  8
別途部材
  6
CONTINUOUS
 62
    47
 10
47.714332
 20
-69.20996
 11
47.714332
 21
-67.70996
  0
LINE
  8
曲げ物
  6
CONTINUOUS
 10
28.944153
 20
34.739582
 11
25.24884
 21
31.04427
  0
LINE
  8
曲げ物
  6
CONTINUOUS
 10
28.240683
 20
33.203472
 11
26.784952
 21
31.747742
  0
LINE
  8
曲げ物
  6
CONTINUOUS
 10
27.408043
 20
34.036112
 11
25.952312
 21
32.580383
  0
LINE
  8
曲げ物
  6
CONTINUOUS
 10
-10.21441
 20
34.739582
 11
-13.909723
 21
31.04427
  0
LINE
  8
曲げ物
  6
CONTINUOUS
 10
-10.91788
 20
33.203472
 11
-12.37361
 21
31.747742
  0
LINE
  8
曲げ物
  6
CONTINUOUS
 10
-11.75052
 20
34.036112
 11
-13.20625
 21
32.580383
  0
LINE
  8
曲げ物
  6
CONTINUOUS
 10
-49.553438
 20
34.739582
 11
-53.24875
 21
31.04427
  0
LINE
  8
曲げ物
  6
CONTINUOUS
 10
-50.256908
 20
33.203472
 11
-51.712637
 21
31.747742
  0
LINE
  8
曲げ物
  6
CONTINUOUS
 10
-51.089548
 20
34.036112
 11
-52.545277
 21
32.580383
  0
LINE
  8
曲げ物
  6
CONTINUOUS
 10
141.310947
 20
-83.118728
 11
141.310947
 21
-63.785395
  0
LINE
  8
曲げ物
  6
CONTINUOUS
 10
103.420947
 20
-83.118728
 11
103.420947
 21
-63.785395
  0
LINE
  8
曲げ物
  6
CONTINUOUS
 10
141.310947
 20
-63.785395
 11
103.420947
 21
-63.785395
  0
LINE
  8
曲げ物
  6
CONTINUOUS
 10
141.310947
 20
-83.118728
 11
103.420947
 21
-83.118728
  0
CIRCLE
  8
LAYER010
  6
CONTINUOUS
 62
    47
 10
115.13254
 20
19.814042
 40
0.011113
  0
CIRCLE
  8
LAYER010
  6
CONTINUOUS
 62
    47
 10
115.13254
 20
45.814025
 40
0.011113
  0
CIRCLE
  8
LAYER010
  6
CONTINUOUS
 62
    47
 10
-73.442267
 20
-70.359965
 40
0.011113
  0
CIRCLE
  8
LAYER010
  6
CONTINUOUS
 62
    47
 10
49.224382
 20
-70.359965
 40
0.011113
  0
ENDSEC
  0
EOF
