  0
SECTION
  2
HEADER
  9
$EXTMIN
 10
-210.0
 20
-148.5
  9
$EXTMAX
 10
210.0
 20
148.5
  9
$PDMODE
 70
    32
  9
$PDSIZE
 40
1.5
  9
$LTSCALE
 40
10.0
  0
ENDSEC
  0
SECTION
  2
TABLES
  0
TABLE
  2
LTYPE
 70
    15
  0
LTYPE
  2
CONTINUOUS
 70
    64
  3
実線
 72
    65
 73
     0
 40
0.0
  0
LTYPE
  2
DASHED
 70
    64
  3
破線A
 72
    65
 73
     2
 40
0.6
 49
0.4
 49
-0.2
  0
LTYPE
  2
DASHEDX2
 70
    64
  3
破線B
 72
    65
 73
     2
 40
1.3
 49
0.9
 49
-0.4
  0
LTYPE
  2
DASHDOT
 70
    64
  3
１点鎖線A
 72
    65
 73
     4
 40
0.5375
 49
0.375
 49
-0.05
 49
0.0625
 49
-0.05
  0
LTYPE
  2
DASHDOTX2
 70
    64
  3
１点鎖線B
 72
    65
 73
     4
 40
1.075
 49
0.75
 49
-0.1
 49
0.125
 49
-0.1
  0
LTYPE
  2
DIVIDE2
 70
    64
  3
２点鎖線A
 72
    65
 73
     6
 40
0.5125
 49
0.3
 49
-0.0375
 49
0.05
 49
-0.0375
 49
0.05
 49
-0.0375
  0
LTYPE
  2
DIVIDE
 70
    64
  3
２点鎖線B
 72
    65
 73
     6
 40
1.05
 49
0.55
 49
-0.1
 49
0.1
 49
-0.1
 49
0.1
 49
-0.1
  0
LTYPE
  2
DOT
 70
    64
  3
点線A
 72
    65
 73
     2
 40
0.1125
 49
0.0625
 49
-0.05
  0
LTYPE
  2
DOTX2
 70
    64
  3
点線B
 72
    65
 73
     2
 40
0.275
 49
0.15
 49
-0.125
  0
LTYPE
  2
CONTINUOUS
 70
    64
  3
実線
 72
    65
 73
     0
 40
0.0
  0
LTYPE
  2
CONTINUOUS
 70
    64
  3
実線
 72
    65
 73
     0
 40
0.0
  0
LTYPE
  2
CONTINUOUS
 70
    64
  3
実線
 72
    65
 73
     0
 40
0.0
  0
LTYPE
  2
CONTINUOUS
 70
    64
  3
実線
 72
    65
 73
     0
 40
0.0
  0
LTYPE
  2
CONTINUOUS
 70
    64
  3
実線
 72
    65
 73
     0
 40
0.0
  0
LTYPE
  2
CONTINUOUS
 70
    64
  3
実線
 72
    65
 73
     0
 40
0.0
  0
ENDTAB
  0
TABLE
  2
LAYER
 70
    35
  0
LAYER
  2
通り芯
 70
     0
 62
    15
  6
CONTINUOUS
  0
LAYER
  2
補助線
 70
     0
 62
    16
  6
DOT
  0
LAYER
  2
躯体
 70
     0
 62
    31
  6
CONTINUOUS
  0
LAYER
  2
型材
 70
     0
 62
    32
  6
CONTINUOUS
  0
LAYER
  2
型材断面
 70
     0
 62
    47
  6
CONTINUOUS
  0
LAYER
  2
ガラス
 70
     0
 62
    48
  6
CONTINUOUS
  0
LAYER
  2
ゴム等
 70
     0
 62
    63
  6
CONTINUOUS
  0
LAYER
  2
ボルト／ビス
 70
     0
 62
    64
  6
CONTINUOUS
  0
LAYER
  2
文字
 70
     0
 62
    79
  6
CONTINUOUS
  0
LAYER
  2
寸法
 70
     0
 62
    80
  6
CONTINUOUS
  0
LAYER
  2
ﾊｯﾁﾝｸﾞ
 70
     0
 62
    95
  6
CONTINUOUS
  0
LAYER
  2
別途部材
 70
     0
 62
    96
  6
CONTINUOUS
  0
LAYER
  2
曲げ物
 70
     0
 62
   111
  6
CONTINUOUS
  0
LAYER
  2
鉄骨等
 70
     0
 62
   112
  6
CONTINUOUS
  0
LAYER
  2
St
 70
     0
 62
   127
  6
CONTINUOUS
  0
LAYER
  2
その他部品等
 70
     0
 62
   128
  6
CONTINUOUS
  0
LAYER
  2
ｶﾞｽｹｯﾄ
 70
     0
 62
   143
  6
CONTINUOUS
  0
LAYER
  2
ｽｹｯﾁ
 70
     0
 62
    14
  6
CONTINUOUS
  0
LAYER
  2
0
 70
     0
 62
    17
  6
CONTINUOUS
  0
LAYER
  2
1
 70
     0
 62
    30
  6
CONTINUOUS
  0
LAYER
  2
4
 70
     0
 62
    33
  6
CONTINUOUS
  0
LAYER
  2
ﾚｲﾔ3
 70
     0
 62
    46
  6
CONTINUOUS
  0
LAYER
  2
外形線
 70
     0
 62
    49
  6
CONTINUOUS
  0
LAYER
  2
部品
 70
     0
 62
    14
  6
CONTINUOUS
  0
LAYER
  2
サッシ芯
 70
     0
 62
    17
  6
DASHDOTX2
  0
LAYER
  2
寸法線
 70
     0
 62
    62
  6
CONTINUOUS
  0
LAYER
  2
姿図外形線
 70
     0
 62
    65
  6
CONTINUOUS
  0
LAYER
  2
姿補助線
 70
     0
 62
    30
  6
CONTINUOUS
  0
LAYER
  2
透視線
 70
     0
 62
    78
  6
DOT
  0
LAYER
  2
用紙
 70
     0
 62
    81
  6
CONTINUOUS
  0
LAYER
  2
実線図枠
 70
     0
 62
    94
  6
CONTINUOUS
  0
LAYER
  2
補助図枠
 70
     0
 62
    97
  6
CONTINUOUS
  0
LAYER
  2
建具記号
 70
     0
 62
   110
  6
CONTINUOUS
  0
LAYER
  2
補助文字
 70
     0
 62
   113
  6
CONTINUOUS
  0
LAYER
  2
LAYER010
 70
     0
 62
    11
  6
CONTINUOUS
  0
ENDTAB
  0
TABLE
  2
STYLE
 70
    10
  0
STYLE
  2
STANDARD
 70
     0
 40
1.0
 41
1.0
 42
1.0
 50
0.0
 71
     0
  3
TXT
  4
BIGFONT
  0
STYLE
  2
TATE
 70
     4
 40
1.0
 41
1.0
 42
1.0
 50
0.0
 71
     0
  3
TXT
  4
BIGFONT
  0
STYLE
  2
TextStyle03
 70
     0
 40
1.0
 41
1.0
 42
1.0
 50
0.0
 71
     0
  3
MONOTXT
  4
BIGFONT
  0
STYLE
  2
TextStyle04
 70
     0
 40
1.0
 41
1.0
 42
1.0
 50
0.0
 71
     0
  3
MONOTXT
  4
BIGFONT
  0
STYLE
  2
TextStyle05
 70
     0
 40
1.0
 41
1.0
 42
1.0
 50
0.0
 71
     0
  3
MONOTXT
  4
BIGFONT
  0
STYLE
  2
TextStyle06
 70
     0
 40
1.0
 41
1.0
 42
1.0
 50
0.0
 71
     0
  3
MONOTXT
  4
BIGFONT
  0
STYLE
  2
TextStyle07
 70
     0
 40
1.0
 41
1.0
 42
1.0
 50
0.0
 71
     0
  3
MONOTXT
  4
BIGFONT
  0
STYLE
  2
TextStyle08
 70
     0
 40
1.0
 41
1.0
 42
1.0
 50
0.0
 71
     0
  3
MONOTXT
  4
BIGFONT
  0
STYLE
  2
TextStyle09
 70
     0
 40
1.0
 41
1.0
 42
1.0
 50
0.0
 71
     0
  3
MONOTXT
  4
BIGFONT
  0
STYLE
  2
TextStyle10
 70
     0
 40
1.0
 41
1.0
 42
1.0
 50
0.0
 71
     0
  3
MONOTXT
  4
BIGFONT
  0
ENDTAB
  0
ENDSEC
  0
SECTION
  2
BLOCKS
  0
BLOCK
  2
*GRP_0001
 70
    65
 10
0.0
 20
0.0
  0
LINE
  8
型材断面
  6
CONTINUOUS
 10
195.0
 20
133.5
 11
195.0
 21
-133.5
  0
LINE
  8
型材断面
  6
CONTINUOUS
 10
195.0
 20
-133.5
 11
-185.0
 21
-133.5
  0
LINE
  8
型材断面
  6
CONTINUOUS
 10
-185.0
 20
-133.5
 11
-185.0
 21
133.5
  0
LINE
  8
型材断面
  6
CONTINUOUS
 10
195.0
 20
133.5
 11
-185.0
 21
133.5
  0
LINE
  8
型材断面
  6
CONTINUOUS
 10
145.0
 20
-133.5
 11
145.0
 21
-118.5
  0
LINE
  8
型材断面
  6
CONTINUOUS
 10
195.0
 20
-118.5
 11
145.0
 21
-118.5
  0
ENDBLK
  0
BLOCK
  2
*DIM_0002
 70
    65
 10
0.0
 20
0.0
  0
LINE
  8
寸法
  6
BYBLOCK
 62
     0
 10
46.224393
 20
-13.121378
 11
-103.775608
 21
-13.121378
  0
POINT
  8
寸法
 62
     0
 10
46.224393
 20
-13.121378
  0
POINT
  8
寸法
 62
     0
 10
-103.775608
 20
-13.121378
  0
TEXT
  7
TextStyle03
  8
寸法
  6
CONTINUOUS
 62
     0
 10
-40.51875
 20
-12.75
  1
呼称寸法　4500
 40
3.0
 72
     5
 11
-17.08125
 21
-12.75
  0
ENDBLK
  0
BLOCK
  2
*DIM_0003
 70
    65
 10
0.0
 20
0.0
  0
LINE
  8
寸法
  6
BYBLOCK
 62
     0
 10
-87.10894
 20
19.183902
 11
-87.10894
 21
14.03092
  0
LINE
  8
寸法
  6
BYBLOCK
 62
     0
 10
-28.775608
 20
19.183905
 11
-28.775608
 21
14.03092
  0
LINE
  8
寸法
  6
BYBLOCK
 62
     0
 10
-87.10894
 20
14.03092
 11
-28.775608
 21
14.03092
  0
POINT
  8
寸法
 62
     0
 10
-87.10894
 20
14.03092
  0
POINT
  8
寸法
 62
     0
 10
-28.775608
 20
14.03092
  0
TEXT
  7
TextStyle03
  8
寸法
  6
CONTINUOUS
 62
     0
 10
-61.23125
 20
14.4
  1
1750
 40
3.0
 72
     5
 11
-54.66875
 21
14.4
  0
ENDBLK
  0
BLOCK
  2
*DIM_0004
 70
    65
 10
0.0
 20
0.0
  0
LINE
  8
寸法
  6
BYBLOCK
 62
     0
 10
29.557725
 20
19.183902
 11
29.557725
 21
14.03092
  0
LINE
  8
寸法
  6
BYBLOCK
 62
     0
 10
-28.775608
 20
14.03092
 11
29.557725
 21
14.03092
  0
POINT
  8
寸法
 62
     0
 10
29.557725
 20
14.03092
  0
TEXT
  7
TextStyle03
  8
寸法
  6
CONTINUOUS
 62
     0
 10
-2.90625
 20
14.4
  1
1750
 40
3.0
 72
     5
 11
3.65625
 21
14.4
  0
ENDBLK
  0
BLOCK
  2
*DIM_0005
 70
    65
 10
0.0
 20
0.0
  0
LINE
  8
寸法
  6
BYBLOCK
 62
     0
 10
49.22444
 20
-69.576397
 11
49.22444
 21
-13.121378
  0
LINE
  8
寸法
  6
BYBLOCK
 62
     0
 10
46.224393
 20
-13.121378
 11
49.22444
 21
-13.121378
  0
POINT
  8
寸法
 62
     0
 10
46.224393
 20
-13.121378
  0
POINT
  8
寸法
 62
     0
 10
49.22444
 20
-13.121378
  0
TEXT
  7
TextStyle03
  8
寸法
  6
CONTINUOUS
 62
     0
 10
46.10625
 20
-12.75
  1
90
 40
3.0
 72
     5
 11
49.29375
 21
-12.75
  0
ENDBLK
  0
BLOCK
  2
*DIM_0006
 70
    65
 10
0.0
 20
0.0
  0
LINE
  8
寸法
  6
BYBLOCK
 62
     0
 10
-106.775655
 20
-69.576397
 11
-106.775655
 21
-13.121378
  0
LINE
  8
寸法
  6
BYBLOCK
 62
     0
 10
-103.775608
 20
-13.121378
 11
-106.775655
 21
-13.121378
  0
POINT
  8
寸法
 62
     0
 10
-103.775608
 20
-13.121378
  0
POINT
  8
寸法
 62
     0
 10
-106.775655
 20
-13.121378
  0
TEXT
  7
TextStyle03
  8
寸法
  6
CONTINUOUS
 62
     0
 10
-106.89375
 20
-12.75
  1
90
 40
3.0
 72
     5
 11
-103.70625
 21
-12.75
  0
ENDBLK
  0
BLOCK
  2
*DIM_0007
 70
    65
 10
0.0
 20
0.0
  0
LINE
  8
寸法
  6
BYBLOCK
 62
     0
 10
142.310947
 20
-63.785395
 11
150.422478
 21
-63.785395
  0
LINE
  8
寸法
  6
BYBLOCK
 62
     0
 10
142.310947
 20
-83.118728
 11
150.422478
 21
-83.118728
  0
LINE
  8
寸法
  6
BYBLOCK
 62
     0
 10
150.422478
 20
-63.785395
 11
150.422478
 21
-83.118728
  0
POINT
  8
寸法
 62
     0
 10
150.422478
 20
-63.785395
  0
POINT
  8
寸法
 62
     0
 10
150.422478
 20
-83.118728
  0
TEXT
  7
TextStyle03
  8
寸法
  6
CONTINUOUS
 62
     0
 10
150.025
 20
-75.9125
  1
580
 40
3.0
 50
90.0
 72
     5
 11
150.025
 21
-71.0375
  0
ENDBLK
  0
BLOCK
  2
*DIM_0008
 70
    65
 10
0.0
 20
0.0
  0
LINE
  8
寸法
  6
BYBLOCK
 62
     0
 10
-106.775608
 20
39.4807
 11
-120.068445
 21
39.4807
  0
LINE
  8
寸法
  6
BYBLOCK
 62
     0
 10
-106.775608
 20
26.147365
 11
-120.068445
 21
26.147365
  0
LINE
  8
寸法
  6
BYBLOCK
 62
     0
 10
-120.068445
 20
39.4807
 11
-120.068445
 21
26.147365
  0
POINT
  8
寸法
 62
     0
 10
-120.068445
 20
39.4807
  0
POINT
  8
寸法
 62
     0
 10
-120.068445
 20
26.147365
  0
TEXT
  7
TextStyle03
  8
寸法
  6
CONTINUOUS
 62
     0
 10
-120.5
 20
30.3625
  1
400
 40
3.0
 50
90.0
 72
     5
 11
-120.5
 21
35.2375
  0
ENDBLK
  0
BLOCK
  2
*DIM_0009
 70
    65
 10
0.0
 20
0.0
  0
LINE
  8
寸法
  6
BYBLOCK
 62
     0
 10
-95.442275
 20
45.814033
 11
-95.442275
 21
74.922105
  0
LINE
  8
寸法
  6
BYBLOCK
 62
     0
 10
-68.775608
 20
45.814033
 11
-68.775608
 21
74.922105
  0
LINE
  8
寸法
  6
BYBLOCK
 62
     0
 10
-95.442275
 20
74.922105
 11
-68.775608
 21
74.922105
  0
POINT
  8
寸法
 62
     0
 10
-95.442275
 20
74.922105
  0
POINT
  8
寸法
 62
     0
 10
-68.775608
 20
74.922105
  0
TEXT
  7
TextStyle03
  8
寸法
  6
CONTINUOUS
 62
     0
 10
-84.5625
 20
75.3
  1
800
 40
3.0
 72
     5
 11
-79.6875
 21
75.3
  0
ENDBLK
  0
BLOCK
  2
*DIM_0010
 70
    65
 10
0.0
 20
0.0
  0
LINE
  8
寸法
  6
BYBLOCK
 62
     0
 10
-42.10894
 20
45.814033
 11
-42.10894
 21
74.922105
  0
LINE
  8
寸法
  6
BYBLOCK
 62
     0
 10
-68.775608
 20
74.922105
 11
-42.10894
 21
74.922105
  0
POINT
  8
寸法
 62
     0
 10
-42.10894
 20
74.922105
  0
TEXT
  7
TextStyle03
  8
寸法
  6
CONTINUOUS
 62
     0
 10
-57.8875
 20
75.3
  1
800
 40
3.0
 72
     5
 11
-53.0125
 21
75.3
  0
ENDBLK
  0
BLOCK
  2
*DIM_0011
 70
    65
 10
0.0
 20
0.0
  0
LINE
  8
寸法
  6
BYBLOCK
 62
     0
 10
-15.442275
 20
45.814033
 11
-15.442275
 21
74.922105
  0
LINE
  8
寸法
  6
BYBLOCK
 62
     0
 10
-42.10894
 20
74.922105
 11
-15.442275
 21
74.922105
  0
POINT
  8
寸法
 62
     0
 10
-15.442275
 20
74.922105
  0
TEXT
  7
TextStyle03
  8
寸法
  6
CONTINUOUS
 62
     0
 10
-31.2125
 20
75.3
  1
800
 40
3.0
 72
     5
 11
-26.3375
 21
75.3
  0
ENDBLK
  0
BLOCK
  2
*DIM_0012
 70
    65
 10
0.0
 20
0.0
  0
LINE
  8
寸法
  6
BYBLOCK
 62
     0
 10
11.224393
 20
45.814033
 11
11.224393
 21
74.922105
  0
LINE
  8
寸法
  6
BYBLOCK
 62
     0
 10
-15.442275
 20
74.922105
 11
11.224393
 21
74.922105
  0
POINT
  8
寸法
 62
     0
 10
11.224393
 20
74.922105
  0
TEXT
  7
TextStyle03
  8
寸法
  6
CONTINUOUS
 62
     0
 10
-4.5625
 20
75.3
  1
800
 40
3.0
 72
     5
 11
0.3125
 21
75.3
  0
ENDBLK
  0
BLOCK
  2
*DIM_0013
 70
    65
 10
0.0
 20
0.0
  0
LINE
  8
寸法
  6
BYBLOCK
 62
     0
 10
37.89106
 20
45.814033
 11
37.89106
 21
74.922105
  0
LINE
  8
寸法
  6
BYBLOCK
 62
     0
 10
11.224393
 20
74.922105
 11
37.89106
 21
74.922105
  0
POINT
  8
寸法
 62
     0
 10
37.89106
 20
74.922105
  0
TEXT
  7
TextStyle03
  8
寸法
  6
CONTINUOUS
 62
     0
 10
22.1125
 20
75.3
  1
800
 40
3.0
 72
     5
 11
26.9875
 21
75.3
  0
ENDBLK
  0
BLOCK
  2
*DIM_0014
 70
    65
 10
0.0
 20
0.0
  0
LINE
  8
寸法
  6
CONTINUOUS
 10
113.116045
 20
56.453242
 11
116.432712
 21
56.453242
  0
POINT
  8
寸法
 10
113.116045
 20
56.453242
  0
POINT
  8
寸法
 10
116.432712
 20
56.453242
  0
TEXT
  7
TextStyle03
  8
寸法
  6
CONTINUOUS
 10
111.34375
 20
56.625
  1
99.5
 40
3.0
 72
     5
 11
117.90625
 21
56.625
  0
ENDBLK
  0
BLOCK
  2
*DIM_0015
 70
    65
 10
0.0
 20
0.0
  0
LINE
  8
寸法
  6
CONTINUOUS
 10
59.863602
 20
-68.915715
 11
59.863602
 21
-72.232385
  0
POINT
  8
寸法
 10
59.863602
 20
-68.915715
  0
POINT
  8
寸法
 10
59.863602
 20
-72.232385
  0
TEXT
  7
TextStyle03
  8
寸法
  6
CONTINUOUS
 10
63.0
 20
-73.78125
  1
99.5
 40
3.0
 50
90.0
 72
     5
 11
63.0
 21
-67.21875
  0
ENDBLK
  0
BLOCK
  2
*DIM_0016
 70
    65
 10
0.0
 20
0.0
  0
LINE
  8
寸法
  6
CONTINUOUS
 10
141.310947
 20
-55.24667
 11
104.850948
 21
-55.24667
  0
POINT
  8
寸法
 10
141.310947
 20
-55.24667
  0
POINT
  8
寸法
 10
104.850948
 20
-55.24667
  0
TEXT
  7
TextStyle03
  8
寸法
  6
CONTINUOUS
 10
118.10625
 20
-54.9
  1
1093.8
 40
3.0
 72
     5
 11
128.04375
 21
-54.9
  0
ENDBLK
  0
ENDSEC
  0
SECTION
  2
ENTITIES
  0
POLYLINE
  8
通り芯
  6
CONTINUOUS
 66
     1
 70
     1
  0
VERTEX
  8
通り芯
 10
-210.0
 20
-148.5
  0
VERTEX
  8
通り芯
 10
210.0
 20
-148.5
  0
VERTEX
  8
通り芯
 10
210.0
 20
148.5
  0
VERTEX
  8
通り芯
 10
-210.0
 20
148.5
  0
SEQEND
  0
INSERT
  2
*GRP_0001
  8
型材断面
  6
CONTINUOUS
 10
0.0
 20
0.0
  0
LINE
  8
型材断面
  6
DASHDOT
 10
46.224393
 20
-77.836442
 11
46.224393
 21
42.814033
  0
LINE
  8
型材断面
  6
DASHDOT
 10
-28.775608
 20
-77.836442
 11
-28.775608
 21
42.814033
  0
LINE
  8
型材断面
  6
DASHDOT
 10
-103.775608
 20
-77.836442
 11
-103.775608
 21
42.814033
  0
LINE
  8
型材断面
  6
DASHDOT
 10
-28.775608
 20
22.814033
 11
-28.775608
 21
42.814033
  0
LINE
  8
型材断面
  6
CONTINUOUS
 10
-87.10894
 20
45.444162
 11
-88.60457
 21
48.03467
  0
LINE
  8
型材断面
  6
CONTINUOUS
 10
-87.10894
 20
45.444162
 11
-85.61331
 21
48.03467
  0
LINE
  8
型材断面
  6
CONTINUOUS
 10
-85.61331
 20
48.03467
 11
-88.60457
 21
48.03467
  0
LINE
  8
型材断面
  6
CONTINUOUS
 10
-144.627815
 20
87.32138
 11
-146.123445
 21
84.730873
  0
LINE
  8
型材断面
  6
CONTINUOUS
 10
-144.627815
 20
87.32138
 11
-143.132185
 21
84.730873
  0
LINE
  8
型材断面
  6
CONTINUOUS
 10
-143.132185
 20
84.730873
 11
-146.123445
 21
84.730873
  0
LINE
  8
型材断面
  6
CONTINUOUS
 10
-150.650403
 20
83.792277
 11
-104.408625
 21
83.792277
  0
LINE
  8
型材断面
  6
CONTINUOUS
 10
-106.405738
 20
32.814033
 11
-108.996245
 21
34.309663
  0
LINE
  8
型材断面
  6
CONTINUOUS
 10
-106.405738
 20
32.814033
 11
-108.996245
 21
31.318403
  0
LINE
  8
型材断面
  6
CONTINUOUS
 10
-108.996245
 20
31.318403
 11
-108.996245
 21
34.309663
  0
LINE
  8
型材断面
  6
CONTINUOUS
 10
-87.10894
 20
20.183902
 11
-88.60457
 21
17.593395
  0
LINE
  8
型材断面
  6
CONTINUOUS
 10
-87.10894
 20
20.183902
 11
-85.61331
 21
17.593395
  0
LINE
  8
型材断面
  6
CONTINUOUS
 10
-85.61331
 20
17.593395
 11
-88.60457
 21
17.593395
  0
LINE
  8
型材断面
  6
CONTINUOUS
 10
29.557725
 20
45.444162
 11
31.053355
 21
48.03467
  0
LINE
  8
型材断面
  6
CONTINUOUS
 10
29.557725
 20
45.444162
 11
28.062095
 21
48.03467
  0
LINE
  8
型材断面
  6
CONTINUOUS
 10
28.062095
 20
48.03467
 11
31.053355
 21
48.03467
  0
LINE
  8
型材断面
  6
CONTINUOUS
 10
48.854522
 20
32.814033
 11
51.44503
 21
34.309663
  0
LINE
  8
型材断面
  6
CONTINUOUS
 10
48.854522
 20
32.814033
 11
51.44503
 21
31.318403
  0
LINE
  8
型材断面
  6
CONTINUOUS
 10
51.44503
 20
31.318403
 11
51.44503
 21
34.309663
  0
LINE
  8
型材断面
  6
CONTINUOUS
 10
29.557725
 20
20.183902
 11
31.053355
 21
17.593395
  0
LINE
  8
型材断面
  6
CONTINUOUS
 10
29.557725
 20
20.183902
 11
28.062095
 21
17.593395
  0
LINE
  8
型材断面
  6
CONTINUOUS
 10
28.062095
 20
17.593395
 11
31.053355
 21
17.593395
  0
LINE
  8
型材断面
  6
CONTINUOUS
 10
-28.775608
 20
45.44416
 11
-27.279978
 21
48.034668
  0
LINE
  8
型材断面
  6
CONTINUOUS
 10
-28.775608
 20
45.44416
 11
-30.271238
 21
48.034668
  0
LINE
  8
型材断面
  6
CONTINUOUS
 10
-30.271238
 20
48.034668
 11
-27.279978
 21
48.034668
  0
LINE
  8
型材断面
  6
CONTINUOUS
 10
-28.775608
 20
20.1839
 11
-27.279978
 21
17.593392
  0
LINE
  8
型材断面
  6
CONTINUOUS
 10
-28.775608
 20
20.1839
 11
-30.271238
 21
17.593392
  0
LINE
  8
型材断面
  6
CONTINUOUS
 10
-30.271238
 20
17.593392
 11
-27.279978
 21
17.593392
  0
LINE
  8
型材断面
  6
CONTINUOUS
 10
-150.650403
 20
77.325113
 11
-104.408625
 21
77.325113
  0
LINE
  8
型材断面
  6
CONTINUOUS
 10
-106.775655
 20
19.81399
 11
-28.775608
 21
19.81399
  0
LINE
  8
型材断面
  6
CONTINUOUS
 10
-106.775655
 20
45.814075
 11
-28.775608
 21
45.814075
  0
LINE
  8
型材断面
  6
CONTINUOUS
 10
49.22444
 20
45.814075
 11
-28.775608
 21
45.814075
  0
LINE
  8
型材断面
  6
CONTINUOUS
 10
49.22444
 20
19.81399
 11
-28.775608
 21
19.81399
  0
LINE
  8
型材断面
  6
CONTINUOUS
 10
116.932712
 20
20.313977
 11
116.932712
 21
32.814033
  0
CIRCLE
  8
型材断面
  6
CONTINUOUS
 62
    47
 10
115.932715
 20
19.814042
 40
0.011113
  0
LINE
  8
型材断面
  6
CONTINUOUS
 62
    47
 10
116.432712
 20
20.314033
 11
116.432712
 21
19.814042
  0
LINE
  8
型材断面
  6
CONTINUOUS
 62
    47
 10
116.432712
 20
19.814042
 11
115.932715
 21
19.814042
  0
LINE
  8
型材断面
  6
CONTINUOUS
 62
    47
 10
115.932715
 20
19.814042
 11
115.435535
 21
22.747372
  0
LINE
  8
型材断面
  6
CONTINUOUS
 62
    47
 10
116.432712
 20
20.314033
 11
116.932712
 21
20.314033
  0
LINE
  8
型材断面
  6
CONTINUOUS
 10
115.435535
 20
22.74732
 11
115.435535
 21
32.814033
  0
LINE
  8
型材断面
  6
CONTINUOUS
 62
    47
 10
114.782712
 20
21.324093
 11
114.782712
 21
32.814033
  0
LINE
  8
型材断面
  6
CONTINUOUS
 62
    47
 10
113.282712
 20
21.167572
 11
113.282712
 21
32.814033
  0
LINE
  8
型材断面
  6
CONTINUOUS
 62
    47
 10
113.116045
 20
21.324093
 11
113.116045
 21
32.814033
  0
LINE
  8
型材断面
  6
CONTINUOUS
 10
115.932718
 20
19.813988
 11
115.932718
 21
32.814033
  0
LINE
  8
型材断面
  6
CONTINUOUS
 62
    47
 10
116.432712
 20
19.813988
 11
116.432712
 21
32.814033
  0
LINE
  8
型材断面
  6
CONTINUOUS
 62
    47
 10
115.435535
 20
22.747372
 11
114.782712
 21
22.747372
  0
LINE
  8
型材断面
  6
CONTINUOUS
 10
116.932712
 20
45.314087
 11
116.932712
 21
32.814033
  0
CIRCLE
  8
型材断面
  6
CONTINUOUS
 62
    47
 10
115.932715
 20
45.814025
 40
0.011113
  0
LINE
  8
型材断面
  6
CONTINUOUS
 62
    47
 10
116.432712
 20
45.314033
 11
116.432712
 21
45.814025
  0
LINE
  8
型材断面
  6
CONTINUOUS
 62
    47
 10
116.432712
 20
45.814025
 11
115.932715
 21
45.814025
  0
LINE
  8
型材断面
  6
CONTINUOUS
 62
    47
 10
115.932715
 20
45.814025
 11
115.435535
 21
42.880693
  0
LINE
  8
型材断面
  6
CONTINUOUS
 62
    47
 10
116.432712
 20
45.314033
 11
116.932712
 21
45.314033
  0
LINE
  8
型材断面
  6
CONTINUOUS
 10
115.435535
 20
42.880747
 11
115.435535
 21
32.814033
  0
LINE
  8
型材断面
  6
CONTINUOUS
 62
    47
 10
114.782712
 20
44.303973
 11
114.782712
 21
32.814033
  0
LINE
  8
型材断面
  6
CONTINUOUS
 62
    47
 10
113.282712
 20
44.460495
 11
113.282712
 21
32.814033
  0
LINE
  8
型材断面
  6
CONTINUOUS
 62
    47
 10
113.116045
 20
44.303973
 11
113.116045
 21
32.814033
  0
LINE
  8
型材断面
  6
CONTINUOUS
 10
115.932718
 20
45.814077
 11
115.932718
 21
32.814033
  0
LINE
  8
型材断面
  6
CONTINUOUS
 62
    47
 10
116.432712
 20
45.814077
 11
116.432712
 21
32.814033
  0
LINE
  8
型材断面
  6
CONTINUOUS
 62
    47
 10
115.435535
 20
42.880693
 11
114.782712
 21
42.880693
  0
CIRCLE
  8
型材断面
  6
CONTINUOUS
 62
    47
 10
-106.775598
 20
-71.732385
 40
0.011113
  0
LINE
  8
型材断面
  6
CONTINUOUS
 62
    47
 10
-106.275608
 20
-72.232385
 11
-106.775598
 21
-72.232385
  0
LINE
  8
型材断面
  6
CONTINUOUS
 62
    47
 10
-106.775598
 20
-72.232385
 11
-106.775598
 21
-71.732385
  0
LINE
  8
型材断面
  6
CONTINUOUS
 62
    47
 10
-106.775598
 20
-71.732385
 11
-103.842267
 21
-71.235205
  0
LINE
  8
型材断面
  6
CONTINUOUS
 62
    47
 10
-106.275608
 20
-72.232385
 11
-106.275608
 21
-72.732385
  0
LINE
  8
型材断面
  6
CONTINUOUS
 62
    47
 10
-103.842267
 20
-71.235205
 11
-103.842267
 21
-70.582383
  0
CIRCLE
  8
型材断面
  6
CONTINUOUS
 62
    47
 10
49.224385
 20
-71.732385
 40
0.011113
  0
LINE
  8
型材断面
  6
CONTINUOUS
 62
    47
 10
48.724393
 20
-72.232385
 11
49.224385
 21
-72.232385
  0
LINE
  8
型材断面
  6
CONTINUOUS
 62
    47
 10
49.224385
 20
-72.232385
 11
49.224385
 21
-71.732385
  0
LINE
  8
型材断面
  6
CONTINUOUS
 62
    47
 10
49.224385
 20
-71.732385
 11
46.291052
 21
-71.235205
  0
LINE
  8
型材断面
  6
CONTINUOUS
 62
    47
 10
48.724393
 20
-72.232385
 11
48.724393
 21
-72.732385
  0
LINE
  8
型材断面
  6
CONTINUOUS
 62
    47
 10
46.291052
 20
-71.235205
 11
46.291052
 21
-70.582383
  0
LINE
  8
型材断面
  6
CONTINUOUS
 10
-106.775652
 20
-71.732388
 11
-28.775608
 21
-71.732388
  0
LINE
  8
型材断面
  6
CONTINUOUS
 62
    47
 10
-105.265547
 20
-70.582383
 11
-28.775608
 21
-70.582383
  0
LINE
  8
型材断面
  6
CONTINUOUS
 62
    47
 10
-106.775652
 20
-72.232385
 11
-28.775608
 21
-72.232385
  0
LINE
  8
型材断面
  6
CONTINUOUS
 10
-106.275663
 20
-72.732385
 11
-28.775608
 21
-72.732385
  0
LINE
  8
型材断面
  6
CONTINUOUS
 10
-103.84232
 20
-71.235205
 11
-28.775608
 21
-71.235205
  0
LINE
  8
型材断面
  6
CONTINUOUS
 62
    47
 10
-105.265547
 20
-68.915715
 11
-28.775608
 21
-68.915715
  0
LINE
  8
型材断面
  6
CONTINUOUS
 62
    47
 10
-105.422067
 20
-69.082383
 11
-28.775608
 21
-69.082383
  0
LINE
  8
型材断面
  6
CONTINUOUS
 10
48.724447
 20
-72.732385
 11
-28.775608
 21
-72.732385
  0
LINE
  8
型材断面
  6
CONTINUOUS
 62
    47
 10
49.224438
 20
-72.232385
 11
-28.775608
 21
-72.232385
  0
LINE
  8
型材断面
  6
CONTINUOUS
 10
49.224438
 20
-71.732388
 11
-28.775608
 21
-71.732388
  0
LINE
  8
型材断面
  6
CONTINUOUS
 10
46.291107
 20
-71.235205
 11
-28.775608
 21
-71.235205
  0
LINE
  8
型材断面
  6
CONTINUOUS
 62
    47
 10
47.714332
 20
-70.582383
 11
-28.775608
 21
-70.582383
  0
LINE
  8
型材断面
  6
CONTINUOUS
 62
    47
 10
47.870855
 20
-69.082383
 11
-28.775608
 21
-69.082383
  0
LINE
  8
型材断面
  6
CONTINUOUS
 62
    47
 10
47.714332
 20
-68.915715
 11
-28.775608
 21
-68.915715
  0
LINE
  8
型材断面
  6
DASHDOT
 10
123.908722
 20
22.814033
 11
-103.775608
 21
22.814033
  0
LINE
  8
型材断面
  6
DASHDOT
 10
123.908722
 20
32.814033
 11
-103.775608
 21
32.814033
  0
LINE
  8
型材断面
  6
DASHDOT
 10
123.908722
 20
42.814033
 11
-103.775608
 21
42.814033
  0
LINE
  8
型材断面
  6
DASHDOT
 10
-66.400608
 20
22.814033
 11
-66.400608
 21
42.814033
  0
LINE
  8
型材断面
  6
DASHDOT
 10
8.849393
 20
22.814033
 11
8.849393
 21
42.814033
  0
LINE
  8
型材断面
  6
CONTINUOUS
 10
-9.54644
 20
41.960495
 11
27.120225
 21
41.960495
  0
LINE
  8
型材断面
  6
CONTINUOUS
 10
-9.54644
 20
23.66757
 11
27.120225
 21
23.66757
  0
LINE
  8
型材断面
  6
CONTINUOUS
 10
-47.17144
 20
23.66757
 11
-10.379775
 21
23.66757
  0
LINE
  8
型材断面
  6
CONTINUOUS
 10
-47.17144
 20
41.960495
 11
-10.379775
 21
41.960495
  0
LINE
  8
型材断面
  6
CONTINUOUS
 10
-84.67144
 20
41.960495
 11
-48.004775
 21
41.960495
  0
LINE
  8
型材断面
  6
CONTINUOUS
 10
-84.67144
 20
23.66757
 11
-48.004775
 21
23.66757
  0
LINE
  8
型材断面
  6
CONTINUOUS
 10
10.099393
 20
24.500902
 11
7.599393
 21
24.500902
  0
LINE
  8
型材断面
  6
CONTINUOUS
 10
10.099393
 20
41.127162
 11
7.599393
 21
41.127162
  0
LINE
  8
型材断面
  6
CONTINUOUS
 10
10.099393
 20
24.500902
 11
10.099393
 21
41.127162
  0
LINE
  8
型材断面
  6
CONTINUOUS
 10
7.599393
 20
24.500902
 11
7.599393
 21
41.127162
  0
LINE
  8
型材断面
  6
CONTINUOUS
 10
-27.525608
 20
24.500902
 11
-30.025608
 21
24.500902
  0
LINE
  8
型材断面
  6
CONTINUOUS
 10
-27.525608
 20
41.127162
 11
-30.025608
 21
41.127162
  0
LINE
  8
型材断面
  6
CONTINUOUS
 10
-27.525608
 20
24.500902
 11
-27.525608
 21
41.127162
  0
LINE
  8
型材断面
  6
CONTINUOUS
 10
-30.025608
 20
24.500902
 11
-30.025608
 21
41.127162
  0
LINE
  8
型材断面
  6
CONTINUOUS
 10
-65.150608
 20
24.500902
 11
-67.650608
 21
24.500902
  0
LINE
  8
型材断面
  6
CONTINUOUS
 10
-65.150608
 20
41.127162
 11
-67.650608
 21
41.127162
  0
LINE
  8
型材断面
  6
CONTINUOUS
 10
-65.150608
 20
24.500902
 11
-65.150608
 21
41.127162
  0
LINE
  8
型材断面
  6
CONTINUOUS
 10
-67.650608
 20
24.500902
 11
-67.650608
 21
41.127162
  0
LINE
  8
型材断面
  6
CONTINUOUS
 10
49.22444
 20
45.814075
 11
49.22444
 21
32.81403
  0
LINE
  8
型材断面
  6
CONTINUOUS
 10
49.22444
 20
19.81399
 11
49.22444
 21
32.814035
  0
LINE
  8
型材断面
  6
CONTINUOUS
 10
45.370852
 20
32.397365
 11
47.870852
 21
32.397365
  0
LINE
  8
型材断面
  6
CONTINUOUS
 10
45.370852
 20
33.2307
 11
47.870852
 21
33.2307
  0
LINE
  8
型材断面
  6
CONTINUOUS
 10
47.635155
 20
21.16752
 11
47.870855
 21
21.40322
  0
LINE
  8
型材断面
  6
CONTINUOUS
 10
49.22444
 20
19.81399
 11
47.753032
 21
21.285397
  0
LINE
  8
型材断面
  6
CONTINUOUS
 10
45.135155
 20
23.66752
 11
45.370855
 21
23.90322
  0
LINE
  8
型材断面
  6
CONTINUOUS
 10
45.135155
 20
23.66752
 11
47.635105
 21
21.16757
  0
LINE
  8
型材断面
  6
CONTINUOUS
 10
45.370855
 20
23.90322
 11
47.870852
 21
21.403223
  0
LINE
  8
型材断面
  6
CONTINUOUS
 10
45.370852
 20
32.397365
 11
45.370852
 21
23.903218
  0
LINE
  8
型材断面
  6
CONTINUOUS
 10
47.635155
 20
44.460545
 11
47.870855
 21
44.224845
  0
LINE
  8
型材断面
  6
CONTINUOUS
 10
49.22444
 20
45.814075
 11
47.753032
 21
44.342668
  0
LINE
  8
型材断面
  6
CONTINUOUS
 10
45.135155
 20
41.960545
 11
45.370855
 21
41.724845
  0
LINE
  8
型材断面
  6
CONTINUOUS
 10
45.135155
 20
41.960545
 11
47.635105
 21
44.460495
  0
LINE
  8
型材断面
  6
CONTINUOUS
 10
45.370855
 20
41.724845
 11
47.870852
 21
44.224842
  0
LINE
  8
型材断面
  6
CONTINUOUS
 10
47.870852
 20
21.403223
 11
47.870852
 21
44.224842
  0
LINE
  8
型材断面
  6
CONTINUOUS
 10
45.370852
 20
33.2307
 11
45.370852
 21
41.724848
  0
LINE
  8
型材断面
  6
CONTINUOUS
 10
-106.775655
 20
45.814075
 11
-106.775655
 21
32.81403
  0
LINE
  8
型材断面
  6
CONTINUOUS
 10
-106.775655
 20
19.81399
 11
-106.775655
 21
32.814035
  0
LINE
  8
型材断面
  6
CONTINUOUS
 10
-102.922067
 20
32.397365
 11
-105.422067
 21
32.397365
  0
LINE
  8
型材断面
  6
CONTINUOUS
 10
-102.922067
 20
33.2307
 11
-105.422067
 21
33.2307
  0
LINE
  8
型材断面
  6
CONTINUOUS
 10
-105.18637
 20
21.16752
 11
-105.42207
 21
21.40322
  0
LINE
  8
型材断面
  6
CONTINUOUS
 10
-106.775655
 20
19.81399
 11
-105.304248
 21
21.285397
  0
LINE
  8
型材断面
  6
CONTINUOUS
 10
-102.68637
 20
23.66752
 11
-102.92207
 21
23.90322
  0
LINE
  8
型材断面
  6
CONTINUOUS
 10
-102.68637
 20
23.66752
 11
-105.18632
 21
21.16757
  0
LINE
  8
型材断面
  6
CONTINUOUS
 10
-102.92207
 20
23.90322
 11
-105.422067
 21
21.403223
  0
LINE
  8
型材断面
  6
CONTINUOUS
 10
-102.922067
 20
32.397365
 11
-102.922067
 21
23.903218
  0
LINE
  8
型材断面
  6
CONTINUOUS
 10
-105.18637
 20
44.460545
 11
-105.42207
 21
44.224845
  0
LINE
  8
型材断面
  6
CONTINUOUS
 10
-106.775655
 20
45.814075
 11
-105.304248
 21
44.342668
  0
LINE
  8
型材断面
  6
CONTINUOUS
 10
-102.68637
 20
41.960545
 11
-102.92207
 21
41.724845
  0
LINE
  8
型材断面
  6
CONTINUOUS
 10
-102.68637
 20
41.960545
 11
-105.18632
 21
44.460495
  0
LINE
  8
型材断面
  6
CONTINUOUS
 10
-102.92207
 20
41.724845
 11
-105.422067
 21
44.224842
  0
LINE
  8
型材断面
  6
CONTINUOUS
 10
-105.422067
 20
21.403223
 11
-105.422067
 21
44.224842
  0
LINE
  8
型材断面
  6
CONTINUOUS
 10
-102.922067
 20
33.2307
 11
-102.922067
 21
41.724848
  0
LINE
  8
型材断面
  6
CONTINUOUS
 10
-85.504775
 20
23.66757
 11
-102.68632
 21
23.66757
  0
LINE
  8
型材断面
  6
CONTINUOUS
 10
-85.504775
 20
41.960495
 11
-102.68632
 21
41.960495
  0
LINE
  8
型材断面
  6
CONTINUOUS
 10
27.95356
 20
41.960495
 11
45.135105
 21
41.960495
  0
LINE
  8
型材断面
  6
CONTINUOUS
 10
-105.18632
 20
44.460495
 11
47.635105
 21
44.460495
  0
LINE
  8
型材断面
  6
CONTINUOUS
 10
27.95356
 20
23.66757
 11
45.135105
 21
23.66757
  0
LINE
  8
型材断面
  6
CONTINUOUS
 10
-105.18632
 20
21.16757
 11
47.635105
 21
21.16757
  0
TEXT
  7
TextStyle03
  8
文字
  6
CONTINUOUS
 10
-141.8
 20
84.95
  1
は排水穴位置を示す
 40
3.0
 72
     5
 11
-111.8
 21
84.95
  0
TEXT
  7
TextStyle03
  8
文字
  6
CONTINUOUS
 10
58.025
 20
104.525
  1
ＮＳコード：ＮＳＦＫＺ
 40
5.0
 72
     5
 11
119.275
 21
104.525
  0
TEXT
  7
TextStyle03
  8
文字
  6
CONTINUOUS
 10
122.775
 20
-76.7
  1
網入り6.8t
 40
3.0
 72
     5
 11
139.4625
 21
-76.7
  0
TEXT
  7
TextStyle03
  8
文字
  6
CONTINUOUS
 10
129.45
 20
-81.375
  1
×４枚
 40
3.0
 72
     5
 11
139.2
 21
-81.375
  0
TEXT
  7
TextStyle03
  8
文字
  6
CONTINUOUS
 10
-124.85
 20
11.275
  1
アンカーピッチ
 40
3.0
 50
90.0
 72
     5
 11
-124.85
 21
34.525
  0
TEXT
  7
TextStyle03
  8
文字
  6
CONTINUOUS
 10
-88.825
 20
79.9
  1
アンカーピッチ
 40
3.0
 72
     5
 11
-65.575
 21
79.9
  0
TEXT
  7
TextStyle03
  8
文字
  6
CONTINUOUS
 10
-145.525
 20
78.25
  1
アンカー数量　１６ヶ所
 40
3.0
 72
     5
 11
-108.775
 21
78.25
  0
LINE
  8
文字
  6
CONTINUOUS
 10
113.116045
 20
56.453242
 11
113.116045
 21
47.100085
  0
LINE
  8
文字
  6
CONTINUOUS
 10
116.432712
 20
56.453242
 11
116.432712
 21
47.165438
  0
LINE
  8
文字
  6
CONTINUOUS
 10
59.863602
 20
-68.915715
 11
50.510445
 21
-68.915715
  0
LINE
  8
文字
  6
CONTINUOUS
 10
59.863602
 20
-72.232385
 11
50.575798
 21
-72.232385
  0
LINE
  8
文字
  6
CONTINUOUS
 10
141.310947
 20
-55.24667
 11
141.310947
 21
-62.402923
  0
LINE
  8
文字
  6
CONTINUOUS
 10
104.850948
 20
-55.24667
 11
104.850948
 21
-62.402923
  0
TEXT
  7
TextStyle03
  8
文字
  6
CONTINUOUS
 10
57.875
 20
125.25
  1
シリーズ：ＴＦ２ＦＫＬ
 40
5.0
 72
     5
 11
119.125
 21
125.25
  0
TEXT
  7
TextStyle03
  8
文字
  6
CONTINUOUS
 10
57.875
 20
119.625
  1
　　　　　（固定）600×4500タイプ
 40
5.0
 72
     5
 11
150.0625
 21
119.625
  0
TEXT
  7
TextStyle03
  8
文字
  6
CONTINUOUS
 10
57.875
 20
114.0
  1
図面名　：外観姿図
 40
5.0
 72
     5
 11
107.875
 21
114.0
  0
TEXT
  7
TextStyle03
  8
文字
  6
CONTINUOUS
 10
57.875
 20
108.375
  1
　　　　　　
 40
5.0
 72
     5
 11
91.0
 21
108.375
  0
LINE
  8
文字
  6
CONTINUOUS
 10
27.95356
 20
23.66757
 11
27.95356
 21
21.16757
  0
LINE
  8
文字
  6
CONTINUOUS
 10
27.120225
 20
23.66757
 11
27.120225
 21
21.16757
  0
LINE
  8
文字
  6
CONTINUOUS
 10
-9.54644
 20
23.66757
 11
-9.54644
 21
21.16757
  0
LINE
  8
文字
  6
CONTINUOUS
 10
-10.379775
 20
23.66757
 11
-10.379775
 21
21.16757
  0
LINE
  8
文字
  6
CONTINUOUS
 10
-85.504775
 20
23.66757
 11
-85.504775
 21
21.16757
  0
LINE
  8
文字
  6
CONTINUOUS
 10
-84.67144
 20
23.66757
 11
-84.67144
 21
21.16757
  0
LINE
  8
文字
  6
CONTINUOUS
 10
-48.004775
 20
23.66757
 11
-48.004775
 21
21.16757
  0
LINE
  8
文字
  6
CONTINUOUS
 10
-47.17144
 20
23.66757
 11
-47.17144
 21
21.16757
  0
LINE
  8
文字
  6
CONTINUOUS
 10
27.95356
 20
41.960495
 11
27.95356
 21
44.460495
  0
LINE
  8
文字
  6
CONTINUOUS
 10
27.120225
 20
41.960495
 11
27.120225
 21
44.460495
  0
LINE
  8
文字
  6
CONTINUOUS
 10
-9.54644
 20
41.960495
 11
-9.54644
 21
44.460495
  0
LINE
  8
文字
  6
CONTINUOUS
 10
-10.379775
 20
41.960495
 11
-10.379775
 21
44.460495
  0
LINE
  8
文字
  6
CONTINUOUS
 10
-85.504775
 20
41.960495
 11
-85.504775
 21
44.460495
  0
LINE
  8
文字
  6
CONTINUOUS
 10
-84.67144
 20
41.960495
 11
-84.67144
 21
44.460495
  0
LINE
  8
文字
  6
CONTINUOUS
 10
-48.004775
 20
41.960495
 11
-48.004775
 21
44.460495
  0
LINE
  8
文字
  6
CONTINUOUS
 10
-47.17144
 20
41.960495
 11
-47.17144
 21
44.460495
  0
INSERT
  2
*DIM_0002
  8
寸法
  6
CONTINUOUS
 10
0.0
 20
0.0
  0
INSERT
  2
*DIM_0003
  8
寸法
  6
CONTINUOUS
 10
0.0
 20
0.0
  0
INSERT
  2
*DIM_0004
  8
寸法
  6
CONTINUOUS
 10
0.0
 20
0.0
  0
INSERT
  2
*DIM_0005
  8
寸法
  6
CONTINUOUS
 10
0.0
 20
0.0
  0
INSERT
  2
*DIM_0006
  8
寸法
  6
CONTINUOUS
 10
0.0
 20
0.0
  0
INSERT
  2
*DIM_0007
  8
寸法
  6
CONTINUOUS
 10
0.0
 20
0.0
  0
INSERT
  2
*DIM_0008
  8
寸法
  6
CONTINUOUS
 10
0.0
 20
0.0
  0
INSERT
  2
*DIM_0009
  8
寸法
  6
CONTINUOUS
 10
0.0
 20
0.0
  0
INSERT
  2
*DIM_0010
  8
寸法
  6
CONTINUOUS
 10
0.0
 20
0.0
  0
INSERT
  2
*DIM_0011
  8
寸法
  6
CONTINUOUS
 10
0.0
 20
0.0
  0
INSERT
  2
*DIM_0012
  8
寸法
  6
CONTINUOUS
 10
0.0
 20
0.0
  0
INSERT
  2
*DIM_0013
  8
寸法
  6
CONTINUOUS
 10
0.0
 20
0.0
  0
INSERT
  2
*DIM_0014
  8
寸法
  6
CONTINUOUS
 10
0.0
 20
0.0
  0
INSERT
  2
*DIM_0015
  8
寸法
  6
CONTINUOUS
 10
0.0
 20
0.0
  0
INSERT
  2
*DIM_0016
  8
寸法
  6
CONTINUOUS
 10
0.0
 20
0.0
  0
LINE
  8
別途部材
  6
CONTINUOUS
 62
    47
 10
113.216045
 20
21.167572
 11
113.282712
 21
21.167572
  0
ARC
  8
別途部材
  6
CONTINUOUS
 62
    47
 10
113.216044
 20
21.267571
 40
0.1
 50
180.0
 51
270.0
  0
LINE
  8
別途部材
  6
CONTINUOUS
 62
    47
 10
113.116045
 20
21.267572
 11
113.116045
 21
21.324093
  0
LINE
  8
別途部材
  6
CONTINUOUS
 62
    47
 10
114.782712
 20
21.324093
 11
113.282712
 21
21.324093
  0
LINE
  8
別途部材
  6
CONTINUOUS
 62
    47
 10
113.216045
 20
44.460495
 11
113.282712
 21
44.460495
  0
ARC
  8
別途部材
  6
CONTINUOUS
 62
    47
 10
113.216044
 20
44.360495
 40
0.1
 50
90.0
 51
180.0
  0
LINE
  8
別途部材
  6
CONTINUOUS
 62
    47
 10
113.116045
 20
44.360495
 11
113.116045
 21
44.303973
  0
LINE
  8
別途部材
  6
CONTINUOUS
 62
    47
 10
114.782712
 20
44.303973
 11
113.282712
 21
44.303973
  0
LINE
  8
別途部材
  6
CONTINUOUS
 62
    47
 10
-105.422067
 20
-69.015715
 11
-105.422067
 21
-69.082383
  0
ARC
  8
別途部材
  6
CONTINUOUS
 62
    47
 10
-105.32207
 20
-69.015712
 40
0.1
 50
90.0
 51
180.0
  0
LINE
  8
別途部材
  6
CONTINUOUS
 62
    47
 10
-105.322067
 20
-68.915715
 11
-105.265547
 21
-68.915715
  0
LINE
  8
別途部材
  6
CONTINUOUS
 62
    47
 10
-105.265547
 20
-70.582383
 11
-105.265547
 21
-69.082383
  0
LINE
  8
別途部材
  6
CONTINUOUS
 62
    47
 10
47.870855
 20
-69.015715
 11
47.870855
 21
-69.082383
  0
ARC
  8
別途部材
  6
CONTINUOUS
 62
    47
 10
47.770854
 20
-69.015712
 40
0.1
 50
0.0
 51
90.0
  0
LINE
  8
別途部材
  6
CONTINUOUS
 62
    47
 10
47.770855
 20
-68.915715
 11
47.714332
 21
-68.915715
  0
LINE
  8
別途部材
  6
CONTINUOUS
 62
    47
 10
47.714332
 20
-70.582383
 11
47.714332
 21
-69.082383
  0
LINE
  8
曲げ物
  6
CONTINUOUS
 10
30.950122
 20
34.739582
 11
27.25481
 21
31.04427
  0
LINE
  8
曲げ物
  6
CONTINUOUS
 10
30.246652
 20
33.203472
 11
28.790922
 21
31.747742
  0
LINE
  8
曲げ物
  6
CONTINUOUS
 10
29.414012
 20
34.036112
 11
27.958282
 21
32.580383
  0
LINE
  8
曲げ物
  6
CONTINUOUS
 10
-8.134045
 20
34.739582
 11
-11.829357
 21
31.04427
  0
LINE
  8
曲げ物
  6
CONTINUOUS
 10
-8.837515
 20
33.203472
 11
-10.293245
 21
31.747742
  0
LINE
  8
曲げ物
  6
CONTINUOUS
 10
-9.670155
 20
34.036112
 11
-11.125885
 21
32.580383
  0
LINE
  8
曲げ物
  6
CONTINUOUS
 10
-45.385845
 20
34.739582
 11
-49.081157
 21
31.04427
  0
LINE
  8
曲げ物
  6
CONTINUOUS
 10
-46.089315
 20
33.203472
 11
-47.545045
 21
31.747742
  0
LINE
  8
曲げ物
  6
CONTINUOUS
 10
-46.921955
 20
34.036112
 11
-48.377685
 21
32.580383
  0
LINE
  8
曲げ物
  6
CONTINUOUS
 10
-82.597012
 20
34.739582
 11
-86.292325
 21
31.04427
  0
LINE
  8
曲げ物
  6
CONTINUOUS
 10
-83.300483
 20
33.203472
 11
-84.756213
 21
31.747742
  0
LINE
  8
曲げ物
  6
CONTINUOUS
 10
-84.133122
 20
34.036112
 11
-85.588853
 21
32.580383
  0
LINE
  8
曲げ物
  6
CONTINUOUS
 10
141.310947
 20
-83.118728
 11
141.310947
 21
-63.785395
  0
LINE
  8
曲げ物
  6
CONTINUOUS
 10
104.850948
 20
-83.118728
 11
104.850948
 21
-63.785395
  0
LINE
  8
曲げ物
  6
CONTINUOUS
 10
141.310947
 20
-63.785395
 11
104.850948
 21
-63.785395
  0
LINE
  8
曲げ物
  6
CONTINUOUS
 10
141.310947
 20
-83.118728
 11
104.850948
 21
-83.118728
  0
CIRCLE
  8
LAYER010
  6
CONTINUOUS
 62
    47
 10
115.932715
 20
19.814042
 40
0.011113
  0
CIRCLE
  8
LAYER010
  6
CONTINUOUS
 62
    47
 10
115.932715
 20
45.814025
 40
0.011113
  0
CIRCLE
  8
LAYER010
  6
CONTINUOUS
 62
    47
 10
-106.775598
 20
-71.732385
 40
0.011113
  0
CIRCLE
  8
LAYER010
  6
CONTINUOUS
 62
    47
 10
49.224385
 20
-71.732385
 40
0.011113
  0
ENDSEC
  0
EOF
