  0
SECTION
  2
HEADER
  9
$EXTMIN
 10
-210.0
 20
-148.5
  9
$EXTMAX
 10
210.0
 20
148.5
  9
$PDMODE
 70
    32
  9
$PDSIZE
 40
1.5
  9
$LTSCALE
 40
10.0
  0
ENDSEC
  0
SECTION
  2
TABLES
  0
TABLE
  2
LTYPE
 70
    15
  0
LTYPE
  2
CONTINUOUS
 70
    64
  3
実線
 72
    65
 73
     0
 40
0.0
  0
LTYPE
  2
DASHED
 70
    64
  3
破線A
 72
    65
 73
     2
 40
0.6
 49
0.4
 49
-0.2
  0
LTYPE
  2
DASHEDX2
 70
    64
  3
破線B
 72
    65
 73
     2
 40
1.3
 49
0.9
 49
-0.4
  0
LTYPE
  2
DASHDOT
 70
    64
  3
１点鎖線A
 72
    65
 73
     4
 40
0.5375
 49
0.375
 49
-0.05
 49
0.0625
 49
-0.05
  0
LTYPE
  2
DASHDOTX2
 70
    64
  3
１点鎖線B
 72
    65
 73
     4
 40
1.075
 49
0.75
 49
-0.1
 49
0.125
 49
-0.1
  0
LTYPE
  2
DIVIDE2
 70
    64
  3
２点鎖線A
 72
    65
 73
     6
 40
0.5125
 49
0.3
 49
-0.0375
 49
0.05
 49
-0.0375
 49
0.05
 49
-0.0375
  0
LTYPE
  2
DIVIDE
 70
    64
  3
２点鎖線B
 72
    65
 73
     6
 40
1.05
 49
0.55
 49
-0.1
 49
0.1
 49
-0.1
 49
0.1
 49
-0.1
  0
LTYPE
  2
DOT
 70
    64
  3
点線A
 72
    65
 73
     2
 40
0.1125
 49
0.0625
 49
-0.05
  0
LTYPE
  2
DOTX2
 70
    64
  3
点線B
 72
    65
 73
     2
 40
0.275
 49
0.15
 49
-0.125
  0
LTYPE
  2
CONTINUOUS
 70
    64
  3
実線
 72
    65
 73
     0
 40
0.0
  0
LTYPE
  2
CONTINUOUS
 70
    64
  3
実線
 72
    65
 73
     0
 40
0.0
  0
LTYPE
  2
CONTINUOUS
 70
    64
  3
実線
 72
    65
 73
     0
 40
0.0
  0
LTYPE
  2
CONTINUOUS
 70
    64
  3
実線
 72
    65
 73
     0
 40
0.0
  0
LTYPE
  2
CONTINUOUS
 70
    64
  3
実線
 72
    65
 73
     0
 40
0.0
  0
LTYPE
  2
CONTINUOUS
 70
    64
  3
実線
 72
    65
 73
     0
 40
0.0
  0
ENDTAB
  0
TABLE
  2
LAYER
 70
    35
  0
LAYER
  2
通り芯
 70
     0
 62
    15
  6
CONTINUOUS
  0
LAYER
  2
補助線
 70
     0
 62
    16
  6
DOT
  0
LAYER
  2
躯体
 70
     0
 62
    31
  6
CONTINUOUS
  0
LAYER
  2
型材
 70
     0
 62
    32
  6
CONTINUOUS
  0
LAYER
  2
型材断面
 70
     0
 62
    47
  6
CONTINUOUS
  0
LAYER
  2
ガラス
 70
     0
 62
    48
  6
CONTINUOUS
  0
LAYER
  2
ゴム等
 70
     0
 62
    63
  6
CONTINUOUS
  0
LAYER
  2
ボルト／ビス
 70
     0
 62
    64
  6
CONTINUOUS
  0
LAYER
  2
文字
 70
     0
 62
    79
  6
CONTINUOUS
  0
LAYER
  2
寸法
 70
     0
 62
    80
  6
CONTINUOUS
  0
LAYER
  2
ﾊｯﾁﾝｸﾞ
 70
     0
 62
    95
  6
CONTINUOUS
  0
LAYER
  2
別途部材
 70
     0
 62
    96
  6
CONTINUOUS
  0
LAYER
  2
曲げ物
 70
     0
 62
   111
  6
CONTINUOUS
  0
LAYER
  2
鉄骨等
 70
     0
 62
   112
  6
CONTINUOUS
  0
LAYER
  2
St
 70
     0
 62
   127
  6
CONTINUOUS
  0
LAYER
  2
その他部品等
 70
     0
 62
   128
  6
CONTINUOUS
  0
LAYER
  2
ｶﾞｽｹｯﾄ
 70
     0
 62
   143
  6
CONTINUOUS
  0
LAYER
  2
ｽｹｯﾁ
 70
     0
 62
    14
  6
CONTINUOUS
  0
LAYER
  2
0
 70
     0
 62
    17
  6
CONTINUOUS
  0
LAYER
  2
1
 70
     0
 62
    30
  6
CONTINUOUS
  0
LAYER
  2
4
 70
     0
 62
    33
  6
CONTINUOUS
  0
LAYER
  2
ﾚｲﾔ3
 70
     0
 62
    46
  6
CONTINUOUS
  0
LAYER
  2
外形線
 70
     0
 62
    49
  6
CONTINUOUS
  0
LAYER
  2
部品
 70
     0
 62
    14
  6
CONTINUOUS
  0
LAYER
  2
サッシ芯
 70
     0
 62
    17
  6
DASHDOTX2
  0
LAYER
  2
寸法線
 70
     0
 62
    62
  6
CONTINUOUS
  0
LAYER
  2
姿図外形線
 70
     0
 62
    65
  6
CONTINUOUS
  0
LAYER
  2
姿補助線
 70
     0
 62
    30
  6
CONTINUOUS
  0
LAYER
  2
透視線
 70
     0
 62
    78
  6
DOT
  0
LAYER
  2
用紙
 70
     0
 62
    81
  6
CONTINUOUS
  0
LAYER
  2
実線図枠
 70
     0
 62
    94
  6
CONTINUOUS
  0
LAYER
  2
補助図枠
 70
     0
 62
    97
  6
CONTINUOUS
  0
LAYER
  2
建具記号
 70
     0
 62
   110
  6
CONTINUOUS
  0
LAYER
  2
補助文字
 70
     0
 62
   113
  6
CONTINUOUS
  0
LAYER
  2
LAYER010
 70
     0
 62
    11
  6
CONTINUOUS
  0
ENDTAB
  0
TABLE
  2
STYLE
 70
    10
  0
STYLE
  2
STANDARD
 70
     0
 40
1.0
 41
1.0
 42
1.0
 50
0.0
 71
     0
  3
TXT
  4
BIGFONT
  0
STYLE
  2
TATE
 70
     4
 40
1.0
 41
1.0
 42
1.0
 50
0.0
 71
     0
  3
TXT
  4
BIGFONT
  0
STYLE
  2
TextStyle03
 70
     0
 40
1.0
 41
1.0
 42
1.0
 50
0.0
 71
     0
  3
MONOTXT
  4
BIGFONT
  0
STYLE
  2
TextStyle04
 70
     0
 40
1.0
 41
1.0
 42
1.0
 50
0.0
 71
     0
  3
MONOTXT
  4
BIGFONT
  0
STYLE
  2
TextStyle05
 70
     0
 40
1.0
 41
1.0
 42
1.0
 50
0.0
 71
     0
  3
MONOTXT
  4
BIGFONT
  0
STYLE
  2
TextStyle06
 70
     0
 40
1.0
 41
1.0
 42
1.0
 50
0.0
 71
     0
  3
MONOTXT
  4
BIGFONT
  0
STYLE
  2
TextStyle07
 70
     0
 40
1.0
 41
1.0
 42
1.0
 50
0.0
 71
     0
  3
MONOTXT
  4
BIGFONT
  0
STYLE
  2
TextStyle08
 70
     0
 40
1.0
 41
1.0
 42
1.0
 50
0.0
 71
     0
  3
MONOTXT
  4
BIGFONT
  0
STYLE
  2
TextStyle09
 70
     0
 40
1.0
 41
1.0
 42
1.0
 50
0.0
 71
     0
  3
MONOTXT
  4
BIGFONT
  0
STYLE
  2
TextStyle10
 70
     0
 40
1.0
 41
1.0
 42
1.0
 50
0.0
 71
     0
  3
MONOTXT
  4
BIGFONT
  0
ENDTAB
  0
ENDSEC
  0
SECTION
  2
BLOCKS
  0
BLOCK
  2
*GRP_0001
 70
    65
 10
0.0
 20
0.0
  0
LINE
  8
型材断面
  6
CONTINUOUS
 10
195.0
 20
133.5
 11
195.0
 21
-133.5
  0
LINE
  8
型材断面
  6
CONTINUOUS
 10
195.0
 20
-133.5
 11
-185.0
 21
-133.5
  0
LINE
  8
型材断面
  6
CONTINUOUS
 10
-185.0
 20
-133.5
 11
-185.0
 21
133.5
  0
LINE
  8
型材断面
  6
CONTINUOUS
 10
195.0
 20
133.5
 11
-185.0
 21
133.5
  0
LINE
  8
型材断面
  6
CONTINUOUS
 10
145.0
 20
-133.5
 11
145.0
 21
-118.5
  0
LINE
  8
型材断面
  6
CONTINUOUS
 10
195.0
 20
-118.5
 11
145.0
 21
-118.5
  0
ENDBLK
  0
BLOCK
  2
*DIM_0002
 70
    65
 10
0.0
 20
0.0
  0
LINE
  8
寸法
  6
BYBLOCK
 62
     0
 10
-117.243808
 20
-16.511205
 11
-117.243808
 21
-13.121378
  0
LINE
  8
寸法
  6
BYBLOCK
 62
     0
 10
66.089525
 20
-13.121378
 11
-117.243808
 21
-13.121378
  0
POINT
  8
寸法
 62
     0
 10
66.089525
 20
-13.121378
  0
POINT
  8
寸法
 62
     0
 10
-117.243808
 20
-13.121378
  0
TEXT
  7
TextStyle03
  8
寸法
  6
CONTINUOUS
 62
     0
 10
-37.31875
 20
-12.75
  1
呼称寸法　5500
 40
3.0
 72
     5
 11
-13.88125
 21
-12.75
  0
ENDBLK
  0
BLOCK
  2
*DIM_0003
 70
    65
 10
0.0
 20
0.0
  0
LINE
  8
寸法
  6
BYBLOCK
 62
     0
 10
-100.57714
 20
19.183902
 11
-100.57714
 21
13.885527
  0
LINE
  8
寸法
  6
BYBLOCK
 62
     0
 10
-25.577142
 20
19.183905
 11
-25.577142
 21
13.885527
  0
LINE
  8
寸法
  6
BYBLOCK
 62
     0
 10
-100.57714
 20
13.885527
 11
-25.577142
 21
13.885527
  0
POINT
  8
寸法
 62
     0
 10
-100.57714
 20
13.885527
  0
POINT
  8
寸法
 62
     0
 10
-25.577142
 20
13.885527
  0
TEXT
  7
TextStyle03
  8
寸法
  6
CONTINUOUS
 62
     0
 10
-66.38125
 20
14.25
  1
2250
 40
3.0
 72
     5
 11
-59.81875
 21
14.25
  0
ENDBLK
  0
BLOCK
  2
*DIM_0004
 70
    65
 10
0.0
 20
0.0
  0
LINE
  8
寸法
  6
BYBLOCK
 62
     0
 10
49.422855
 20
19.183902
 11
49.422855
 21
13.885527
  0
LINE
  8
寸法
  6
BYBLOCK
 62
     0
 10
-25.577142
 20
13.885527
 11
49.422855
 21
13.885527
  0
POINT
  8
寸法
 62
     0
 10
49.422855
 20
13.885527
  0
TEXT
  7
TextStyle03
  8
寸法
  6
CONTINUOUS
 62
     0
 10
8.61875
 20
14.25
  1
2250
 40
3.0
 72
     5
 11
15.18125
 21
14.25
  0
ENDBLK
  0
BLOCK
  2
*DIM_0005
 70
    65
 10
0.0
 20
0.0
  0
LINE
  8
寸法
  6
BYBLOCK
 62
     0
 10
69.089573
 20
-69.576397
 11
69.089573
 21
-13.121378
  0
LINE
  8
寸法
  6
BYBLOCK
 62
     0
 10
66.089525
 20
-13.121378
 11
69.089573
 21
-13.121378
  0
POINT
  8
寸法
 62
     0
 10
66.089525
 20
-13.121378
  0
POINT
  8
寸法
 62
     0
 10
69.089573
 20
-13.121378
  0
TEXT
  7
TextStyle03
  8
寸法
  6
CONTINUOUS
 62
     0
 10
65.95625
 20
-12.75
  1
90
 40
3.0
 72
     5
 11
69.14375
 21
-12.75
  0
ENDBLK
  0
BLOCK
  2
*DIM_0006
 70
    65
 10
0.0
 20
0.0
  0
LINE
  8
寸法
  6
BYBLOCK
 62
     0
 10
-120.243858
 20
-69.576397
 11
-120.243858
 21
-13.121378
  0
LINE
  8
寸法
  6
BYBLOCK
 62
     0
 10
-117.24381
 20
-13.121378
 11
-120.243858
 21
-13.121378
  0
POINT
  8
寸法
 62
     0
 10
-117.24381
 20
-13.121378
  0
POINT
  8
寸法
 62
     0
 10
-120.243858
 20
-13.121378
  0
TEXT
  7
TextStyle03
  8
寸法
  6
CONTINUOUS
 62
     0
 10
-120.34375
 20
-12.75
  1
90
 40
3.0
 72
     5
 11
-117.15625
 21
-12.75
  0
ENDBLK
  0
BLOCK
  2
*DIM_0007
 70
    65
 10
0.0
 20
0.0
  0
LINE
  8
寸法
  6
BYBLOCK
 62
     0
 10
162.17608
 20
-63.785395
 11
170.28761
 21
-63.785395
  0
LINE
  8
寸法
  6
BYBLOCK
 62
     0
 10
162.17608
 20
-83.118728
 11
170.28761
 21
-83.118728
  0
LINE
  8
寸法
  6
BYBLOCK
 62
     0
 10
170.28761
 20
-63.785395
 11
170.28761
 21
-83.118728
  0
POINT
  8
寸法
 62
     0
 10
170.28761
 20
-63.785395
  0
POINT
  8
寸法
 62
     0
 10
170.28761
 20
-83.118728
  0
TEXT
  7
TextStyle03
  8
寸法
  6
CONTINUOUS
 62
     0
 10
169.875
 20
-75.9125
  1
580
 40
3.0
 50
90.0
 72
     5
 11
169.875
 21
-71.0375
  0
ENDBLK
  0
BLOCK
  2
*DIM_0008
 70
    65
 10
0.0
 20
0.0
  0
LINE
  8
寸法
  6
BYBLOCK
 62
     0
 10
-120.243808
 20
39.4807
 11
-133.536645
 21
39.4807
  0
LINE
  8
寸法
  6
BYBLOCK
 62
     0
 10
-120.243808
 20
26.147365
 11
-133.536645
 21
26.147365
  0
LINE
  8
寸法
  6
BYBLOCK
 62
     0
 10
-133.536645
 20
39.4807
 11
-133.536645
 21
26.147365
  0
POINT
  8
寸法
 62
     0
 10
-133.536645
 20
39.4807
  0
POINT
  8
寸法
 62
     0
 10
-133.536645
 20
26.147365
  0
TEXT
  7
TextStyle03
  8
寸法
  6
CONTINUOUS
 62
     0
 10
-133.975
 20
30.3625
  1
400
 40
3.0
 50
90.0
 72
     5
 11
-133.975
 21
35.2375
  0
ENDBLK
  0
BLOCK
  2
*DIM_0009
 70
    65
 10
0.0
 20
0.0
  0
LINE
  8
寸法
  6
BYBLOCK
 62
     0
 10
-105.577142
 20
45.814033
 11
-105.577142
 21
74.922105
  0
LINE
  8
寸法
  6
BYBLOCK
 62
     0
 10
-78.910475
 20
45.814033
 11
-78.910475
 21
74.922105
  0
LINE
  8
寸法
  6
BYBLOCK
 62
     0
 10
-105.577142
 20
74.922105
 11
-78.910475
 21
74.922105
  0
POINT
  8
寸法
 62
     0
 10
-105.577142
 20
74.922105
  0
POINT
  8
寸法
 62
     0
 10
-78.910475
 20
74.922105
  0
TEXT
  7
TextStyle03
  8
寸法
  6
CONTINUOUS
 62
     0
 10
-94.6875
 20
75.3
  1
800
 40
3.0
 72
     5
 11
-89.8125
 21
75.3
  0
ENDBLK
  0
BLOCK
  2
*DIM_0010
 70
    65
 10
0.0
 20
0.0
  0
LINE
  8
寸法
  6
BYBLOCK
 62
     0
 10
-52.24381
 20
45.814033
 11
-52.24381
 21
74.922105
  0
LINE
  8
寸法
  6
BYBLOCK
 62
     0
 10
-78.910475
 20
74.922105
 11
-52.24381
 21
74.922105
  0
POINT
  8
寸法
 62
     0
 10
-52.24381
 20
74.922105
  0
TEXT
  7
TextStyle03
  8
寸法
  6
CONTINUOUS
 62
     0
 10
-68.0125
 20
75.3
  1
800
 40
3.0
 72
     5
 11
-63.1375
 21
75.3
  0
ENDBLK
  0
BLOCK
  2
*DIM_0011
 70
    65
 10
0.0
 20
0.0
  0
LINE
  8
寸法
  6
BYBLOCK
 62
     0
 10
-25.577142
 20
45.814033
 11
-25.577142
 21
74.922105
  0
LINE
  8
寸法
  6
BYBLOCK
 62
     0
 10
-52.24381
 20
74.922105
 11
-25.577142
 21
74.922105
  0
POINT
  8
寸法
 62
     0
 10
-25.577142
 20
74.922105
  0
TEXT
  7
TextStyle03
  8
寸法
  6
CONTINUOUS
 62
     0
 10
-41.3375
 20
75.3
  1
800
 40
3.0
 72
     5
 11
-36.4625
 21
75.3
  0
ENDBLK
  0
BLOCK
  2
*DIM_0012
 70
    65
 10
0.0
 20
0.0
  0
LINE
  8
寸法
  6
BYBLOCK
 62
     0
 10
1.089525
 20
45.814033
 11
1.089525
 21
74.922105
  0
LINE
  8
寸法
  6
BYBLOCK
 62
     0
 10
-25.577142
 20
74.922105
 11
1.089525
 21
74.922105
  0
POINT
  8
寸法
 62
     0
 10
1.089525
 20
74.922105
  0
TEXT
  7
TextStyle03
  8
寸法
  6
CONTINUOUS
 62
     0
 10
-14.6875
 20
75.3
  1
800
 40
3.0
 72
     5
 11
-9.8125
 21
75.3
  0
ENDBLK
  0
BLOCK
  2
*DIM_0013
 70
    65
 10
0.0
 20
0.0
  0
LINE
  8
寸法
  6
BYBLOCK
 62
     0
 10
27.75619
 20
45.814033
 11
27.75619
 21
74.922105
  0
LINE
  8
寸法
  6
BYBLOCK
 62
     0
 10
1.089525
 20
74.922105
 11
27.75619
 21
74.922105
  0
POINT
  8
寸法
 62
     0
 10
27.75619
 20
74.922105
  0
TEXT
  7
TextStyle03
  8
寸法
  6
CONTINUOUS
 62
     0
 10
11.9875
 20
75.3
  1
800
 40
3.0
 72
     5
 11
16.8625
 21
75.3
  0
ENDBLK
  0
BLOCK
  2
*DIM_0014
 70
    65
 10
0.0
 20
0.0
  0
LINE
  8
寸法
  6
BYBLOCK
 62
     0
 10
54.422857
 20
45.814033
 11
54.422857
 21
74.922105
  0
LINE
  8
寸法
  6
BYBLOCK
 62
     0
 10
27.75619
 20
74.922105
 11
54.422857
 21
74.922105
  0
POINT
  8
寸法
 62
     0
 10
54.422857
 20
74.922105
  0
TEXT
  7
TextStyle03
  8
寸法
  6
CONTINUOUS
 62
     0
 10
38.6625
 20
75.3
  1
800
 40
3.0
 72
     5
 11
43.5375
 21
75.3
  0
ENDBLK
  0
BLOCK
  2
*DIM_0015
 70
    65
 10
0.0
 20
0.0
  0
LINE
  8
寸法
  6
CONTINUOUS
 10
132.981178
 20
56.453242
 11
136.297845
 21
56.453242
  0
POINT
  8
寸法
 10
132.981178
 20
56.453242
  0
POINT
  8
寸法
 10
136.297845
 20
56.453242
  0
TEXT
  7
TextStyle03
  8
寸法
  6
CONTINUOUS
 10
131.19375
 20
56.625
  1
99.5
 40
3.0
 72
     5
 11
137.75625
 21
56.625
  0
ENDBLK
  0
BLOCK
  2
*DIM_0016
 70
    65
 10
0.0
 20
0.0
  0
LINE
  8
寸法
  6
CONTINUOUS
 10
79.728735
 20
-68.098798
 11
79.728735
 21
-71.415465
  0
POINT
  8
寸法
 10
79.728735
 20
-68.098798
  0
POINT
  8
寸法
 10
79.728735
 20
-71.415465
  0
TEXT
  7
TextStyle03
  8
寸法
  6
CONTINUOUS
 10
82.875
 20
-72.95625
  1
99.5
 40
3.0
 50
90.0
 72
     5
 11
82.875
 21
-66.39375
  0
ENDBLK
  0
BLOCK
  2
*DIM_0017
 70
    65
 10
0.0
 20
0.0
  0
LINE
  8
寸法
  6
CONTINUOUS
 10
161.17608
 20
-55.307463
 11
125.57608
 21
-55.307463
  0
POINT
  8
寸法
 10
161.17608
 20
-55.307463
  0
POINT
  8
寸法
 10
125.57608
 20
-55.307463
  0
TEXT
  7
TextStyle03
  8
寸法
  6
CONTINUOUS
 10
140.09375
 20
-54.95
  1
1068
 40
3.0
 72
     5
 11
146.65625
 21
-54.95
  0
ENDBLK
  0
ENDSEC
  0
SECTION
  2
ENTITIES
  0
POLYLINE
  8
通り芯
  6
CONTINUOUS
 66
     1
 70
     1
  0
VERTEX
  8
通り芯
 10
-210.0
 20
-148.5
  0
VERTEX
  8
通り芯
 10
210.0
 20
-148.5
  0
VERTEX
  8
通り芯
 10
210.0
 20
148.5
  0
VERTEX
  8
通り芯
 10
-210.0
 20
148.5
  0
SEQEND
  0
INSERT
  2
*GRP_0001
  8
型材断面
  6
CONTINUOUS
 10
0.0
 20
0.0
  0
LINE
  8
型材断面
  6
DASHDOT
 10
66.089525
 20
-77.836442
 11
66.089525
 21
42.814033
  0
LINE
  8
型材断面
  6
DASHDOT
 10
-25.577142
 20
-77.836442
 11
-25.577142
 21
42.814033
  0
LINE
  8
型材断面
  6
DASHDOT
 10
-117.243808
 20
-77.836442
 11
-117.243808
 21
42.814033
  0
LINE
  8
型材断面
  6
CONTINUOUS
 10
-100.57714
 20
45.444162
 11
-102.07277
 21
48.03467
  0
LINE
  8
型材断面
  6
CONTINUOUS
 10
-100.57714
 20
45.444162
 11
-99.08151
 21
48.03467
  0
LINE
  8
型材断面
  6
CONTINUOUS
 10
-99.08151
 20
48.03467
 11
-102.07277
 21
48.03467
  0
LINE
  8
型材断面
  6
CONTINUOUS
 10
-158.096015
 20
87.32138
 11
-159.591645
 21
84.730873
  0
LINE
  8
型材断面
  6
CONTINUOUS
 10
-158.096015
 20
87.32138
 11
-156.600385
 21
84.730873
  0
LINE
  8
型材断面
  6
CONTINUOUS
 10
-156.600385
 20
84.730873
 11
-159.591645
 21
84.730873
  0
LINE
  8
型材断面
  6
CONTINUOUS
 10
-164.118603
 20
83.792277
 11
-117.876825
 21
83.792277
  0
LINE
  8
型材断面
  6
CONTINUOUS
 10
-119.873938
 20
32.814033
 11
-122.464445
 21
34.309663
  0
LINE
  8
型材断面
  6
CONTINUOUS
 10
-119.873938
 20
32.814033
 11
-122.464445
 21
31.318403
  0
LINE
  8
型材断面
  6
CONTINUOUS
 10
-122.464445
 20
31.318403
 11
-122.464445
 21
34.309663
  0
LINE
  8
型材断面
  6
CONTINUOUS
 10
-100.57714
 20
20.183902
 11
-102.07277
 21
17.593395
  0
LINE
  8
型材断面
  6
CONTINUOUS
 10
-100.57714
 20
20.183902
 11
-99.08151
 21
17.593395
  0
LINE
  8
型材断面
  6
CONTINUOUS
 10
-99.08151
 20
17.593395
 11
-102.07277
 21
17.593395
  0
LINE
  8
型材断面
  6
CONTINUOUS
 10
49.422855
 20
45.444162
 11
50.918485
 21
48.03467
  0
LINE
  8
型材断面
  6
CONTINUOUS
 10
49.422855
 20
45.444162
 11
47.927225
 21
48.03467
  0
LINE
  8
型材断面
  6
CONTINUOUS
 10
47.927225
 20
48.03467
 11
50.918485
 21
48.03467
  0
LINE
  8
型材断面
  6
CONTINUOUS
 10
49.422855
 20
20.183902
 11
50.918485
 21
17.593395
  0
LINE
  8
型材断面
  6
CONTINUOUS
 10
49.422855
 20
20.183902
 11
47.927225
 21
17.593395
  0
LINE
  8
型材断面
  6
CONTINUOUS
 10
47.927225
 20
17.593395
 11
50.918485
 21
17.593395
  0
LINE
  8
型材断面
  6
CONTINUOUS
 10
-25.577142
 20
45.44416
 11
-27.072772
 21
48.034668
  0
LINE
  8
型材断面
  6
CONTINUOUS
 10
-25.577142
 20
45.44416
 11
-24.081513
 21
48.034668
  0
LINE
  8
型材断面
  6
CONTINUOUS
 10
-24.081513
 20
48.034668
 11
-27.072772
 21
48.034668
  0
LINE
  8
型材断面
  6
CONTINUOUS
 10
-25.577142
 20
20.1839
 11
-27.072772
 21
17.593392
  0
LINE
  8
型材断面
  6
CONTINUOUS
 10
-25.577142
 20
20.1839
 11
-24.081513
 21
17.593392
  0
LINE
  8
型材断面
  6
CONTINUOUS
 10
-24.081513
 20
17.593392
 11
-27.072772
 21
17.593392
  0
LINE
  8
型材断面
  6
CONTINUOUS
 10
68.719652
 20
32.814033
 11
71.31016
 21
34.309663
  0
LINE
  8
型材断面
  6
CONTINUOUS
 10
68.719652
 20
32.814033
 11
71.31016
 21
31.318403
  0
LINE
  8
型材断面
  6
CONTINUOUS
 10
71.31016
 20
31.318403
 11
71.31016
 21
34.309663
  0
LINE
  8
型材断面
  6
CONTINUOUS
 10
-164.118603
 20
77.157948
 11
-117.876825
 21
77.157948
  0
LINE
  8
型材断面
  6
CONTINUOUS
 10
-120.243855
 20
19.81399
 11
-25.577142
 21
19.81399
  0
LINE
  8
型材断面
  6
CONTINUOUS
 10
-120.243855
 20
45.814075
 11
-25.577142
 21
45.814075
  0
LINE
  8
型材断面
  6
CONTINUOUS
 10
69.08957
 20
45.814075
 11
-25.577142
 21
45.814075
  0
LINE
  8
型材断面
  6
CONTINUOUS
 10
69.08957
 20
19.81399
 11
-25.577142
 21
19.81399
  0
LINE
  8
型材断面
  6
CONTINUOUS
 10
136.797845
 20
20.313977
 11
136.797845
 21
32.814033
  0
CIRCLE
  8
型材断面
  6
CONTINUOUS
 62
    47
 10
135.797847
 20
19.814042
 40
0.011113
  0
LINE
  8
型材断面
  6
CONTINUOUS
 62
    47
 10
136.297845
 20
20.314033
 11
136.297845
 21
19.814042
  0
LINE
  8
型材断面
  6
CONTINUOUS
 62
    47
 10
136.297845
 20
19.814042
 11
135.797847
 21
19.814042
  0
LINE
  8
型材断面
  6
CONTINUOUS
 62
    47
 10
135.797847
 20
19.814042
 11
135.300668
 21
22.747372
  0
LINE
  8
型材断面
  6
CONTINUOUS
 62
    47
 10
136.297845
 20
20.314033
 11
136.797845
 21
20.314033
  0
LINE
  8
型材断面
  6
CONTINUOUS
 10
135.300668
 20
22.74732
 11
135.300668
 21
32.814033
  0
LINE
  8
型材断面
  6
CONTINUOUS
 62
    47
 10
134.647845
 20
21.324093
 11
134.647845
 21
32.814033
  0
LINE
  8
型材断面
  6
CONTINUOUS
 62
    47
 10
133.147845
 20
21.167572
 11
133.147845
 21
32.814033
  0
LINE
  8
型材断面
  6
CONTINUOUS
 62
    47
 10
132.981178
 20
21.324093
 11
132.981178
 21
32.814033
  0
LINE
  8
型材断面
  6
CONTINUOUS
 10
135.79785
 20
19.813988
 11
135.79785
 21
32.814033
  0
LINE
  8
型材断面
  6
CONTINUOUS
 62
    47
 10
136.297845
 20
19.813988
 11
136.297845
 21
32.814033
  0
LINE
  8
型材断面
  6
CONTINUOUS
 62
    47
 10
135.300668
 20
22.747372
 11
134.647845
 21
22.747372
  0
LINE
  8
型材断面
  6
CONTINUOUS
 10
136.797845
 20
45.314087
 11
136.797845
 21
32.814033
  0
CIRCLE
  8
型材断面
  6
CONTINUOUS
 62
    47
 10
135.797847
 20
45.814025
 40
0.011113
  0
LINE
  8
型材断面
  6
CONTINUOUS
 62
    47
 10
136.297845
 20
45.314033
 11
136.297845
 21
45.814025
  0
LINE
  8
型材断面
  6
CONTINUOUS
 62
    47
 10
136.297845
 20
45.814025
 11
135.797847
 21
45.814025
  0
LINE
  8
型材断面
  6
CONTINUOUS
 62
    47
 10
135.797847
 20
45.814025
 11
135.300668
 21
42.880693
  0
LINE
  8
型材断面
  6
CONTINUOUS
 62
    47
 10
136.297845
 20
45.314033
 11
136.797845
 21
45.314033
  0
LINE
  8
型材断面
  6
CONTINUOUS
 10
135.300668
 20
42.880747
 11
135.300668
 21
32.814033
  0
LINE
  8
型材断面
  6
CONTINUOUS
 62
    47
 10
134.647845
 20
44.303973
 11
134.647845
 21
32.814033
  0
LINE
  8
型材断面
  6
CONTINUOUS
 62
    47
 10
133.147845
 20
44.460495
 11
133.147845
 21
32.814033
  0
LINE
  8
型材断面
  6
CONTINUOUS
 62
    47
 10
132.981178
 20
44.303973
 11
132.981178
 21
32.814033
  0
LINE
  8
型材断面
  6
CONTINUOUS
 10
135.79785
 20
45.814077
 11
135.79785
 21
32.814033
  0
LINE
  8
型材断面
  6
CONTINUOUS
 62
    47
 10
136.297845
 20
45.814077
 11
136.297845
 21
32.814033
  0
LINE
  8
型材断面
  6
CONTINUOUS
 62
    47
 10
135.300668
 20
42.880693
 11
134.647845
 21
42.880693
  0
CIRCLE
  8
型材断面
  6
CONTINUOUS
 62
    47
 10
-120.2438
 20
-70.915467
 40
0.011113
  0
LINE
  8
型材断面
  6
CONTINUOUS
 62
    47
 10
-119.743808
 20
-71.415465
 11
-120.2438
 21
-71.415465
  0
LINE
  8
型材断面
  6
CONTINUOUS
 62
    47
 10
-120.2438
 20
-71.415465
 11
-120.2438
 21
-70.915467
  0
LINE
  8
型材断面
  6
CONTINUOUS
 62
    47
 10
-120.2438
 20
-70.915467
 11
-117.310467
 21
-70.418288
  0
LINE
  8
型材断面
  6
CONTINUOUS
 62
    47
 10
-119.743808
 20
-71.415465
 11
-119.743808
 21
-71.915465
  0
LINE
  8
型材断面
  6
CONTINUOUS
 62
    47
 10
-117.310467
 20
-70.418288
 11
-117.310467
 21
-69.765465
  0
CIRCLE
  8
型材断面
  6
CONTINUOUS
 62
    47
 10
69.089517
 20
-70.915467
 40
0.011113
  0
LINE
  8
型材断面
  6
CONTINUOUS
 62
    47
 10
68.589525
 20
-71.415465
 11
69.089517
 21
-71.415465
  0
LINE
  8
型材断面
  6
CONTINUOUS
 62
    47
 10
69.089517
 20
-71.415465
 11
69.089517
 21
-70.915467
  0
LINE
  8
型材断面
  6
CONTINUOUS
 62
    47
 10
69.089517
 20
-70.915467
 11
66.156185
 21
-70.418288
  0
LINE
  8
型材断面
  6
CONTINUOUS
 62
    47
 10
68.589525
 20
-71.415465
 11
68.589525
 21
-71.915465
  0
LINE
  8
型材断面
  6
CONTINUOUS
 62
    47
 10
66.156185
 20
-70.418288
 11
66.156185
 21
-69.765465
  0
LINE
  8
型材断面
  6
CONTINUOUS
 10
-120.243852
 20
-70.91547
 11
-25.57714
 21
-70.91547
  0
LINE
  8
型材断面
  6
CONTINUOUS
 10
-117.31052
 20
-70.418288
 11
-25.57714
 21
-70.418288
  0
LINE
  8
型材断面
  6
CONTINUOUS
 62
    47
 10
-118.733748
 20
-68.098798
 11
-25.57714
 21
-68.098798
  0
LINE
  8
型材断面
  6
CONTINUOUS
 62
    47
 10
-118.89027
 20
-68.265465
 11
-25.57714
 21
-68.265465
  0
LINE
  8
型材断面
  6
CONTINUOUS
 62
    47
 10
-118.733748
 20
-69.765465
 11
-25.57714
 21
-69.765465
  0
LINE
  8
型材断面
  6
CONTINUOUS
 62
    47
 10
-120.243852
 20
-71.415465
 11
-25.57714
 21
-71.415465
  0
LINE
  8
型材断面
  6
CONTINUOUS
 10
-119.743862
 20
-71.915465
 11
-25.57714
 21
-71.915465
  0
LINE
  8
型材断面
  6
CONTINUOUS
 10
68.58958
 20
-71.915465
 11
-25.57714
 21
-71.915465
  0
LINE
  8
型材断面
  6
CONTINUOUS
 62
    47
 10
69.08957
 20
-71.415465
 11
-25.57714
 21
-71.415465
  0
LINE
  8
型材断面
  6
CONTINUOUS
 10
69.08957
 20
-70.91547
 11
-25.57714
 21
-70.91547
  0
LINE
  8
型材断面
  6
CONTINUOUS
 62
    47
 10
67.579465
 20
-69.765465
 11
-25.57714
 21
-69.765465
  0
LINE
  8
型材断面
  6
CONTINUOUS
 10
66.15624
 20
-70.418288
 11
-25.57714
 21
-70.418288
  0
LINE
  8
型材断面
  6
CONTINUOUS
 62
    47
 10
67.579465
 20
-68.098798
 11
-25.57714
 21
-68.098798
  0
LINE
  8
型材断面
  6
CONTINUOUS
 62
    47
 10
67.735988
 20
-68.265465
 11
-25.57714
 21
-68.265465
  0
LINE
  8
型材断面
  6
DASHDOT
 10
143.773855
 20
22.814033
 11
-117.243808
 21
22.814033
  0
LINE
  8
型材断面
  6
DASHDOT
 10
143.773855
 20
42.814033
 11
-117.243808
 21
42.814033
  0
LINE
  8
型材断面
  6
DASHDOT
 10
143.773855
 20
32.814033
 11
-117.243808
 21
32.814033
  0
LINE
  8
型材断面
  6
DASHDOT
 10
-80.72714
 20
22.814033
 11
-80.72714
 21
42.814033
  0
LINE
  8
型材断面
  6
DASHDOT
 10
-43.960473
 20
22.814033
 11
-43.960473
 21
42.814033
  0
LINE
  8
型材断面
  6
DASHDOT
 10
29.572855
 20
22.814033
 11
29.572855
 21
42.814033
  0
LINE
  8
型材断面
  6
DASHDOT
 10
-7.193812
 20
22.814033
 11
-7.193812
 21
42.814033
  0
LINE
  8
型材断面
  6
CONTINUOUS
 10
11.60619
 20
41.960492
 11
47.414523
 21
41.960492
  0
LINE
  8
型材断面
  6
CONTINUOUS
 10
11.60619
 20
23.667572
 11
47.414523
 21
23.667572
  0
LINE
  8
型材断面
  6
CONTINUOUS
 10
-25.160477
 20
23.667572
 11
10.772855
 21
23.667572
  0
LINE
  8
型材断面
  6
CONTINUOUS
 10
-25.160477
 20
41.960492
 11
10.772855
 21
41.960492
  0
LINE
  8
型材断面
  6
CONTINUOUS
 10
-61.92714
 20
41.960492
 11
-25.993812
 21
41.960492
  0
LINE
  8
型材断面
  6
CONTINUOUS
 10
-61.92714
 20
23.667572
 11
-25.993812
 21
23.667572
  0
LINE
  8
型材断面
  6
CONTINUOUS
 10
-98.568808
 20
23.667572
 11
-62.760475
 21
23.667572
  0
LINE
  8
型材断面
  6
CONTINUOUS
 10
-98.568808
 20
41.960492
 11
-62.760475
 21
41.960492
  0
LINE
  8
型材断面
  6
CONTINUOUS
 10
30.822855
 20
24.500905
 11
28.322855
 21
24.500905
  0
LINE
  8
型材断面
  6
CONTINUOUS
 10
30.822855
 20
41.12716
 11
28.322855
 21
41.12716
  0
LINE
  8
型材断面
  6
CONTINUOUS
 10
30.822855
 20
24.500905
 11
30.822855
 21
41.12716
  0
LINE
  8
型材断面
  6
CONTINUOUS
 10
28.322855
 20
24.500905
 11
28.322855
 21
41.12716
  0
LINE
  8
型材断面
  6
CONTINUOUS
 10
-5.943812
 20
24.500905
 11
-8.443812
 21
24.500905
  0
LINE
  8
型材断面
  6
CONTINUOUS
 10
-5.943812
 20
41.12716
 11
-8.443812
 21
41.12716
  0
LINE
  8
型材断面
  6
CONTINUOUS
 10
-5.943812
 20
24.500905
 11
-5.943812
 21
41.12716
  0
LINE
  8
型材断面
  6
CONTINUOUS
 10
-8.443812
 20
24.500905
 11
-8.443812
 21
41.12716
  0
LINE
  8
型材断面
  6
CONTINUOUS
 10
-81.97714
 20
24.500905
 11
-79.47714
 21
24.500905
  0
LINE
  8
型材断面
  6
CONTINUOUS
 10
-81.97714
 20
41.12716
 11
-79.47714
 21
41.12716
  0
LINE
  8
型材断面
  6
CONTINUOUS
 10
-81.97714
 20
24.500905
 11
-81.97714
 21
41.12716
  0
LINE
  8
型材断面
  6
CONTINUOUS
 10
-79.47714
 20
24.500905
 11
-79.47714
 21
41.12716
  0
LINE
  8
型材断面
  6
CONTINUOUS
 10
-45.210473
 20
24.500905
 11
-42.710473
 21
24.500905
  0
LINE
  8
型材断面
  6
CONTINUOUS
 10
-45.210473
 20
41.12716
 11
-42.710473
 21
41.12716
  0
LINE
  8
型材断面
  6
CONTINUOUS
 10
-45.210473
 20
24.500905
 11
-45.210473
 21
41.12716
  0
LINE
  8
型材断面
  6
CONTINUOUS
 10
-42.710473
 20
24.500905
 11
-42.710473
 21
41.12716
  0
LINE
  8
型材断面
  6
CONTINUOUS
 10
69.089573
 20
45.814075
 11
69.089573
 21
32.81403
  0
LINE
  8
型材断面
  6
CONTINUOUS
 10
69.089573
 20
19.81399
 11
69.089573
 21
32.814035
  0
LINE
  8
型材断面
  6
CONTINUOUS
 10
65.235985
 20
32.397365
 11
67.735985
 21
32.397365
  0
LINE
  8
型材断面
  6
CONTINUOUS
 10
65.235985
 20
33.2307
 11
67.735985
 21
33.2307
  0
LINE
  8
型材断面
  6
CONTINUOUS
 10
67.500288
 20
21.16752
 11
67.735988
 21
21.40322
  0
LINE
  8
型材断面
  6
CONTINUOUS
 10
69.089573
 20
19.81399
 11
67.618165
 21
21.285397
  0
LINE
  8
型材断面
  6
CONTINUOUS
 10
65.000288
 20
23.66752
 11
65.235988
 21
23.90322
  0
LINE
  8
型材断面
  6
CONTINUOUS
 10
65.000288
 20
23.66752
 11
67.500237
 21
21.16757
  0
LINE
  8
型材断面
  6
CONTINUOUS
 10
65.235988
 20
23.90322
 11
67.735985
 21
21.403223
  0
LINE
  8
型材断面
  6
CONTINUOUS
 10
65.235985
 20
32.397365
 11
65.235985
 21
23.903218
  0
LINE
  8
型材断面
  6
CONTINUOUS
 10
67.500288
 20
44.460545
 11
67.735988
 21
44.224845
  0
LINE
  8
型材断面
  6
CONTINUOUS
 10
69.089573
 20
45.814075
 11
67.618165
 21
44.342668
  0
LINE
  8
型材断面
  6
CONTINUOUS
 10
65.000288
 20
41.960545
 11
65.235988
 21
41.724845
  0
LINE
  8
型材断面
  6
CONTINUOUS
 10
65.000288
 20
41.960545
 11
67.500237
 21
44.460495
  0
LINE
  8
型材断面
  6
CONTINUOUS
 10
65.235988
 20
41.724845
 11
67.735985
 21
44.224842
  0
LINE
  8
型材断面
  6
CONTINUOUS
 10
67.735985
 20
21.403223
 11
67.735985
 21
44.224842
  0
LINE
  8
型材断面
  6
CONTINUOUS
 10
65.235985
 20
33.2307
 11
65.235985
 21
41.724848
  0
LINE
  8
型材断面
  6
CONTINUOUS
 10
-120.243858
 20
45.814075
 11
-120.243858
 21
32.81403
  0
LINE
  8
型材断面
  6
CONTINUOUS
 10
-120.243858
 20
19.81399
 11
-120.243858
 21
32.814035
  0
LINE
  8
型材断面
  6
CONTINUOUS
 10
-116.39027
 20
32.397365
 11
-118.89027
 21
32.397365
  0
LINE
  8
型材断面
  6
CONTINUOUS
 10
-116.39027
 20
33.2307
 11
-118.89027
 21
33.2307
  0
LINE
  8
型材断面
  6
CONTINUOUS
 10
-118.654573
 20
21.16752
 11
-118.890272
 21
21.40322
  0
LINE
  8
型材断面
  6
CONTINUOUS
 10
-120.243858
 20
19.81399
 11
-118.77245
 21
21.285397
  0
LINE
  8
型材断面
  6
CONTINUOUS
 10
-116.154573
 20
23.66752
 11
-116.390272
 21
23.90322
  0
LINE
  8
型材断面
  6
CONTINUOUS
 10
-116.154573
 20
23.66752
 11
-118.654522
 21
21.16757
  0
LINE
  8
型材断面
  6
CONTINUOUS
 10
-116.390272
 20
23.90322
 11
-118.89027
 21
21.403223
  0
LINE
  8
型材断面
  6
CONTINUOUS
 10
-116.39027
 20
32.397365
 11
-116.39027
 21
23.903218
  0
LINE
  8
型材断面
  6
CONTINUOUS
 10
-118.654573
 20
44.460545
 11
-118.890272
 21
44.224845
  0
LINE
  8
型材断面
  6
CONTINUOUS
 10
-120.243858
 20
45.814075
 11
-118.77245
 21
44.342668
  0
LINE
  8
型材断面
  6
CONTINUOUS
 10
-116.154573
 20
41.960545
 11
-116.390272
 21
41.724845
  0
LINE
  8
型材断面
  6
CONTINUOUS
 10
-116.154573
 20
41.960545
 11
-118.654522
 21
44.460495
  0
LINE
  8
型材断面
  6
CONTINUOUS
 10
-116.390272
 20
41.724845
 11
-118.89027
 21
44.224842
  0
LINE
  8
型材断面
  6
CONTINUOUS
 10
-118.89027
 20
21.403223
 11
-118.89027
 21
44.224842
  0
LINE
  8
型材断面
  6
CONTINUOUS
 10
-116.39027
 20
33.2307
 11
-116.39027
 21
41.724848
  0
LINE
  8
型材断面
  6
CONTINUOUS
 10
48.247857
 20
23.667572
 11
65.000235
 21
23.667572
  0
LINE
  8
型材断面
  6
CONTINUOUS
 10
48.247857
 20
41.960492
 11
65.000235
 21
41.960492
  0
LINE
  8
型材断面
  6
CONTINUOUS
 10
-99.402142
 20
41.960492
 11
-116.15452
 21
41.960492
  0
LINE
  8
型材断面
  6
CONTINUOUS
 10
67.500235
 20
44.460492
 11
-118.65452
 21
44.460492
  0
LINE
  8
型材断面
  6
CONTINUOUS
 10
-99.402142
 20
23.667572
 11
-116.15452
 21
23.667572
  0
LINE
  8
型材断面
  6
CONTINUOUS
 10
67.500235
 20
21.167572
 11
-118.65452
 21
21.167572
  0
TEXT
  7
TextStyle03
  8
文字
  6
CONTINUOUS
 10
-155.275
 20
84.95
  1
は排水穴位置を示す
 40
3.0
 72
     5
 11
-125.275
 21
84.95
  0
TEXT
  7
TextStyle03
  8
文字
  6
CONTINUOUS
 10
60.45
 20
104.525
  1
ＮＳコード：ＮＳＦＫＺ
 40
5.0
 72
     5
 11
121.7
 21
104.525
  0
TEXT
  7
TextStyle03
  8
文字
  6
CONTINUOUS
 10
142.625
 20
-76.7
  1
網入り6.8t
 40
3.0
 72
     5
 11
159.3125
 21
-76.7
  0
TEXT
  7
TextStyle03
  8
文字
  6
CONTINUOUS
 10
149.3
 20
-81.375
  1
×５枚
 40
3.0
 72
     5
 11
159.05
 21
-81.375
  0
TEXT
  7
TextStyle03
  8
文字
  6
CONTINUOUS
 10
-138.325
 20
11.275
  1
アンカーピッチ
 40
3.0
 50
90.0
 72
     5
 11
-138.325
 21
34.525
  0
TEXT
  7
TextStyle03
  8
文字
  6
CONTINUOUS
 10
-103.175
 20
79.225
  1
アンカーピッチ
 40
3.0
 72
     5
 11
-79.925
 21
79.225
  0
TEXT
  7
TextStyle03
  8
文字
  6
CONTINUOUS
 10
-159.0
 20
78.075
  1
アンカー数量　１８ヶ所
 40
3.0
 72
     5
 11
-122.25
 21
78.075
  0
LINE
  8
文字
  6
CONTINUOUS
 10
132.981178
 20
56.453242
 11
132.981178
 21
47.100085
  0
LINE
  8
文字
  6
CONTINUOUS
 10
136.297845
 20
56.453242
 11
136.297845
 21
47.165438
  0
LINE
  8
文字
  6
CONTINUOUS
 10
79.728735
 20
-68.098798
 11
70.375577
 21
-68.098798
  0
LINE
  8
文字
  6
CONTINUOUS
 10
79.728735
 20
-71.415465
 11
70.44093
 21
-71.415465
  0
LINE
  8
文字
  6
CONTINUOUS
 10
161.17608
 20
-55.307463
 11
161.17608
 21
-62.382067
  0
LINE
  8
文字
  6
CONTINUOUS
 10
125.57608
 20
-55.307463
 11
125.57608
 21
-62.382067
  0
TEXT
  7
TextStyle03
  8
文字
  6
CONTINUOUS
 10
60.3
 20
125.25
  1
シリーズ：ＴＦ２ＦＫＬ
 40
5.0
 72
     5
 11
121.55
 21
125.25
  0
TEXT
  7
TextStyle03
  8
文字
  6
CONTINUOUS
 10
60.3
 20
119.625
  1
　　　　　（固定）600×5500タイプ
 40
5.0
 72
     5
 11
152.4875
 21
119.625
  0
TEXT
  7
TextStyle03
  8
文字
  6
CONTINUOUS
 10
60.3
 20
114.0
  1
図面名　：外観姿図
 40
5.0
 72
     5
 11
110.3
 21
114.0
  0
TEXT
  7
TextStyle03
  8
文字
  6
CONTINUOUS
 10
60.3
 20
108.375
  1
　　　　　　
 40
5.0
 72
     5
 11
93.425
 21
108.375
  0
LINE
  8
文字
  6
CONTINUOUS
 10
48.247857
 20
23.667572
 11
48.247857
 21
21.167572
  0
LINE
  8
文字
  6
CONTINUOUS
 10
47.414523
 20
23.667572
 11
47.414523
 21
21.167572
  0
LINE
  8
文字
  6
CONTINUOUS
 10
11.60619
 20
23.667572
 11
11.60619
 21
21.167572
  0
LINE
  8
文字
  6
CONTINUOUS
 10
10.772855
 20
23.667572
 11
10.772855
 21
21.167572
  0
LINE
  8
文字
  6
CONTINUOUS
 10
-25.160477
 20
23.667572
 11
-25.160477
 21
21.167572
  0
LINE
  8
文字
  6
CONTINUOUS
 10
-25.993812
 20
23.667572
 11
-25.993812
 21
21.167572
  0
LINE
  8
文字
  6
CONTINUOUS
 10
-99.402142
 20
23.667572
 11
-99.402142
 21
21.167572
  0
LINE
  8
文字
  6
CONTINUOUS
 10
-98.568808
 20
23.667572
 11
-98.568808
 21
21.167572
  0
LINE
  8
文字
  6
CONTINUOUS
 10
-62.760475
 20
23.667572
 11
-62.760475
 21
21.167572
  0
LINE
  8
文字
  6
CONTINUOUS
 10
-61.92714
 20
23.667572
 11
-61.92714
 21
21.167572
  0
LINE
  8
文字
  6
CONTINUOUS
 10
48.247857
 20
41.960492
 11
48.247857
 21
44.460492
  0
LINE
  8
文字
  6
CONTINUOUS
 10
47.414523
 20
41.960492
 11
47.414523
 21
44.460492
  0
LINE
  8
文字
  6
CONTINUOUS
 10
11.60619
 20
41.960492
 11
11.60619
 21
44.460492
  0
LINE
  8
文字
  6
CONTINUOUS
 10
10.772855
 20
41.960492
 11
10.772855
 21
44.460492
  0
LINE
  8
文字
  6
CONTINUOUS
 10
-25.160477
 20
41.960492
 11
-25.160477
 21
44.460492
  0
LINE
  8
文字
  6
CONTINUOUS
 10
-25.993812
 20
41.960492
 11
-25.993812
 21
44.460492
  0
LINE
  8
文字
  6
CONTINUOUS
 10
-99.402142
 20
41.960492
 11
-99.402142
 21
44.460492
  0
LINE
  8
文字
  6
CONTINUOUS
 10
-98.568808
 20
41.960492
 11
-98.568808
 21
44.460492
  0
LINE
  8
文字
  6
CONTINUOUS
 10
-62.760475
 20
41.960492
 11
-62.760475
 21
44.460492
  0
LINE
  8
文字
  6
CONTINUOUS
 10
-61.92714
 20
41.960492
 11
-61.92714
 21
44.460492
  0
INSERT
  2
*DIM_0002
  8
寸法
  6
CONTINUOUS
 10
0.0
 20
0.0
  0
INSERT
  2
*DIM_0003
  8
寸法
  6
CONTINUOUS
 10
0.0
 20
0.0
  0
INSERT
  2
*DIM_0004
  8
寸法
  6
CONTINUOUS
 10
0.0
 20
0.0
  0
INSERT
  2
*DIM_0005
  8
寸法
  6
CONTINUOUS
 10
0.0
 20
0.0
  0
INSERT
  2
*DIM_0006
  8
寸法
  6
CONTINUOUS
 10
0.0
 20
0.0
  0
INSERT
  2
*DIM_0007
  8
寸法
  6
CONTINUOUS
 10
0.0
 20
0.0
  0
INSERT
  2
*DIM_0008
  8
寸法
  6
CONTINUOUS
 10
0.0
 20
0.0
  0
INSERT
  2
*DIM_0009
  8
寸法
  6
CONTINUOUS
 10
0.0
 20
0.0
  0
INSERT
  2
*DIM_0010
  8
寸法
  6
CONTINUOUS
 10
0.0
 20
0.0
  0
INSERT
  2
*DIM_0011
  8
寸法
  6
CONTINUOUS
 10
0.0
 20
0.0
  0
INSERT
  2
*DIM_0012
  8
寸法
  6
CONTINUOUS
 10
0.0
 20
0.0
  0
INSERT
  2
*DIM_0013
  8
寸法
  6
CONTINUOUS
 10
0.0
 20
0.0
  0
INSERT
  2
*DIM_0014
  8
寸法
  6
CONTINUOUS
 10
0.0
 20
0.0
  0
INSERT
  2
*DIM_0015
  8
寸法
  6
CONTINUOUS
 10
0.0
 20
0.0
  0
INSERT
  2
*DIM_0016
  8
寸法
  6
CONTINUOUS
 10
0.0
 20
0.0
  0
INSERT
  2
*DIM_0017
  8
寸法
  6
CONTINUOUS
 10
0.0
 20
0.0
  0
LINE
  8
別途部材
  6
CONTINUOUS
 62
    47
 10
133.081178
 20
21.167572
 11
133.147845
 21
21.167572
  0
ARC
  8
別途部材
  6
CONTINUOUS
 62
    47
 10
133.081176
 20
21.267571
 40
0.1
 50
180.0
 51
270.0
  0
LINE
  8
別途部材
  6
CONTINUOUS
 62
    47
 10
132.981178
 20
21.267572
 11
132.981178
 21
21.324093
  0
LINE
  8
別途部材
  6
CONTINUOUS
 62
    47
 10
134.647845
 20
21.324093
 11
133.147845
 21
21.324093
  0
LINE
  8
別途部材
  6
CONTINUOUS
 62
    47
 10
133.081178
 20
44.460495
 11
133.147845
 21
44.460495
  0
ARC
  8
別途部材
  6
CONTINUOUS
 62
    47
 10
133.081176
 20
44.360495
 40
0.1
 50
90.0
 51
180.0
  0
LINE
  8
別途部材
  6
CONTINUOUS
 62
    47
 10
132.981178
 20
44.360495
 11
132.981178
 21
44.303973
  0
LINE
  8
別途部材
  6
CONTINUOUS
 62
    47
 10
134.647845
 20
44.303973
 11
133.147845
 21
44.303973
  0
LINE
  8
別途部材
  6
CONTINUOUS
 62
    47
 10
-118.89027
 20
-68.198797
 11
-118.89027
 21
-68.265465
  0
ARC
  8
別途部材
  6
CONTINUOUS
 62
    47
 10
-118.790271
 20
-68.198795
 40
0.1
 50
90.0
 51
180.0
  0
LINE
  8
別途部材
  6
CONTINUOUS
 62
    47
 10
-118.79027
 20
-68.098798
 11
-118.733748
 21
-68.098798
  0
LINE
  8
別途部材
  6
CONTINUOUS
 62
    47
 10
-118.733748
 20
-69.765465
 11
-118.733748
 21
-68.265465
  0
LINE
  8
別途部材
  6
CONTINUOUS
 62
    47
 10
67.735988
 20
-68.198797
 11
67.735988
 21
-68.265465
  0
ARC
  8
別途部材
  6
CONTINUOUS
 62
    47
 10
67.635986
 20
-68.198795
 40
0.1
 50
0.0
 51
90.0
  0
LINE
  8
別途部材
  6
CONTINUOUS
 62
    47
 10
67.635988
 20
-68.098798
 11
67.579465
 21
-68.098798
  0
LINE
  8
別途部材
  6
CONTINUOUS
 62
    47
 10
67.579465
 20
-69.765465
 11
67.579465
 21
-68.265465
  0
LINE
  8
曲げ物
  6
CONTINUOUS
 10
50.815255
 20
34.739582
 11
47.119943
 21
31.04427
  0
LINE
  8
曲げ物
  6
CONTINUOUS
 10
50.111785
 20
33.203472
 11
48.656055
 21
31.747742
  0
LINE
  8
曲げ物
  6
CONTINUOUS
 10
49.279145
 20
34.036112
 11
47.823415
 21
32.580383
  0
LINE
  8
曲げ物
  6
CONTINUOUS
 10
13.136292
 20
34.739582
 11
9.44098
 21
31.04427
  0
LINE
  8
曲げ物
  6
CONTINUOUS
 10
12.432822
 20
33.203472
 11
10.977093
 21
31.747742
  0
LINE
  8
曲げ物
  6
CONTINUOUS
 10
11.600182
 20
34.036112
 11
10.144453
 21
32.580383
  0
LINE
  8
曲げ物
  6
CONTINUOUS
 10
-23.613707
 20
34.739582
 11
-27.30902
 21
31.04427
  0
LINE
  8
曲げ物
  6
CONTINUOUS
 10
-24.317177
 20
33.203472
 11
-25.772908
 21
31.747742
  0
LINE
  8
曲げ物
  6
CONTINUOUS
 10
-25.149817
 20
34.036112
 11
-26.605548
 21
32.580383
  0
LINE
  8
曲げ物
  6
CONTINUOUS
 10
-59.20689
 20
34.739582
 11
-62.902203
 21
31.04427
  0
LINE
  8
曲げ物
  6
CONTINUOUS
 10
-59.91036
 20
33.203472
 11
-61.36609
 21
31.747742
  0
LINE
  8
曲げ物
  6
CONTINUOUS
 10
-60.743
 20
34.036112
 11
-62.19873
 21
32.580383
  0
LINE
  8
曲げ物
  6
CONTINUOUS
 10
-97.915222
 20
34.739582
 11
-101.610535
 21
31.04427
  0
LINE
  8
曲げ物
  6
CONTINUOUS
 10
-98.618692
 20
33.203472
 11
-100.074423
 21
31.747742
  0
LINE
  8
曲げ物
  6
CONTINUOUS
 10
-99.451332
 20
34.036112
 11
-100.907063
 21
32.580383
  0
LINE
  8
曲げ物
  6
CONTINUOUS
 10
161.17608
 20
-83.118728
 11
161.17608
 21
-63.785395
  0
LINE
  8
曲げ物
  6
CONTINUOUS
 10
125.57608
 20
-83.118728
 11
125.57608
 21
-63.785395
  0
LINE
  8
曲げ物
  6
CONTINUOUS
 10
161.17608
 20
-63.785395
 11
125.57608
 21
-63.785395
  0
LINE
  8
曲げ物
  6
CONTINUOUS
 10
161.17608
 20
-83.118728
 11
125.57608
 21
-83.118728
  0
CIRCLE
  8
LAYER010
  6
CONTINUOUS
 62
    47
 10
135.797847
 20
19.814042
 40
0.011113
  0
CIRCLE
  8
LAYER010
  6
CONTINUOUS
 62
    47
 10
135.797847
 20
45.814025
 40
0.011113
  0
CIRCLE
  8
LAYER010
  6
CONTINUOUS
 62
    47
 10
-120.2438
 20
-70.915467
 40
0.011113
  0
CIRCLE
  8
LAYER010
  6
CONTINUOUS
 62
    47
 10
69.089517
 20
-70.915467
 40
0.011113
  0
ENDSEC
  0
EOF
