  0
SECTION
  2
HEADER
  9
$EXTMIN
 10
-210.0
 20
-148.5
  9
$EXTMAX
 10
210.0
 20
148.5
  9
$PDMODE
 70
    32
  9
$PDSIZE
 40
1.5
  9
$LTSCALE
 40
10.0
  0
ENDSEC
  0
SECTION
  2
TABLES
  0
TABLE
  2
LTYPE
 70
    15
  0
LTYPE
  2
CONTINUOUS
 70
    64
  3
実線
 72
    65
 73
     0
 40
0.0
  0
LTYPE
  2
DASHED
 70
    64
  3
破線A
 72
    65
 73
     2
 40
0.6
 49
0.4
 49
-0.2
  0
LTYPE
  2
DASHEDX2
 70
    64
  3
破線B
 72
    65
 73
     2
 40
1.3
 49
0.9
 49
-0.4
  0
LTYPE
  2
DASHDOT
 70
    64
  3
１点鎖線A
 72
    65
 73
     4
 40
0.5375
 49
0.375
 49
-0.05
 49
0.0625
 49
-0.05
  0
LTYPE
  2
DASHDOTX2
 70
    64
  3
１点鎖線B
 72
    65
 73
     4
 40
1.075
 49
0.75
 49
-0.1
 49
0.125
 49
-0.1
  0
LTYPE
  2
DIVIDE2
 70
    64
  3
２点鎖線A
 72
    65
 73
     6
 40
0.5125
 49
0.3
 49
-0.0375
 49
0.05
 49
-0.0375
 49
0.05
 49
-0.0375
  0
LTYPE
  2
DIVIDE
 70
    64
  3
２点鎖線B
 72
    65
 73
     6
 40
1.05
 49
0.55
 49
-0.1
 49
0.1
 49
-0.1
 49
0.1
 49
-0.1
  0
LTYPE
  2
DOT
 70
    64
  3
点線A
 72
    65
 73
     2
 40
0.1125
 49
0.0625
 49
-0.05
  0
LTYPE
  2
DOTX2
 70
    64
  3
点線B
 72
    65
 73
     2
 40
0.275
 49
0.15
 49
-0.125
  0
LTYPE
  2
CONTINUOUS
 70
    64
  3
実線
 72
    65
 73
     0
 40
0.0
  0
LTYPE
  2
CONTINUOUS
 70
    64
  3
実線
 72
    65
 73
     0
 40
0.0
  0
LTYPE
  2
CONTINUOUS
 70
    64
  3
実線
 72
    65
 73
     0
 40
0.0
  0
LTYPE
  2
CONTINUOUS
 70
    64
  3
実線
 72
    65
 73
     0
 40
0.0
  0
LTYPE
  2
CONTINUOUS
 70
    64
  3
実線
 72
    65
 73
     0
 40
0.0
  0
LTYPE
  2
CONTINUOUS
 70
    64
  3
実線
 72
    65
 73
     0
 40
0.0
  0
ENDTAB
  0
TABLE
  2
LAYER
 70
    35
  0
LAYER
  2
通り芯
 70
     0
 62
    15
  6
CONTINUOUS
  0
LAYER
  2
補助線
 70
     0
 62
    16
  6
DOT
  0
LAYER
  2
躯体
 70
     0
 62
    31
  6
CONTINUOUS
  0
LAYER
  2
型材
 70
     0
 62
    32
  6
CONTINUOUS
  0
LAYER
  2
型材断面
 70
     0
 62
    47
  6
CONTINUOUS
  0
LAYER
  2
ガラス
 70
     0
 62
    48
  6
CONTINUOUS
  0
LAYER
  2
ゴム等
 70
     0
 62
    63
  6
CONTINUOUS
  0
LAYER
  2
ボルト／ビス
 70
     0
 62
    64
  6
CONTINUOUS
  0
LAYER
  2
文字
 70
     0
 62
    79
  6
CONTINUOUS
  0
LAYER
  2
寸法
 70
     0
 62
    80
  6
CONTINUOUS
  0
LAYER
  2
ﾊｯﾁﾝｸﾞ
 70
     0
 62
    95
  6
CONTINUOUS
  0
LAYER
  2
別途部材
 70
     0
 62
    96
  6
CONTINUOUS
  0
LAYER
  2
曲げ物
 70
     0
 62
   111
  6
CONTINUOUS
  0
LAYER
  2
鉄骨等
 70
     0
 62
   112
  6
CONTINUOUS
  0
LAYER
  2
St
 70
     0
 62
   127
  6
CONTINUOUS
  0
LAYER
  2
その他部品等
 70
     0
 62
   128
  6
CONTINUOUS
  0
LAYER
  2
ｶﾞｽｹｯﾄ
 70
     0
 62
   143
  6
CONTINUOUS
  0
LAYER
  2
ｽｹｯﾁ
 70
     0
 62
    14
  6
CONTINUOUS
  0
LAYER
  2
0
 70
     0
 62
    17
  6
CONTINUOUS
  0
LAYER
  2
1
 70
     0
 62
    30
  6
CONTINUOUS
  0
LAYER
  2
4
 70
     0
 62
    33
  6
CONTINUOUS
  0
LAYER
  2
ﾚｲﾔ3
 70
     0
 62
    46
  6
CONTINUOUS
  0
LAYER
  2
外形線
 70
     0
 62
    49
  6
CONTINUOUS
  0
LAYER
  2
部品
 70
     0
 62
    14
  6
CONTINUOUS
  0
LAYER
  2
サッシ芯
 70
     0
 62
    17
  6
DASHDOTX2
  0
LAYER
  2
寸法線
 70
     0
 62
    62
  6
CONTINUOUS
  0
LAYER
  2
姿図外形線
 70
     0
 62
    65
  6
CONTINUOUS
  0
LAYER
  2
姿補助線
 70
     0
 62
    30
  6
CONTINUOUS
  0
LAYER
  2
透視線
 70
     0
 62
    78
  6
DOT
  0
LAYER
  2
用紙
 70
     0
 62
    81
  6
CONTINUOUS
  0
LAYER
  2
実線図枠
 70
     0
 62
    94
  6
CONTINUOUS
  0
LAYER
  2
補助図枠
 70
     0
 62
    97
  6
CONTINUOUS
  0
LAYER
  2
建具記号
 70
     0
 62
   110
  6
CONTINUOUS
  0
LAYER
  2
補助文字
 70
     0
 62
   113
  6
CONTINUOUS
  0
LAYER
  2
LAYER010
 70
     0
 62
    11
  6
CONTINUOUS
  0
ENDTAB
  0
TABLE
  2
STYLE
 70
    10
  0
STYLE
  2
STANDARD
 70
     0
 40
1.0
 41
1.0
 42
1.0
 50
0.0
 71
     0
  3
TXT
  4
BIGFONT
  0
STYLE
  2
TATE
 70
     4
 40
1.0
 41
1.0
 42
1.0
 50
0.0
 71
     0
  3
TXT
  4
BIGFONT
  0
STYLE
  2
TextStyle03
 70
     0
 40
1.0
 41
1.0
 42
1.0
 50
0.0
 71
     0
  3
MONOTXT
  4
BIGFONT
  0
STYLE
  2
TextStyle04
 70
     0
 40
1.0
 41
1.0
 42
1.0
 50
0.0
 71
     0
  3
MONOTXT
  4
BIGFONT
  0
STYLE
  2
TextStyle05
 70
     0
 40
1.0
 41
1.0
 42
1.0
 50
0.0
 71
     0
  3
MONOTXT
  4
BIGFONT
  0
STYLE
  2
TextStyle06
 70
     0
 40
1.0
 41
1.0
 42
1.0
 50
0.0
 71
     0
  3
MONOTXT
  4
BIGFONT
  0
STYLE
  2
TextStyle07
 70
     0
 40
1.0
 41
1.0
 42
1.0
 50
0.0
 71
     0
  3
MONOTXT
  4
BIGFONT
  0
STYLE
  2
TextStyle08
 70
     0
 40
1.0
 41
1.0
 42
1.0
 50
0.0
 71
     0
  3
MONOTXT
  4
BIGFONT
  0
STYLE
  2
TextStyle09
 70
     0
 40
1.0
 41
1.0
 42
1.0
 50
0.0
 71
     0
  3
MONOTXT
  4
BIGFONT
  0
STYLE
  2
TextStyle10
 70
     0
 40
1.0
 41
1.0
 42
1.0
 50
0.0
 71
     0
  3
MONOTXT
  4
BIGFONT
  0
ENDTAB
  0
ENDSEC
  0
SECTION
  2
BLOCKS
  0
BLOCK
  2
*GRP_0001
 70
    65
 10
0.0
 20
0.0
  0
LINE
  8
型材断面
  6
CONTINUOUS
 10
195.0
 20
133.5
 11
195.0
 21
-133.5
  0
LINE
  8
型材断面
  6
CONTINUOUS
 10
195.0
 20
-133.5
 11
-185.0
 21
-133.5
  0
LINE
  8
型材断面
  6
CONTINUOUS
 10
-185.0
 20
-133.5
 11
-185.0
 21
133.5
  0
LINE
  8
型材断面
  6
CONTINUOUS
 10
195.0
 20
133.5
 11
-185.0
 21
133.5
  0
LINE
  8
型材断面
  6
CONTINUOUS
 10
145.0
 20
-133.5
 11
145.0
 21
-118.5
  0
LINE
  8
型材断面
  6
CONTINUOUS
 10
195.0
 20
-118.5
 11
145.0
 21
-118.5
  0
ENDBLK
  0
BLOCK
  2
*DIM_0002
 70
    65
 10
0.0
 20
0.0
  0
LINE
  8
寸法
  6
BYBLOCK
 62
     0
 10
-45.2636
 20
-13.511205
 11
-45.2636
 21
-13.121378
  0
LINE
  8
寸法
  6
BYBLOCK
 62
     0
 10
21.403067
 20
-13.121378
 11
-45.2636
 21
-13.121378
  0
POINT
  8
寸法
 62
     0
 10
21.403067
 20
-13.121378
  0
POINT
  8
寸法
 62
     0
 10
-45.2636
 20
-13.121378
  0
TEXT
  7
TextStyle03
  8
寸法
  6
CONTINUOUS
 62
     0
 10
-23.66875
 20
-12.75
  1
呼称寸法　2000
 40
3.0
 72
     5
 11
-0.23125
 21
-12.75
  0
ENDBLK
  0
BLOCK
  2
*DIM_0003
 70
    65
 10
0.0
 20
0.0
  0
LINE
  8
寸法
  6
BYBLOCK
 62
     0
 10
-28.596933
 20
19.183902
 11
-28.596933
 21
13.85658
  0
LINE
  8
寸法
  6
BYBLOCK
 62
     0
 10
4.736403
 20
19.183902
 11
4.736403
 21
13.85658
  0
LINE
  8
寸法
  6
BYBLOCK
 62
     0
 10
-28.596933
 20
13.85658
 11
4.736403
 21
13.85658
  0
POINT
  8
寸法
 62
     0
 10
-28.596933
 20
13.85658
  0
POINT
  8
寸法
 62
     0
 10
4.736403
 20
13.85658
  0
TEXT
  7
TextStyle03
  8
寸法
  6
CONTINUOUS
 62
     0
 10
-15.23125
 20
14.225
  1
1000
 40
3.0
 72
     5
 11
-8.66875
 21
14.225
  0
ENDBLK
  0
BLOCK
  2
*DIM_0004
 70
    65
 10
0.0
 20
0.0
  0
LINE
  8
寸法
  6
BYBLOCK
 62
     0
 10
24.403112
 20
-69.576397
 11
24.403112
 21
-13.121378
  0
LINE
  8
寸法
  6
BYBLOCK
 62
     0
 10
21.403067
 20
-13.121378
 11
24.403112
 21
-13.121378
  0
POINT
  8
寸法
 62
     0
 10
21.403067
 20
-13.121378
  0
POINT
  8
寸法
 62
     0
 10
24.403112
 20
-13.121378
  0
TEXT
  7
TextStyle03
  8
寸法
  6
CONTINUOUS
 62
     0
 10
21.30625
 20
-12.75
  1
90
 40
3.0
 72
     5
 11
24.49375
 21
-12.75
  0
ENDBLK
  0
BLOCK
  2
*DIM_0005
 70
    65
 10
0.0
 20
0.0
  0
LINE
  8
寸法
  6
BYBLOCK
 62
     0
 10
-48.263642
 20
-69.576397
 11
-48.263642
 21
-13.121378
  0
LINE
  8
寸法
  6
BYBLOCK
 62
     0
 10
-45.263598
 20
-13.121378
 11
-48.263642
 21
-13.121378
  0
POINT
  8
寸法
 62
     0
 10
-45.263598
 20
-13.121378
  0
POINT
  8
寸法
 62
     0
 10
-48.263642
 20
-13.121378
  0
TEXT
  7
TextStyle03
  8
寸法
  6
CONTINUOUS
 62
     0
 10
-48.36875
 20
-12.75
  1
90
 40
3.0
 72
     5
 11
-45.18125
 21
-12.75
  0
ENDBLK
  0
BLOCK
  2
*DIM_0006
 70
    65
 10
0.0
 20
0.0
  0
LINE
  8
寸法
  6
BYBLOCK
 62
     0
 10
117.489623
 20
-53.785395
 11
125.547912
 21
-53.785395
  0
LINE
  8
寸法
  6
BYBLOCK
 62
     0
 10
117.489623
 20
-83.118728
 11
125.547912
 21
-83.118728
  0
LINE
  8
寸法
  6
BYBLOCK
 62
     0
 10
125.547912
 20
-53.785395
 11
125.547912
 21
-83.118728
  0
POINT
  8
寸法
 62
     0
 10
125.547912
 20
-53.785395
  0
POINT
  8
寸法
 62
     0
 10
125.547912
 20
-83.118728
  0
TEXT
  7
TextStyle03
  8
寸法
  6
CONTINUOUS
 62
     0
 10
125.225
 20
-70.9125
  1
880
 40
3.0
 50
90.0
 72
     5
 11
125.225
 21
-66.0375
  0
ENDBLK
  0
BLOCK
  2
*DIM_0007
 70
    65
 10
0.0
 20
0.0
  0
LINE
  8
寸法
  6
BYBLOCK
 62
     0
 10
-48.2636
 20
47.814033
 11
-61.556437
 21
47.814033
  0
LINE
  8
寸法
  6
BYBLOCK
 62
     0
 10
-48.2636
 20
27.814033
 11
-61.556437
 21
27.814033
  0
LINE
  8
寸法
  6
BYBLOCK
 62
     0
 10
-61.556437
 20
47.814033
 11
-61.556437
 21
27.814033
  0
POINT
  8
寸法
 62
     0
 10
-61.556437
 20
47.814033
  0
POINT
  8
寸法
 62
     0
 10
-61.556437
 20
27.814033
  0
TEXT
  7
TextStyle03
  8
寸法
  6
CONTINUOUS
 62
     0
 10
-61.95
 20
35.3625
  1
600
 40
3.0
 50
90.0
 72
     5
 11
-61.95
 21
40.2375
  0
ENDBLK
  0
BLOCK
  2
*DIM_0008
 70
    65
 10
0.0
 20
0.0
  0
LINE
  8
寸法
  6
BYBLOCK
 62
     0
 10
-35.263598
 20
55.814033
 11
-35.263598
 21
84.741653
  0
LINE
  8
寸法
  6
BYBLOCK
 62
     0
 10
-11.930265
 20
55.814033
 11
-11.930265
 21
84.741653
  0
LINE
  8
寸法
  6
BYBLOCK
 62
     0
 10
-35.263598
 20
84.741653
 11
-11.930265
 21
84.741653
  0
POINT
  8
寸法
 62
     0
 10
-35.263598
 20
84.741653
  0
POINT
  8
寸法
 62
     0
 10
-11.930265
 20
84.741653
  0
TEXT
  7
TextStyle03
  8
寸法
  6
CONTINUOUS
 62
     0
 10
-26.0375
 20
85.125
  1
700
 40
3.0
 72
     5
 11
-21.1625
 21
85.125
  0
ENDBLK
  0
BLOCK
  2
*DIM_0009
 70
    65
 10
0.0
 20
0.0
  0
LINE
  8
寸法
  6
BYBLOCK
 62
     0
 10
11.403067
 20
55.814033
 11
11.403067
 21
84.741653
  0
LINE
  8
寸法
  6
BYBLOCK
 62
     0
 10
-11.930265
 20
84.741653
 11
11.403067
 21
84.741653
  0
POINT
  8
寸法
 62
     0
 10
11.403067
 20
84.741653
  0
TEXT
  7
TextStyle03
  8
寸法
  6
CONTINUOUS
 62
     0
 10
-2.7125
 20
85.125
  1
700
 40
3.0
 72
     5
 11
2.1625
 21
85.125
  0
ENDBLK
  0
BLOCK
  2
*DIM_0010
 70
    65
 10
0.0
 20
0.0
  0
LINE
  8
寸法
  6
CONTINUOUS
 10
114.875657
 20
66.45319
 11
118.192325
 21
66.45319
  0
POINT
  8
寸法
 10
114.875657
 20
66.45319
  0
POINT
  8
寸法
 10
118.192325
 20
66.45319
  0
TEXT
  7
TextStyle03
  8
寸法
  6
CONTINUOUS
 10
113.11875
 20
66.65
  1
99.5
 40
3.0
 72
     5
 11
119.68125
 21
66.65
  0
ENDBLK
  0
BLOCK
  2
*DIM_0011
 70
    65
 10
0.0
 20
0.0
  0
LINE
  8
寸法
  6
CONTINUOUS
 10
35.042275
 20
-68.719655
 11
35.042275
 21
-72.036323
  0
POINT
  8
寸法
 10
35.042275
 20
-68.719655
  0
POINT
  8
寸法
 10
35.042275
 20
-72.036323
  0
TEXT
  7
TextStyle03
  8
寸法
  6
CONTINUOUS
 10
38.175
 20
-73.48125
  1
99.5
 40
3.0
 50
90.0
 72
     5
 11
38.175
 21
-66.91875
  0
ENDBLK
  0
BLOCK
  2
*DIM_0012
 70
    65
 10
0.0
 20
0.0
  0
LINE
  8
寸法
  6
CONTINUOUS
 10
116.489623
 20
-45.264465
 11
84.072955
 21
-45.264465
  0
POINT
  8
寸法
 10
116.489623
 20
-45.264465
  0
POINT
  8
寸法
 10
84.072955
 20
-45.264465
  0
TEXT
  7
TextStyle03
  8
寸法
  6
CONTINUOUS
 10
96.15
 20
-44.925
  1
972.5
 40
3.0
 72
     5
 11
104.4
 21
-44.925
  0
ENDBLK
  0
ENDSEC
  0
SECTION
  2
ENTITIES
  0
POLYLINE
  8
通り芯
  6
CONTINUOUS
 66
     1
 70
     1
  0
VERTEX
  8
通り芯
 10
-210.0
 20
-148.5
  0
VERTEX
  8
通り芯
 10
210.0
 20
-148.5
  0
VERTEX
  8
通り芯
 10
210.0
 20
148.5
  0
VERTEX
  8
通り芯
 10
-210.0
 20
148.5
  0
SEQEND
  0
INSERT
  2
*GRP_0001
  8
型材断面
  6
CONTINUOUS
 10
0.0
 20
0.0
  0
LINE
  8
型材断面
  6
DASHDOT
 10
21.403067
 20
-77.836442
 11
21.403067
 21
52.814033
  0
LINE
  8
型材断面
  6
DASHDOT
 10
-11.930265
 20
-77.836442
 11
-11.930265
 21
52.814033
  0
LINE
  8
型材断面
  6
DASHDOT
 10
-45.2636
 20
-77.836442
 11
-45.2636
 21
52.814033
  0
LINE
  8
型材断面
  6
DASHDOT
 10
-11.930265
 20
22.814033
 11
-11.930265
 21
52.814033
  0
LINE
  8
型材断面
  6
CONTINUOUS
 10
-28.596933
 20
55.444162
 11
-30.092562
 21
58.03467
  0
LINE
  8
型材断面
  6
CONTINUOUS
 10
-28.596933
 20
55.444162
 11
-27.101303
 21
58.03467
  0
LINE
  8
型材断面
  6
CONTINUOUS
 10
-27.101303
 20
58.03467
 11
-30.092562
 21
58.03467
  0
LINE
  8
型材断面
  6
CONTINUOUS
 10
-47.89373
 20
37.814033
 11
-50.484238
 21
39.309663
  0
LINE
  8
型材断面
  6
CONTINUOUS
 10
-47.89373
 20
37.814033
 11
-50.484238
 21
36.318403
  0
LINE
  8
型材断面
  6
CONTINUOUS
 10
-50.484238
 20
36.318403
 11
-50.484238
 21
39.309663
  0
LINE
  8
型材断面
  6
CONTINUOUS
 10
-28.596933
 20
20.183902
 11
-30.092562
 21
17.593395
  0
LINE
  8
型材断面
  6
CONTINUOUS
 10
-28.596933
 20
20.183902
 11
-27.101303
 21
17.593395
  0
LINE
  8
型材断面
  6
CONTINUOUS
 10
-27.101303
 20
17.593395
 11
-30.092562
 21
17.593395
  0
LINE
  8
型材断面
  6
CONTINUOUS
 10
-99.142122
 20
97.32138
 11
-100.637752
 21
94.730873
  0
LINE
  8
型材断面
  6
CONTINUOUS
 10
-99.142122
 20
97.32138
 11
-97.646493
 21
94.730873
  0
LINE
  8
型材断面
  6
CONTINUOUS
 10
-97.646493
 20
94.730873
 11
-100.637752
 21
94.730873
  0
LINE
  8
型材断面
  6
CONTINUOUS
 10
-105.16471
 20
93.792277
 11
-58.922933
 21
93.792277
  0
LINE
  8
型材断面
  6
CONTINUOUS
 10
4.736403
 20
55.444162
 11
6.232033
 21
58.03467
  0
LINE
  8
型材断面
  6
CONTINUOUS
 10
4.736403
 20
55.444162
 11
3.240772
 21
58.03467
  0
LINE
  8
型材断面
  6
CONTINUOUS
 10
3.240772
 20
58.03467
 11
6.232033
 21
58.03467
  0
LINE
  8
型材断面
  6
CONTINUOUS
 10
24.0332
 20
37.814033
 11
26.623707
 21
39.309663
  0
LINE
  8
型材断面
  6
CONTINUOUS
 10
24.0332
 20
37.814033
 11
26.623707
 21
36.318403
  0
LINE
  8
型材断面
  6
CONTINUOUS
 10
26.623707
 20
36.318403
 11
26.623707
 21
39.309663
  0
LINE
  8
型材断面
  6
CONTINUOUS
 10
4.736403
 20
20.183902
 11
6.232033
 21
17.593395
  0
LINE
  8
型材断面
  6
CONTINUOUS
 10
4.736403
 20
20.183902
 11
3.240772
 21
17.593395
  0
LINE
  8
型材断面
  6
CONTINUOUS
 10
3.240772
 20
17.593395
 11
6.232033
 21
17.593395
  0
LINE
  8
型材断面
  6
CONTINUOUS
 10
-105.16471
 20
87.157948
 11
-58.922933
 21
87.157948
  0
LINE
  8
型材断面
  6
CONTINUOUS
 10
-48.263648
 20
19.81399
 11
-11.930265
 21
19.81399
  0
LINE
  8
型材断面
  6
CONTINUOUS
 10
-48.263648
 20
55.814075
 11
-11.930265
 21
55.814075
  0
LINE
  8
型材断面
  6
CONTINUOUS
 10
24.403118
 20
55.814075
 11
-11.930265
 21
55.814075
  0
LINE
  8
型材断面
  6
CONTINUOUS
 10
24.403118
 20
19.81399
 11
-11.930265
 21
19.81399
  0
CIRCLE
  8
型材断面
  6
CONTINUOUS
 62
    47
 10
117.692327
 20
55.813975
 40
0.011113
  0
LINE
  8
型材断面
  6
CONTINUOUS
 62
    47
 10
118.192325
 20
55.313983
 11
118.192325
 21
55.813975
  0
LINE
  8
型材断面
  6
CONTINUOUS
 62
    47
 10
118.192325
 20
55.813975
 11
117.692327
 21
55.813975
  0
LINE
  8
型材断面
  6
CONTINUOUS
 62
    47
 10
117.692327
 20
55.813975
 11
117.195147
 21
52.880643
  0
LINE
  8
型材断面
  6
CONTINUOUS
 62
    47
 10
118.192325
 20
55.313983
 11
118.692325
 21
55.313983
  0
LINE
  8
型材断面
  6
CONTINUOUS
 62
    47
 10
117.195147
 20
52.880643
 11
116.542325
 21
52.880643
  0
CIRCLE
  8
型材断面
  6
CONTINUOUS
 62
    47
 10
117.692327
 20
19.81399
 40
0.011113
  0
LINE
  8
型材断面
  6
CONTINUOUS
 62
    47
 10
118.192325
 20
20.313983
 11
118.192325
 21
19.81399
  0
LINE
  8
型材断面
  6
CONTINUOUS
 62
    47
 10
118.192325
 20
19.81399
 11
117.692327
 21
19.81399
  0
LINE
  8
型材断面
  6
CONTINUOUS
 62
    47
 10
117.692327
 20
19.81399
 11
117.195147
 21
22.747322
  0
LINE
  8
型材断面
  6
CONTINUOUS
 62
    47
 10
118.192325
 20
20.313983
 11
118.692325
 21
20.313983
  0
LINE
  8
型材断面
  6
CONTINUOUS
 62
    47
 10
117.195147
 20
22.747322
 11
116.542325
 21
22.747322
  0
LINE
  8
型材断面
  6
CONTINUOUS
 62
    47
 10
115.042325
 20
54.460445
 11
115.042325
 21
37.813983
  0
LINE
  8
型材断面
  6
CONTINUOUS
 62
    47
 10
114.875657
 20
54.303923
 11
114.875657
 21
37.813983
  0
LINE
  8
型材断面
  6
CONTINUOUS
 62
    47
 10
116.542325
 20
54.303923
 11
116.542325
 21
37.813983
  0
LINE
  8
型材断面
  6
CONTINUOUS
 10
117.195147
 20
52.880695
 11
117.195147
 21
37.813983
  0
LINE
  8
型材断面
  6
CONTINUOUS
 10
117.69233
 20
55.814027
 11
117.69233
 21
37.813983
  0
LINE
  8
型材断面
  6
CONTINUOUS
 62
    47
 10
118.192325
 20
55.814027
 11
118.192325
 21
37.813983
  0
LINE
  8
型材断面
  6
CONTINUOUS
 10
118.692325
 20
55.314038
 11
118.692325
 21
37.813983
  0
LINE
  8
型材断面
  6
CONTINUOUS
 10
118.692325
 20
20.313927
 11
118.692325
 21
37.813983
  0
LINE
  8
型材断面
  6
CONTINUOUS
 10
117.69233
 20
19.813938
 11
117.69233
 21
37.813983
  0
LINE
  8
型材断面
  6
CONTINUOUS
 62
    47
 10
118.192325
 20
19.813938
 11
118.192325
 21
37.813983
  0
LINE
  8
型材断面
  6
CONTINUOUS
 10
117.195147
 20
22.74727
 11
117.195147
 21
37.813983
  0
LINE
  8
型材断面
  6
CONTINUOUS
 62
    47
 10
116.542325
 20
21.324042
 11
116.542325
 21
37.813983
  0
LINE
  8
型材断面
  6
CONTINUOUS
 62
    47
 10
115.042325
 20
21.16752
 11
115.042325
 21
37.813983
  0
LINE
  8
型材断面
  6
CONTINUOUS
 62
    47
 10
114.875657
 20
21.324042
 11
114.875657
 21
37.813983
  0
CIRCLE
  8
型材断面
  6
CONTINUOUS
 62
    47
 10
-48.263592
 20
-71.536325
 40
0.011113
  0
LINE
  8
型材断面
  6
CONTINUOUS
 62
    47
 10
-47.7636
 20
-72.036323
 11
-48.263592
 21
-72.036323
  0
LINE
  8
型材断面
  6
CONTINUOUS
 62
    47
 10
-48.263592
 20
-72.036323
 11
-48.263592
 21
-71.536325
  0
LINE
  8
型材断面
  6
CONTINUOUS
 62
    47
 10
-48.263592
 20
-71.536325
 11
-45.33026
 21
-71.039145
  0
LINE
  8
型材断面
  6
CONTINUOUS
 62
    47
 10
-47.7636
 20
-72.036323
 11
-47.7636
 21
-72.536323
  0
LINE
  8
型材断面
  6
CONTINUOUS
 62
    47
 10
-45.33026
 20
-71.039145
 11
-45.33026
 21
-70.38632
  0
CIRCLE
  8
型材断面
  6
CONTINUOUS
 62
    47
 10
24.403058
 20
-71.536325
 40
0.011113
  0
LINE
  8
型材断面
  6
CONTINUOUS
 62
    47
 10
23.903067
 20
-72.036323
 11
24.403058
 21
-72.036323
  0
LINE
  8
型材断面
  6
CONTINUOUS
 62
    47
 10
24.403058
 20
-72.036323
 11
24.403058
 21
-71.536325
  0
LINE
  8
型材断面
  6
CONTINUOUS
 62
    47
 10
24.403058
 20
-71.536325
 11
21.469728
 21
-71.039145
  0
LINE
  8
型材断面
  6
CONTINUOUS
 62
    47
 10
23.903067
 20
-72.036323
 11
23.903067
 21
-72.536323
  0
LINE
  8
型材断面
  6
CONTINUOUS
 62
    47
 10
21.469728
 20
-71.039145
 11
21.469728
 21
-70.38632
  0
LINE
  8
型材断面
  6
CONTINUOUS
 62
    47
 10
-46.75354
 20
-70.38632
 11
-11.930267
 21
-70.38632
  0
LINE
  8
型材断面
  6
CONTINUOUS
 62
    47
 10
-46.75354
 20
-68.719655
 11
-11.930267
 21
-68.719655
  0
LINE
  8
型材断面
  6
CONTINUOUS
 62
    47
 10
-46.910063
 20
-68.88632
 11
-11.930267
 21
-68.88632
  0
LINE
  8
型材断面
  6
CONTINUOUS
 10
-45.330313
 20
-71.039145
 11
-11.930267
 21
-71.039145
  0
LINE
  8
型材断面
  6
CONTINUOUS
 10
-48.263645
 20
-71.536325
 11
-11.930267
 21
-71.536325
  0
LINE
  8
型材断面
  6
CONTINUOUS
 10
-47.763655
 20
-72.536323
 11
-11.930267
 21
-72.536323
  0
LINE
  8
型材断面
  6
CONTINUOUS
 62
    47
 10
-48.263645
 20
-72.036323
 11
-11.930267
 21
-72.036323
  0
LINE
  8
型材断面
  6
CONTINUOUS
 10
21.46978
 20
-71.039145
 11
-11.930267
 21
-71.039145
  0
LINE
  8
型材断面
  6
CONTINUOUS
 62
    47
 10
22.893008
 20
-70.38632
 11
-11.930267
 21
-70.38632
  0
LINE
  8
型材断面
  6
CONTINUOUS
 62
    47
 10
23.049527
 20
-68.88632
 11
-11.930267
 21
-68.88632
  0
LINE
  8
型材断面
  6
CONTINUOUS
 62
    47
 10
22.893008
 20
-68.719655
 11
-11.930267
 21
-68.719655
  0
LINE
  8
型材断面
  6
CONTINUOUS
 10
23.903123
 20
-72.536323
 11
-11.930267
 21
-72.536323
  0
LINE
  8
型材断面
  6
CONTINUOUS
 10
24.403112
 20
-71.536325
 11
-11.930267
 21
-71.536325
  0
LINE
  8
型材断面
  6
CONTINUOUS
 62
    47
 10
24.403112
 20
-72.036323
 11
-11.930267
 21
-72.036323
  0
LINE
  8
型材断面
  6
DASHDOT
 10
-45.2636
 20
37.814033
 11
125.668335
 21
37.814033
  0
LINE
  8
型材断面
  6
DASHDOT
 10
125.668335
 20
22.813983
 11
-45.2636
 21
22.813983
  0
LINE
  8
型材断面
  6
DASHDOT
 10
125.668335
 20
52.813983
 11
-45.2636
 21
52.813983
  0
LINE
  8
型材断面
  6
CONTINUOUS
 10
4.319735
 20
51.960445
 11
-28.180265
 21
51.960445
  0
LINE
  8
型材断面
  6
CONTINUOUS
 10
4.319735
 20
23.66762
 11
-28.180265
 21
23.66762
  0
LINE
  8
型材断面
  6
CONTINUOUS
 10
-10.680265
 20
24.500952
 11
-13.180265
 21
24.500952
  0
LINE
  8
型材断面
  6
CONTINUOUS
 10
-10.680265
 20
51.127112
 11
-13.180265
 21
51.127112
  0
LINE
  8
型材断面
  6
CONTINUOUS
 10
-10.680265
 20
24.500952
 11
-10.680265
 21
51.127112
  0
LINE
  8
型材断面
  6
CONTINUOUS
 10
-13.180265
 20
24.500952
 11
-13.180265
 21
51.127112
  0
LINE
  8
型材断面
  6
CONTINUOUS
 10
24.403115
 20
55.814075
 11
24.403115
 21
37.81403
  0
LINE
  8
型材断面
  6
CONTINUOUS
 10
24.403115
 20
19.81399
 11
24.403115
 21
37.814035
  0
LINE
  8
型材断面
  6
CONTINUOUS
 10
22.81383
 20
21.16752
 11
23.04953
 21
21.40322
  0
LINE
  8
型材断面
  6
CONTINUOUS
 10
24.403115
 20
19.81399
 11
22.931708
 21
21.285397
  0
LINE
  8
型材断面
  6
CONTINUOUS
 10
20.31383
 20
23.66752
 11
20.54953
 21
23.90322
  0
LINE
  8
型材断面
  6
CONTINUOUS
 10
20.54953
 20
23.90322
 11
23.049527
 21
21.403223
  0
LINE
  8
型材断面
  6
CONTINUOUS
 10
20.31383
 20
23.66752
 11
22.813727
 21
21.167622
  0
LINE
  8
型材断面
  6
CONTINUOUS
 10
20.549527
 20
37.397365
 11
20.549527
 21
23.903218
  0
LINE
  8
型材断面
  6
CONTINUOUS
 10
22.81383
 20
54.460545
 11
23.04953
 21
54.224845
  0
LINE
  8
型材断面
  6
CONTINUOUS
 10
24.403115
 20
55.814075
 11
22.931708
 21
54.342668
  0
LINE
  8
型材断面
  6
CONTINUOUS
 10
20.31383
 20
51.960545
 11
20.54953
 21
51.724845
  0
LINE
  8
型材断面
  6
CONTINUOUS
 10
20.54953
 20
51.724845
 11
23.049527
 21
54.224842
  0
LINE
  8
型材断面
  6
CONTINUOUS
 10
20.31383
 20
51.960545
 11
22.813727
 21
54.460442
  0
LINE
  8
型材断面
  6
CONTINUOUS
 10
20.549527
 20
38.2307
 11
20.549527
 21
51.724848
  0
LINE
  8
型材断面
  6
CONTINUOUS
 10
23.049527
 20
21.403223
 11
23.049527
 21
54.224842
  0
LINE
  8
型材断面
  6
CONTINUOUS
 10
-48.263645
 20
55.814075
 11
-48.263645
 21
37.81403
  0
LINE
  8
型材断面
  6
CONTINUOUS
 10
-48.263645
 20
19.81399
 11
-48.263645
 21
37.814035
  0
LINE
  8
型材断面
  6
CONTINUOUS
 10
-46.67436
 20
21.16752
 11
-46.91006
 21
21.40322
  0
LINE
  8
型材断面
  6
CONTINUOUS
 10
-48.263645
 20
19.81399
 11
-46.792238
 21
21.285397
  0
LINE
  8
型材断面
  6
CONTINUOUS
 10
-44.17436
 20
23.66752
 11
-44.41006
 21
23.90322
  0
LINE
  8
型材断面
  6
CONTINUOUS
 10
-44.41006
 20
23.90322
 11
-46.910058
 21
21.403223
  0
LINE
  8
型材断面
  6
CONTINUOUS
 10
-44.17436
 20
23.66752
 11
-46.674258
 21
21.167622
  0
LINE
  8
型材断面
  6
CONTINUOUS
 10
-44.410058
 20
37.397365
 11
-44.410058
 21
23.903218
  0
LINE
  8
型材断面
  6
CONTINUOUS
 10
-46.67436
 20
54.460545
 11
-46.91006
 21
54.224845
  0
LINE
  8
型材断面
  6
CONTINUOUS
 10
-48.263645
 20
55.814075
 11
-46.792238
 21
54.342668
  0
LINE
  8
型材断面
  6
CONTINUOUS
 10
-44.17436
 20
51.960545
 11
-44.41006
 21
51.724845
  0
LINE
  8
型材断面
  6
CONTINUOUS
 10
-44.41006
 20
51.724845
 11
-46.910058
 21
54.224842
  0
LINE
  8
型材断面
  6
CONTINUOUS
 10
-44.17436
 20
51.960545
 11
-46.674258
 21
54.460442
  0
LINE
  8
型材断面
  6
CONTINUOUS
 10
-44.410058
 20
38.2307
 11
-44.410058
 21
51.724848
  0
LINE
  8
型材断面
  6
CONTINUOUS
 10
-46.910058
 20
21.403223
 11
-46.910058
 21
54.224842
  0
LINE
  8
型材断面
  6
CONTINUOUS
 10
5.15307
 20
23.66762
 11
20.31373
 21
23.66762
  0
LINE
  8
型材断面
  6
CONTINUOUS
 10
5.15307
 20
51.960445
 11
20.31373
 21
51.960445
  0
LINE
  8
型材断面
  6
CONTINUOUS
 10
-29.0136
 20
51.960445
 11
-44.17426
 21
51.960445
  0
LINE
  8
型材断面
  6
CONTINUOUS
 10
22.81373
 20
54.460445
 11
-46.67426
 21
54.460445
  0
LINE
  8
型材断面
  6
CONTINUOUS
 10
-29.0136
 20
23.66762
 11
-44.17426
 21
23.66762
  0
LINE
  8
型材断面
  6
CONTINUOUS
 10
22.81373
 20
21.16762
 11
-46.67426
 21
21.16762
  0
TEXT
  7
TextStyle03
  8
文字
  6
CONTINUOUS
 10
-96.375
 20
94.925
  1
は排水穴位置を示す
 40
3.0
 72
     5
 11
-66.375
 21
94.925
  0
TEXT
  7
TextStyle03
  8
文字
  6
CONTINUOUS
 10
59.65
 20
104.525
  1
ＮＳコード：ＮＳＦＫＺ
 40
5.0
 72
     5
 11
120.9
 21
104.525
  0
TEXT
  7
TextStyle03
  8
文字
  6
CONTINUOUS
 10
97.975
 20
-76.7
  1
網入り6.8t
 40
3.0
 72
     5
 11
114.6625
 21
-76.7
  0
TEXT
  7
TextStyle03
  8
文字
  6
CONTINUOUS
 10
104.65
 20
-81.375
  1
×２枚
 40
3.0
 72
     5
 11
114.4
 21
-81.375
  0
TEXT
  7
TextStyle03
  8
文字
  6
CONTINUOUS
 10
-66.275
 20
16.275
  1
アンカーピッチ
 40
3.0
 50
90.0
 72
     5
 11
-66.275
 21
39.525
  0
TEXT
  7
TextStyle03
  8
文字
  6
CONTINUOUS
 10
-37.825
 20
89.675
  1
アンカーピッチ
 40
3.0
 72
     5
 11
-14.575
 21
89.675
  0
TEXT
  7
TextStyle03
  8
文字
  6
CONTINUOUS
 10
-100.1
 20
88.05
  1
アンカー数量　１０ヶ所
 40
3.0
 72
     5
 11
-63.35
 21
88.05
  0
LINE
  8
文字
  6
CONTINUOUS
 10
114.875657
 20
66.45319
 11
114.875657
 21
57.100035
  0
LINE
  8
文字
  6
CONTINUOUS
 10
118.192325
 20
66.45319
 11
118.192325
 21
57.165387
  0
LINE
  8
文字
  6
CONTINUOUS
 10
35.042275
 20
-68.719655
 11
25.689118
 21
-68.719655
  0
LINE
  8
文字
  6
CONTINUOUS
 10
35.042275
 20
-72.036323
 11
25.754472
 21
-72.036323
  0
LINE
  8
文字
  6
CONTINUOUS
 10
116.489623
 20
-45.264465
 11
116.489623
 21
-51.865015
  0
LINE
  8
文字
  6
CONTINUOUS
 10
84.072955
 20
-45.264465
 11
84.072955
 21
-51.865015
  0
TEXT
  7
TextStyle03
  8
文字
  6
CONTINUOUS
 10
59.5
 20
125.25
  1
シリーズ：ＴＦ２ＦＫＬ
 40
5.0
 72
     5
 11
120.75
 21
125.25
  0
TEXT
  7
TextStyle03
  8
文字
  6
CONTINUOUS
 10
59.5
 20
119.625
  1
　　　　　（固定）900×2000タイプ
 40
5.0
 72
     5
 11
151.6875
 21
119.625
  0
TEXT
  7
TextStyle03
  8
文字
  6
CONTINUOUS
 10
59.5
 20
114.0
  1
図面名　：外観姿図
 40
5.0
 72
     5
 11
109.5
 21
114.0
  0
TEXT
  7
TextStyle03
  8
文字
  6
CONTINUOUS
 10
59.5
 20
108.375
  1
　　　　　　
 40
5.0
 72
     5
 11
92.625
 21
108.375
  0
LINE
  8
文字
  6
CONTINUOUS
 10
5.15307
 20
23.66762
 11
5.15307
 21
21.16762
  0
LINE
  8
文字
  6
CONTINUOUS
 10
4.319735
 20
23.66762
 11
4.319735
 21
21.16762
  0
LINE
  8
文字
  6
CONTINUOUS
 10
-29.0136
 20
23.66762
 11
-29.0136
 21
21.16762
  0
LINE
  8
文字
  6
CONTINUOUS
 10
-28.180265
 20
23.66762
 11
-28.180265
 21
21.16762
  0
LINE
  8
文字
  6
CONTINUOUS
 10
5.15307
 20
51.960445
 11
5.15307
 21
54.460445
  0
LINE
  8
文字
  6
CONTINUOUS
 10
4.319735
 20
51.960445
 11
4.319735
 21
54.460445
  0
LINE
  8
文字
  6
CONTINUOUS
 10
-29.0136
 20
51.960445
 11
-29.0136
 21
54.460445
  0
LINE
  8
文字
  6
CONTINUOUS
 10
-28.180265
 20
51.960445
 11
-28.180265
 21
54.460445
  0
LINE
  8
文字
  6
CONTINUOUS
 10
23.049527
 20
37.397365
 11
20.549527
 21
37.397365
  0
LINE
  8
文字
  6
CONTINUOUS
 10
23.049527
 20
38.2307
 11
20.549527
 21
38.2307
  0
LINE
  8
文字
  6
CONTINUOUS
 10
-46.910058
 20
37.397365
 11
-44.410058
 21
37.397365
  0
LINE
  8
文字
  6
CONTINUOUS
 10
-46.910058
 20
38.2307
 11
-44.410058
 21
38.2307
  0
INSERT
  2
*DIM_0002
  8
寸法
  6
CONTINUOUS
 10
0.0
 20
0.0
  0
INSERT
  2
*DIM_0003
  8
寸法
  6
CONTINUOUS
 10
0.0
 20
0.0
  0
INSERT
  2
*DIM_0004
  8
寸法
  6
CONTINUOUS
 10
0.0
 20
0.0
  0
INSERT
  2
*DIM_0005
  8
寸法
  6
CONTINUOUS
 10
0.0
 20
0.0
  0
INSERT
  2
*DIM_0006
  8
寸法
  6
CONTINUOUS
 10
0.0
 20
0.0
  0
INSERT
  2
*DIM_0007
  8
寸法
  6
CONTINUOUS
 10
0.0
 20
0.0
  0
INSERT
  2
*DIM_0008
  8
寸法
  6
CONTINUOUS
 10
0.0
 20
0.0
  0
INSERT
  2
*DIM_0009
  8
寸法
  6
CONTINUOUS
 10
0.0
 20
0.0
  0
INSERT
  2
*DIM_0010
  8
寸法
  6
CONTINUOUS
 10
0.0
 20
0.0
  0
INSERT
  2
*DIM_0011
  8
寸法
  6
CONTINUOUS
 10
0.0
 20
0.0
  0
INSERT
  2
*DIM_0012
  8
寸法
  6
CONTINUOUS
 10
0.0
 20
0.0
  0
LINE
  8
別途部材
  6
CONTINUOUS
 62
    47
 10
114.975657
 20
54.460445
 11
115.042325
 21
54.460445
  0
ARC
  8
別途部材
  6
CONTINUOUS
 62
    47
 10
114.975657
 20
54.360444
 40
0.1
 50
90.0
 51
180.0
  0
LINE
  8
別途部材
  6
CONTINUOUS
 62
    47
 10
114.875657
 20
54.360445
 11
114.875657
 21
54.303923
  0
LINE
  8
別途部材
  6
CONTINUOUS
 62
    47
 10
116.542325
 20
54.303923
 11
115.042325
 21
54.303923
  0
LINE
  8
別途部材
  6
CONTINUOUS
 62
    47
 10
114.975657
 20
21.16752
 11
115.042325
 21
21.16752
  0
ARC
  8
別途部材
  6
CONTINUOUS
 62
    47
 10
114.975657
 20
21.26752
 40
0.1
 50
180.0
 51
270.0
  0
LINE
  8
別途部材
  6
CONTINUOUS
 62
    47
 10
114.875657
 20
21.26752
 11
114.875657
 21
21.324042
  0
LINE
  8
別途部材
  6
CONTINUOUS
 62
    47
 10
116.542325
 20
21.324042
 11
115.042325
 21
21.324042
  0
LINE
  8
別途部材
  6
CONTINUOUS
 62
    47
 10
-46.910063
 20
-68.819655
 11
-46.910063
 21
-68.88632
  0
ARC
  8
別途部材
  6
CONTINUOUS
 62
    47
 10
-46.810063
 20
-68.81965
 40
0.1
 50
90.0
 51
180.0
  0
LINE
  8
別途部材
  6
CONTINUOUS
 62
    47
 10
-46.810063
 20
-68.719655
 11
-46.75354
 21
-68.719655
  0
LINE
  8
別途部材
  6
CONTINUOUS
 62
    47
 10
-46.75354
 20
-70.38632
 11
-46.75354
 21
-68.88632
  0
LINE
  8
別途部材
  6
CONTINUOUS
 62
    47
 10
23.049527
 20
-68.819655
 11
23.049527
 21
-68.88632
  0
ARC
  8
別途部材
  6
CONTINUOUS
 62
    47
 10
22.949528
 20
-68.81965
 40
0.1
 50
0.0
 51
90.0
  0
LINE
  8
別途部材
  6
CONTINUOUS
 62
    47
 10
22.949527
 20
-68.719655
 11
22.893008
 21
-68.719655
  0
LINE
  8
別途部材
  6
CONTINUOUS
 62
    47
 10
22.893008
 20
-70.38632
 11
22.893008
 21
-68.88632
  0
LINE
  8
曲げ物
  6
CONTINUOUS
 10
-26.327345
 20
39.596287
 11
-30.022657
 21
35.900975
  0
LINE
  8
曲げ物
  6
CONTINUOUS
 10
-27.030815
 20
38.060177
 11
-28.486545
 21
36.604448
  0
LINE
  8
曲げ物
  6
CONTINUOUS
 10
-27.863455
 20
38.892817
 11
-29.319185
 21
37.437088
  0
LINE
  8
曲げ物
  6
CONTINUOUS
 10
7.679505
 20
39.596287
 11
3.984193
 21
35.900975
  0
LINE
  8
曲げ物
  6
CONTINUOUS
 10
6.976035
 20
38.060177
 11
5.520305
 21
36.604448
  0
LINE
  8
曲げ物
  6
CONTINUOUS
 10
6.143395
 20
38.892817
 11
4.687665
 21
37.437088
  0
LINE
  8
曲げ物
  6
CONTINUOUS
 10
116.489623
 20
-83.118728
 11
116.489623
 21
-53.785395
  0
LINE
  8
曲げ物
  6
CONTINUOUS
 10
84.072955
 20
-83.118728
 11
84.072955
 21
-53.785395
  0
LINE
  8
曲げ物
  6
CONTINUOUS
 10
116.489623
 20
-53.785395
 11
84.072955
 21
-53.785395
  0
LINE
  8
曲げ物
  6
CONTINUOUS
 10
116.489623
 20
-83.118728
 11
84.072955
 21
-83.118728
  0
CIRCLE
  8
LAYER010
  6
CONTINUOUS
 62
    47
 10
117.692327
 20
55.813975
 40
0.011113
  0
CIRCLE
  8
LAYER010
  6
CONTINUOUS
 62
    47
 10
117.692327
 20
19.81399
 40
0.011113
  0
CIRCLE
  8
LAYER010
  6
CONTINUOUS
 62
    47
 10
-48.263592
 20
-71.536325
 40
0.011113
  0
CIRCLE
  8
LAYER010
  6
CONTINUOUS
 62
    47
 10
24.403058
 20
-71.536325
 40
0.011113
  0
ENDSEC
  0
EOF
