  0
SECTION
  2
HEADER
  9
$EXTMIN
 10
-210.0
 20
-148.5
  9
$EXTMAX
 10
210.0
 20
148.5
  9
$PDMODE
 70
    32
  9
$PDSIZE
 40
1.5
  9
$LTSCALE
 40
10.0
  0
ENDSEC
  0
SECTION
  2
TABLES
  0
TABLE
  2
LTYPE
 70
    15
  0
LTYPE
  2
CONTINUOUS
 70
    64
  3
実線
 72
    65
 73
     0
 40
0.0
  0
LTYPE
  2
DASHED
 70
    64
  3
破線A
 72
    65
 73
     2
 40
0.6
 49
0.4
 49
-0.2
  0
LTYPE
  2
DASHEDX2
 70
    64
  3
破線B
 72
    65
 73
     2
 40
1.3
 49
0.9
 49
-0.4
  0
LTYPE
  2
DASHDOT
 70
    64
  3
１点鎖線A
 72
    65
 73
     4
 40
0.5375
 49
0.375
 49
-0.05
 49
0.0625
 49
-0.05
  0
LTYPE
  2
DASHDOTX2
 70
    64
  3
１点鎖線B
 72
    65
 73
     4
 40
1.075
 49
0.75
 49
-0.1
 49
0.125
 49
-0.1
  0
LTYPE
  2
DIVIDE2
 70
    64
  3
２点鎖線A
 72
    65
 73
     6
 40
0.5125
 49
0.3
 49
-0.0375
 49
0.05
 49
-0.0375
 49
0.05
 49
-0.0375
  0
LTYPE
  2
DIVIDE
 70
    64
  3
２点鎖線B
 72
    65
 73
     6
 40
1.05
 49
0.55
 49
-0.1
 49
0.1
 49
-0.1
 49
0.1
 49
-0.1
  0
LTYPE
  2
DOT
 70
    64
  3
点線A
 72
    65
 73
     2
 40
0.1125
 49
0.0625
 49
-0.05
  0
LTYPE
  2
DOTX2
 70
    64
  3
点線B
 72
    65
 73
     2
 40
0.275
 49
0.15
 49
-0.125
  0
LTYPE
  2
CONTINUOUS
 70
    64
  3
実線
 72
    65
 73
     0
 40
0.0
  0
LTYPE
  2
CONTINUOUS
 70
    64
  3
実線
 72
    65
 73
     0
 40
0.0
  0
LTYPE
  2
CONTINUOUS
 70
    64
  3
実線
 72
    65
 73
     0
 40
0.0
  0
LTYPE
  2
CONTINUOUS
 70
    64
  3
実線
 72
    65
 73
     0
 40
0.0
  0
LTYPE
  2
CONTINUOUS
 70
    64
  3
実線
 72
    65
 73
     0
 40
0.0
  0
LTYPE
  2
CONTINUOUS
 70
    64
  3
実線
 72
    65
 73
     0
 40
0.0
  0
ENDTAB
  0
TABLE
  2
LAYER
 70
    35
  0
LAYER
  2
通り芯
 70
     0
 62
    15
  6
CONTINUOUS
  0
LAYER
  2
補助線
 70
     0
 62
    16
  6
DOT
  0
LAYER
  2
躯体
 70
     0
 62
    31
  6
CONTINUOUS
  0
LAYER
  2
型材
 70
     0
 62
    32
  6
CONTINUOUS
  0
LAYER
  2
型材断面
 70
     0
 62
    47
  6
CONTINUOUS
  0
LAYER
  2
ガラス
 70
     0
 62
    48
  6
CONTINUOUS
  0
LAYER
  2
ゴム等
 70
     0
 62
    63
  6
CONTINUOUS
  0
LAYER
  2
ボルト／ビス
 70
     0
 62
    64
  6
CONTINUOUS
  0
LAYER
  2
文字
 70
     0
 62
    79
  6
CONTINUOUS
  0
LAYER
  2
寸法
 70
     0
 62
    80
  6
CONTINUOUS
  0
LAYER
  2
ﾊｯﾁﾝｸﾞ
 70
     0
 62
    95
  6
CONTINUOUS
  0
LAYER
  2
別途部材
 70
     0
 62
    96
  6
CONTINUOUS
  0
LAYER
  2
曲げ物
 70
     0
 62
   111
  6
CONTINUOUS
  0
LAYER
  2
鉄骨等
 70
     0
 62
   112
  6
CONTINUOUS
  0
LAYER
  2
St
 70
     0
 62
   127
  6
CONTINUOUS
  0
LAYER
  2
その他部品等
 70
     0
 62
   128
  6
CONTINUOUS
  0
LAYER
  2
ｶﾞｽｹｯﾄ
 70
     0
 62
   143
  6
CONTINUOUS
  0
LAYER
  2
ｽｹｯﾁ
 70
     0
 62
    14
  6
CONTINUOUS
  0
LAYER
  2
0
 70
     0
 62
    17
  6
CONTINUOUS
  0
LAYER
  2
1
 70
     0
 62
    30
  6
CONTINUOUS
  0
LAYER
  2
4
 70
     0
 62
    33
  6
CONTINUOUS
  0
LAYER
  2
ﾚｲﾔ3
 70
     0
 62
    46
  6
CONTINUOUS
  0
LAYER
  2
外形線
 70
     0
 62
    49
  6
CONTINUOUS
  0
LAYER
  2
部品
 70
     0
 62
    14
  6
CONTINUOUS
  0
LAYER
  2
サッシ芯
 70
     0
 62
    17
  6
DASHDOTX2
  0
LAYER
  2
寸法線
 70
     0
 62
    62
  6
CONTINUOUS
  0
LAYER
  2
姿図外形線
 70
     0
 62
    65
  6
CONTINUOUS
  0
LAYER
  2
姿補助線
 70
     0
 62
    30
  6
CONTINUOUS
  0
LAYER
  2
透視線
 70
     0
 62
    78
  6
DOT
  0
LAYER
  2
用紙
 70
     0
 62
    81
  6
CONTINUOUS
  0
LAYER
  2
実線図枠
 70
     0
 62
    94
  6
CONTINUOUS
  0
LAYER
  2
補助図枠
 70
     0
 62
    97
  6
CONTINUOUS
  0
LAYER
  2
建具記号
 70
     0
 62
   110
  6
CONTINUOUS
  0
LAYER
  2
補助文字
 70
     0
 62
   113
  6
CONTINUOUS
  0
LAYER
  2
LAYER010
 70
     0
 62
    11
  6
CONTINUOUS
  0
ENDTAB
  0
TABLE
  2
STYLE
 70
    10
  0
STYLE
  2
STANDARD
 70
     0
 40
1.0
 41
1.0
 42
1.0
 50
0.0
 71
     0
  3
TXT
  4
BIGFONT
  0
STYLE
  2
TATE
 70
     4
 40
1.0
 41
1.0
 42
1.0
 50
0.0
 71
     0
  3
TXT
  4
BIGFONT
  0
STYLE
  2
TextStyle03
 70
     0
 40
1.0
 41
1.0
 42
1.0
 50
0.0
 71
     0
  3
MONOTXT
  4
BIGFONT
  0
STYLE
  2
TextStyle04
 70
     0
 40
1.0
 41
1.0
 42
1.0
 50
0.0
 71
     0
  3
MONOTXT
  4
BIGFONT
  0
STYLE
  2
TextStyle05
 70
     0
 40
1.0
 41
1.0
 42
1.0
 50
0.0
 71
     0
  3
MONOTXT
  4
BIGFONT
  0
STYLE
  2
TextStyle06
 70
     0
 40
1.0
 41
1.0
 42
1.0
 50
0.0
 71
     0
  3
MONOTXT
  4
BIGFONT
  0
STYLE
  2
TextStyle07
 70
     0
 40
1.0
 41
1.0
 42
1.0
 50
0.0
 71
     0
  3
MONOTXT
  4
BIGFONT
  0
STYLE
  2
TextStyle08
 70
     0
 40
1.0
 41
1.0
 42
1.0
 50
0.0
 71
     0
  3
MONOTXT
  4
BIGFONT
  0
STYLE
  2
TextStyle09
 70
     0
 40
1.0
 41
1.0
 42
1.0
 50
0.0
 71
     0
  3
MONOTXT
  4
BIGFONT
  0
STYLE
  2
TextStyle10
 70
     0
 40
1.0
 41
1.0
 42
1.0
 50
0.0
 71
     0
  3
MONOTXT
  4
BIGFONT
  0
ENDTAB
  0
ENDSEC
  0
SECTION
  2
BLOCKS
  0
BLOCK
  2
*GRP_0001
 70
    65
 10
0.0
 20
0.0
  0
LINE
  8
型材断面
  6
CONTINUOUS
 10
195.0
 20
133.5
 11
195.0
 21
-133.5
  0
LINE
  8
型材断面
  6
CONTINUOUS
 10
195.0
 20
-133.5
 11
-185.0
 21
-133.5
  0
LINE
  8
型材断面
  6
CONTINUOUS
 10
-185.0
 20
-133.5
 11
-185.0
 21
133.5
  0
LINE
  8
型材断面
  6
CONTINUOUS
 10
195.0
 20
133.5
 11
-185.0
 21
133.5
  0
LINE
  8
型材断面
  6
CONTINUOUS
 10
145.0
 20
-133.5
 11
145.0
 21
-118.5
  0
LINE
  8
型材断面
  6
CONTINUOUS
 10
195.0
 20
-118.5
 11
145.0
 21
-118.5
  0
ENDBLK
  0
BLOCK
  2
*DIM_0002
 70
    65
 10
0.0
 20
0.0
  0
LINE
  8
寸法
  6
BYBLOCK
 62
     0
 10
-61.930265
 20
-13.511205
 11
-61.930265
 21
-13.121378
  0
LINE
  8
寸法
  6
BYBLOCK
 62
     0
 10
21.403067
 20
-13.121378
 11
-61.930265
 21
-13.121378
  0
POINT
  8
寸法
 62
     0
 10
21.403067
 20
-13.121378
  0
POINT
  8
寸法
 62
     0
 10
-61.930265
 20
-13.121378
  0
TEXT
  7
TextStyle03
  8
寸法
  6
CONTINUOUS
 62
     0
 10
-31.99375
 20
-12.75
  1
呼称寸法　2500
 40
3.0
 72
     5
 11
-8.55625
 21
-12.75
  0
ENDBLK
  0
BLOCK
  2
*DIM_0003
 70
    65
 10
0.0
 20
0.0
  0
LINE
  8
寸法
  6
BYBLOCK
 62
     0
 10
-45.263598
 20
19.183902
 11
-45.263598
 21
14.01842
  0
LINE
  8
寸法
  6
BYBLOCK
 62
     0
 10
4.736398
 20
19.183902
 11
4.736398
 21
14.01842
  0
LINE
  8
寸法
  6
BYBLOCK
 62
     0
 10
-45.263598
 20
14.01842
 11
4.736398
 21
14.01842
  0
POINT
  8
寸法
 62
     0
 10
-45.263598
 20
14.01842
  0
POINT
  8
寸法
 62
     0
 10
4.736398
 20
14.01842
  0
TEXT
  7
TextStyle03
  8
寸法
  6
CONTINUOUS
 62
     0
 10
-23.55625
 20
14.375
  1
1500
 40
3.0
 72
     5
 11
-16.99375
 21
14.375
  0
ENDBLK
  0
BLOCK
  2
*DIM_0004
 70
    65
 10
0.0
 20
0.0
  0
LINE
  8
寸法
  6
BYBLOCK
 62
     0
 10
24.403112
 20
-69.576397
 11
24.403112
 21
-13.121378
  0
LINE
  8
寸法
  6
BYBLOCK
 62
     0
 10
21.403067
 20
-13.121378
 11
24.403112
 21
-13.121378
  0
POINT
  8
寸法
 62
     0
 10
21.403067
 20
-13.121378
  0
POINT
  8
寸法
 62
     0
 10
24.403112
 20
-13.121378
  0
TEXT
  7
TextStyle03
  8
寸法
  6
CONTINUOUS
 62
     0
 10
21.30625
 20
-12.75
  1
90
 40
3.0
 72
     5
 11
24.49375
 21
-12.75
  0
ENDBLK
  0
BLOCK
  2
*DIM_0005
 70
    65
 10
0.0
 20
0.0
  0
LINE
  8
寸法
  6
BYBLOCK
 62
     0
 10
-64.930313
 20
-69.576397
 11
-64.930313
 21
-13.121378
  0
LINE
  8
寸法
  6
BYBLOCK
 62
     0
 10
-61.930267
 20
-13.121378
 11
-64.930313
 21
-13.121378
  0
POINT
  8
寸法
 62
     0
 10
-61.930267
 20
-13.121378
  0
POINT
  8
寸法
 62
     0
 10
-64.930313
 20
-13.121378
  0
TEXT
  7
TextStyle03
  8
寸法
  6
CONTINUOUS
 62
     0
 10
-65.04375
 20
-12.75
  1
90
 40
3.0
 72
     5
 11
-61.85625
 21
-12.75
  0
ENDBLK
  0
BLOCK
  2
*DIM_0006
 70
    65
 10
0.0
 20
0.0
  0
LINE
  8
寸法
  6
BYBLOCK
 62
     0
 10
117.489623
 20
-53.785395
 11
125.547912
 21
-53.785395
  0
LINE
  8
寸法
  6
BYBLOCK
 62
     0
 10
117.489623
 20
-83.118728
 11
125.547912
 21
-83.118728
  0
LINE
  8
寸法
  6
BYBLOCK
 62
     0
 10
125.547912
 20
-53.785395
 11
125.547912
 21
-83.118728
  0
POINT
  8
寸法
 62
     0
 10
125.547912
 20
-53.785395
  0
POINT
  8
寸法
 62
     0
 10
125.547912
 20
-83.118728
  0
TEXT
  7
TextStyle03
  8
寸法
  6
CONTINUOUS
 62
     0
 10
125.225
 20
-70.9125
  1
880
 40
3.0
 50
90.0
 72
     5
 11
125.225
 21
-66.0375
  0
ENDBLK
  0
BLOCK
  2
*DIM_0007
 70
    65
 10
0.0
 20
0.0
  0
LINE
  8
寸法
  6
BYBLOCK
 62
     0
 10
-64.930265
 20
47.814033
 11
-78.223103
 21
47.814033
  0
LINE
  8
寸法
  6
BYBLOCK
 62
     0
 10
-64.930265
 20
27.814033
 11
-78.223103
 21
27.814033
  0
LINE
  8
寸法
  6
BYBLOCK
 62
     0
 10
-78.223103
 20
47.814033
 11
-78.223103
 21
27.814033
  0
POINT
  8
寸法
 62
     0
 10
-78.223103
 20
47.814033
  0
POINT
  8
寸法
 62
     0
 10
-78.223103
 20
27.814033
  0
TEXT
  7
TextStyle03
  8
寸法
  6
CONTINUOUS
 62
     0
 10
-78.6
 20
35.3625
  1
600
 40
3.0
 50
90.0
 72
     5
 11
-78.6
 21
40.2375
  0
ENDBLK
  0
BLOCK
  2
*DIM_0008
 70
    65
 10
0.0
 20
0.0
  0
LINE
  8
寸法
  6
BYBLOCK
 62
     0
 10
-55.2636
 20
55.814033
 11
-55.2636
 21
85.561652
  0
LINE
  8
寸法
  6
BYBLOCK
 62
     0
 10
-31.930267
 20
55.814033
 11
-31.930267
 21
85.561652
  0
LINE
  8
寸法
  6
BYBLOCK
 62
     0
 10
-55.2636
 20
85.561652
 11
-31.930267
 21
85.561652
  0
POINT
  8
寸法
 62
     0
 10
-55.2636
 20
85.561652
  0
POINT
  8
寸法
 62
     0
 10
-31.930267
 20
85.561652
  0
TEXT
  7
TextStyle03
  8
寸法
  6
CONTINUOUS
 62
     0
 10
-46.0375
 20
85.95
  1
700
 40
3.0
 72
     5
 11
-41.1625
 21
85.95
  0
ENDBLK
  0
BLOCK
  2
*DIM_0009
 70
    65
 10
0.0
 20
0.0
  0
LINE
  8
寸法
  6
BYBLOCK
 62
     0
 10
-8.596933
 20
55.814033
 11
-8.596933
 21
85.561652
  0
LINE
  8
寸法
  6
BYBLOCK
 62
     0
 10
-31.930267
 20
85.561652
 11
-8.596933
 21
85.561652
  0
POINT
  8
寸法
 62
     0
 10
-8.596933
 20
85.561652
  0
TEXT
  7
TextStyle03
  8
寸法
  6
CONTINUOUS
 62
     0
 10
-22.7125
 20
85.95
  1
700
 40
3.0
 72
     5
 11
-17.8375
 21
85.95
  0
ENDBLK
  0
BLOCK
  2
*DIM_0010
 70
    65
 10
0.0
 20
0.0
  0
LINE
  8
寸法
  6
BYBLOCK
 62
     0
 10
14.7364
 20
55.814033
 11
14.7364
 21
85.561652
  0
LINE
  8
寸法
  6
BYBLOCK
 62
     0
 10
-8.596933
 20
85.561652
 11
14.7364
 21
85.561652
  0
POINT
  8
寸法
 62
     0
 10
14.7364
 20
85.561652
  0
TEXT
  7
TextStyle03
  8
寸法
  6
CONTINUOUS
 62
     0
 10
0.6375
 20
85.95
  1
700
 40
3.0
 72
     5
 11
5.5125
 21
85.95
  0
ENDBLK
  0
BLOCK
  2
*DIM_0011
 70
    65
 10
0.0
 20
0.0
  0
LINE
  8
寸法
  6
CONTINUOUS
 10
116.84193
 20
66.45319
 11
120.158598
 21
66.45319
  0
POINT
  8
寸法
 10
116.84193
 20
66.45319
  0
POINT
  8
寸法
 10
120.158598
 20
66.45319
  0
TEXT
  7
TextStyle03
  8
寸法
  6
CONTINUOUS
 10
115.09375
 20
66.65
  1
99.5
 40
3.0
 72
     5
 11
121.65625
 21
66.65
  0
ENDBLK
  0
BLOCK
  2
*DIM_0012
 70
    65
 10
0.0
 20
0.0
  0
LINE
  8
寸法
  6
CONTINUOUS
 10
35.042277
 20
-68.817685
 11
35.042277
 21
-72.134353
  0
POINT
  8
寸法
 10
35.042277
 20
-68.817685
  0
POINT
  8
寸法
 10
35.042277
 20
-72.134353
  0
TEXT
  7
TextStyle03
  8
寸法
  6
CONTINUOUS
 10
38.175
 20
-73.63125
  1
99.5
 40
3.0
 50
90.0
 72
     5
 11
38.175
 21
-67.06875
  0
ENDBLK
  0
BLOCK
  2
*DIM_0013
 70
    65
 10
0.0
 20
0.0
  0
LINE
  8
寸法
  6
CONTINUOUS
 10
116.489623
 20
-45.667035
 11
75.722955
 21
-45.667035
  0
POINT
  8
寸法
 10
116.489623
 20
-45.667035
  0
POINT
  8
寸法
 10
75.722955
 20
-45.667035
  0
TEXT
  7
TextStyle03
  8
寸法
  6
CONTINUOUS
 10
92.81875
 20
-45.325
  1
1223
 40
3.0
 72
     5
 11
99.38125
 21
-45.325
  0
ENDBLK
  0
ENDSEC
  0
SECTION
  2
ENTITIES
  0
POLYLINE
  8
通り芯
  6
CONTINUOUS
 66
     1
 70
     1
  0
VERTEX
  8
通り芯
 10
-210.0
 20
-148.5
  0
VERTEX
  8
通り芯
 10
210.0
 20
-148.5
  0
VERTEX
  8
通り芯
 10
210.0
 20
148.5
  0
VERTEX
  8
通り芯
 10
-210.0
 20
148.5
  0
SEQEND
  0
INSERT
  2
*GRP_0001
  8
型材断面
  6
CONTINUOUS
 10
0.0
 20
0.0
  0
LINE
  8
型材断面
  6
DASHDOT
 10
21.403067
 20
-77.836442
 11
21.403067
 21
52.814033
  0
LINE
  8
型材断面
  6
DASHDOT
 10
-20.2636
 20
-77.836442
 11
-20.2636
 21
52.814033
  0
LINE
  8
型材断面
  6
DASHDOT
 10
-61.930265
 20
-77.836442
 11
-61.930265
 21
52.814033
  0
LINE
  8
型材断面
  6
DASHDOT
 10
-20.2636
 20
22.814033
 11
-20.2636
 21
52.814033
  0
LINE
  8
型材断面
  6
CONTINUOUS
 10
-45.263598
 20
55.444162
 11
-46.759227
 21
58.03467
  0
LINE
  8
型材断面
  6
CONTINUOUS
 10
-45.263598
 20
55.444162
 11
-43.767968
 21
58.03467
  0
LINE
  8
型材断面
  6
CONTINUOUS
 10
-43.767968
 20
58.03467
 11
-46.759227
 21
58.03467
  0
LINE
  8
型材断面
  6
CONTINUOUS
 10
-64.560395
 20
37.814033
 11
-67.150903
 21
39.309663
  0
LINE
  8
型材断面
  6
CONTINUOUS
 10
-64.560395
 20
37.814033
 11
-67.150903
 21
36.318403
  0
LINE
  8
型材断面
  6
CONTINUOUS
 10
-67.150903
 20
36.318403
 11
-67.150903
 21
39.309663
  0
LINE
  8
型材断面
  6
CONTINUOUS
 10
-45.263598
 20
20.183902
 11
-46.759227
 21
17.593395
  0
LINE
  8
型材断面
  6
CONTINUOUS
 10
-45.263598
 20
20.183902
 11
-43.767968
 21
17.593395
  0
LINE
  8
型材断面
  6
CONTINUOUS
 10
-43.767968
 20
17.593395
 11
-46.759227
 21
17.593395
  0
LINE
  8
型材断面
  6
CONTINUOUS
 10
-115.808788
 20
97.32138
 11
-117.304418
 21
94.730873
  0
LINE
  8
型材断面
  6
CONTINUOUS
 10
-115.808788
 20
97.32138
 11
-114.313158
 21
94.730873
  0
LINE
  8
型材断面
  6
CONTINUOUS
 10
-114.313158
 20
94.730873
 11
-117.304418
 21
94.730873
  0
LINE
  8
型材断面
  6
CONTINUOUS
 10
-121.831375
 20
93.792277
 11
-75.589598
 21
93.792277
  0
LINE
  8
型材断面
  6
CONTINUOUS
 10
4.736398
 20
55.444162
 11
6.232028
 21
58.03467
  0
LINE
  8
型材断面
  6
CONTINUOUS
 10
4.736398
 20
55.444162
 11
3.240768
 21
58.03467
  0
LINE
  8
型材断面
  6
CONTINUOUS
 10
3.240768
 20
58.03467
 11
6.232028
 21
58.03467
  0
LINE
  8
型材断面
  6
CONTINUOUS
 10
24.033195
 20
37.814033
 11
26.623703
 21
39.309663
  0
LINE
  8
型材断面
  6
CONTINUOUS
 10
24.033195
 20
37.814033
 11
26.623703
 21
36.318403
  0
LINE
  8
型材断面
  6
CONTINUOUS
 10
26.623703
 20
36.318403
 11
26.623703
 21
39.309663
  0
LINE
  8
型材断面
  6
CONTINUOUS
 10
4.736398
 20
20.183902
 11
6.232028
 21
17.593395
  0
LINE
  8
型材断面
  6
CONTINUOUS
 10
4.736398
 20
20.183902
 11
3.240768
 21
17.593395
  0
LINE
  8
型材断面
  6
CONTINUOUS
 10
3.240768
 20
17.593395
 11
6.232028
 21
17.593395
  0
LINE
  8
型材断面
  6
CONTINUOUS
 10
-121.831375
 20
88.160932
 11
-75.589598
 21
88.160932
  0
LINE
  8
型材断面
  6
CONTINUOUS
 10
-64.930313
 20
19.81399
 11
-20.2636
 21
19.81399
  0
LINE
  8
型材断面
  6
CONTINUOUS
 10
-64.930313
 20
55.814075
 11
-20.2636
 21
55.814075
  0
LINE
  8
型材断面
  6
CONTINUOUS
 10
24.403112
 20
55.814075
 11
-20.2636
 21
55.814075
  0
LINE
  8
型材断面
  6
CONTINUOUS
 10
24.403112
 20
19.81399
 11
-20.2636
 21
19.81399
  0
CIRCLE
  8
型材断面
  6
CONTINUOUS
 62
    47
 10
119.6586
 20
55.813975
 40
0.011113
  0
LINE
  8
型材断面
  6
CONTINUOUS
 62
    47
 10
120.158598
 20
55.313983
 11
120.158598
 21
55.813975
  0
LINE
  8
型材断面
  6
CONTINUOUS
 62
    47
 10
120.158598
 20
55.813975
 11
119.6586
 21
55.813975
  0
LINE
  8
型材断面
  6
CONTINUOUS
 62
    47
 10
119.6586
 20
55.813975
 11
119.16142
 21
52.880643
  0
LINE
  8
型材断面
  6
CONTINUOUS
 62
    47
 10
120.158598
 20
55.313983
 11
120.658598
 21
55.313983
  0
LINE
  8
型材断面
  6
CONTINUOUS
 62
    47
 10
119.16142
 20
52.880643
 11
118.508597
 21
52.880643
  0
CIRCLE
  8
型材断面
  6
CONTINUOUS
 62
    47
 10
119.6586
 20
19.81399
 40
0.011113
  0
LINE
  8
型材断面
  6
CONTINUOUS
 62
    47
 10
120.158598
 20
20.313983
 11
120.158598
 21
19.81399
  0
LINE
  8
型材断面
  6
CONTINUOUS
 62
    47
 10
120.158598
 20
19.81399
 11
119.6586
 21
19.81399
  0
LINE
  8
型材断面
  6
CONTINUOUS
 62
    47
 10
119.6586
 20
19.81399
 11
119.16142
 21
22.747322
  0
LINE
  8
型材断面
  6
CONTINUOUS
 62
    47
 10
120.158598
 20
20.313983
 11
120.658598
 21
20.313983
  0
LINE
  8
型材断面
  6
CONTINUOUS
 62
    47
 10
119.16142
 20
22.747322
 11
118.508597
 21
22.747322
  0
LINE
  8
型材断面
  6
CONTINUOUS
 62
    47
 10
117.008597
 20
54.460445
 11
117.008597
 21
37.813983
  0
LINE
  8
型材断面
  6
CONTINUOUS
 62
    47
 10
116.84193
 20
54.303923
 11
116.84193
 21
37.813983
  0
LINE
  8
型材断面
  6
CONTINUOUS
 62
    47
 10
118.508597
 20
54.303923
 11
118.508597
 21
37.813983
  0
LINE
  8
型材断面
  6
CONTINUOUS
 10
119.16142
 20
52.880695
 11
119.16142
 21
37.813983
  0
LINE
  8
型材断面
  6
CONTINUOUS
 10
119.658603
 20
55.814027
 11
119.658603
 21
37.813983
  0
LINE
  8
型材断面
  6
CONTINUOUS
 62
    47
 10
120.158598
 20
55.814027
 11
120.158598
 21
37.813983
  0
LINE
  8
型材断面
  6
CONTINUOUS
 10
120.658598
 20
55.314038
 11
120.658598
 21
37.813983
  0
LINE
  8
型材断面
  6
CONTINUOUS
 10
120.658598
 20
20.313927
 11
120.658598
 21
37.813983
  0
LINE
  8
型材断面
  6
CONTINUOUS
 10
119.658603
 20
19.813938
 11
119.658603
 21
37.813983
  0
LINE
  8
型材断面
  6
CONTINUOUS
 62
    47
 10
120.158598
 20
19.813938
 11
120.158598
 21
37.813983
  0
LINE
  8
型材断面
  6
CONTINUOUS
 10
119.16142
 20
22.74727
 11
119.16142
 21
37.813983
  0
LINE
  8
型材断面
  6
CONTINUOUS
 62
    47
 10
118.508597
 20
21.324042
 11
118.508597
 21
37.813983
  0
LINE
  8
型材断面
  6
CONTINUOUS
 62
    47
 10
117.008597
 20
21.16752
 11
117.008597
 21
37.813983
  0
LINE
  8
型材断面
  6
CONTINUOUS
 62
    47
 10
116.84193
 20
21.324042
 11
116.84193
 21
37.813983
  0
LINE
  8
型材断面
  6
DASHDOT
 10
-61.930265
 20
37.814033
 11
127.634607
 21
37.814033
  0
CIRCLE
  8
型材断面
  6
CONTINUOUS
 62
    47
 10
-64.930257
 20
-71.634355
 40
0.011113
  0
LINE
  8
型材断面
  6
CONTINUOUS
 62
    47
 10
-64.430265
 20
-72.134353
 11
-64.930257
 21
-72.134353
  0
LINE
  8
型材断面
  6
CONTINUOUS
 62
    47
 10
-64.930257
 20
-72.134353
 11
-64.930257
 21
-71.634355
  0
LINE
  8
型材断面
  6
CONTINUOUS
 62
    47
 10
-64.930257
 20
-71.634355
 11
-61.996925
 21
-71.137175
  0
LINE
  8
型材断面
  6
CONTINUOUS
 62
    47
 10
-64.430265
 20
-72.134353
 11
-64.430265
 21
-72.634353
  0
LINE
  8
型材断面
  6
CONTINUOUS
 62
    47
 10
-61.996925
 20
-71.137175
 11
-61.996925
 21
-70.484353
  0
CIRCLE
  8
型材断面
  6
CONTINUOUS
 62
    47
 10
24.40306
 20
-71.634355
 40
0.011113
  0
LINE
  8
型材断面
  6
CONTINUOUS
 62
    47
 10
23.903067
 20
-72.134353
 11
24.40306
 21
-72.134353
  0
LINE
  8
型材断面
  6
CONTINUOUS
 62
    47
 10
24.40306
 20
-72.134353
 11
24.40306
 21
-71.634355
  0
LINE
  8
型材断面
  6
CONTINUOUS
 62
    47
 10
24.40306
 20
-71.634355
 11
21.469728
 21
-71.137175
  0
LINE
  8
型材断面
  6
CONTINUOUS
 62
    47
 10
23.903067
 20
-72.134353
 11
23.903067
 21
-72.634353
  0
LINE
  8
型材断面
  6
CONTINUOUS
 62
    47
 10
21.469728
 20
-71.137175
 11
21.469728
 21
-70.484353
  0
LINE
  8
型材断面
  6
CONTINUOUS
 10
-64.93031
 20
-71.634357
 11
-20.263598
 21
-71.634357
  0
LINE
  8
型材断面
  6
CONTINUOUS
 62
    47
 10
-63.420205
 20
-70.484353
 11
-20.263598
 21
-70.484353
  0
LINE
  8
型材断面
  6
CONTINUOUS
 10
-61.996977
 20
-71.137175
 11
-20.263598
 21
-71.137175
  0
LINE
  8
型材断面
  6
CONTINUOUS
 62
    47
 10
-64.93031
 20
-72.134353
 11
-20.263598
 21
-72.134353
  0
LINE
  8
型材断面
  6
CONTINUOUS
 10
-64.43032
 20
-72.634353
 11
-20.263598
 21
-72.634353
  0
LINE
  8
型材断面
  6
CONTINUOUS
 62
    47
 10
-63.576728
 20
-68.984353
 11
-20.263598
 21
-68.984353
  0
LINE
  8
型材断面
  6
CONTINUOUS
 62
    47
 10
-63.420205
 20
-68.817685
 11
-20.263598
 21
-68.817685
  0
LINE
  8
型材断面
  6
CONTINUOUS
 62
    47
 10
24.403112
 20
-72.134353
 11
-20.263598
 21
-72.134353
  0
LINE
  8
型材断面
  6
CONTINUOUS
 10
23.903123
 20
-72.634353
 11
-20.263598
 21
-72.634353
  0
LINE
  8
型材断面
  6
CONTINUOUS
 10
24.403112
 20
-71.634357
 11
-20.263598
 21
-71.634357
  0
LINE
  8
型材断面
  6
CONTINUOUS
 10
21.469782
 20
-71.137175
 11
-20.263598
 21
-71.137175
  0
LINE
  8
型材断面
  6
CONTINUOUS
 62
    47
 10
22.893008
 20
-70.484353
 11
-20.263598
 21
-70.484353
  0
LINE
  8
型材断面
  6
CONTINUOUS
 62
    47
 10
23.04953
 20
-68.984353
 11
-20.263598
 21
-68.984353
  0
LINE
  8
型材断面
  6
CONTINUOUS
 62
    47
 10
22.893008
 20
-68.817685
 11
-20.263598
 21
-68.817685
  0
LINE
  8
型材断面
  6
DASHDOT
 10
127.634607
 20
22.813983
 11
-61.930265
 21
22.813983
  0
LINE
  8
型材断面
  6
DASHDOT
 10
127.634607
 20
52.813983
 11
-61.930265
 21
52.813983
  0
LINE
  8
型材断面
  6
CONTINUOUS
 10
-40.680267
 20
51.960445
 11
0.153067
 21
51.960445
  0
LINE
  8
型材断面
  6
CONTINUOUS
 10
-40.680267
 20
23.66762
 11
0.153067
 21
23.66762
  0
LINE
  8
型材断面
  6
CONTINUOUS
 10
-19.0136
 20
24.500952
 11
-19.0136
 21
51.127112
  0
LINE
  8
型材断面
  6
CONTINUOUS
 10
-21.5136
 20
24.500952
 11
-21.5136
 21
51.127112
  0
LINE
  8
型材断面
  6
CONTINUOUS
 10
24.403115
 20
55.814075
 11
24.403115
 21
37.81403
  0
LINE
  8
型材断面
  6
CONTINUOUS
 10
24.403115
 20
19.81399
 11
24.403115
 21
37.814035
  0
LINE
  8
型材断面
  6
CONTINUOUS
 10
22.81383
 20
21.16752
 11
23.04953
 21
21.40322
  0
LINE
  8
型材断面
  6
CONTINUOUS
 10
24.403115
 20
19.81399
 11
22.931708
 21
21.285397
  0
LINE
  8
型材断面
  6
CONTINUOUS
 10
20.31383
 20
23.66752
 11
20.54953
 21
23.90322
  0
LINE
  8
型材断面
  6
CONTINUOUS
 10
20.54953
 20
23.90322
 11
23.049527
 21
21.403223
  0
LINE
  8
型材断面
  6
CONTINUOUS
 10
20.31383
 20
23.66752
 11
22.813727
 21
21.167622
  0
LINE
  8
型材断面
  6
CONTINUOUS
 10
20.549527
 20
37.397365
 11
20.549527
 21
23.903218
  0
LINE
  8
型材断面
  6
CONTINUOUS
 10
22.81383
 20
54.460545
 11
23.04953
 21
54.224845
  0
LINE
  8
型材断面
  6
CONTINUOUS
 10
24.403115
 20
55.814075
 11
22.931708
 21
54.342668
  0
LINE
  8
型材断面
  6
CONTINUOUS
 10
20.31383
 20
51.960545
 11
20.54953
 21
51.724845
  0
LINE
  8
型材断面
  6
CONTINUOUS
 10
20.54953
 20
51.724845
 11
23.049527
 21
54.224842
  0
LINE
  8
型材断面
  6
CONTINUOUS
 10
20.31383
 20
51.960545
 11
22.813727
 21
54.460442
  0
LINE
  8
型材断面
  6
CONTINUOUS
 10
20.549527
 20
38.2307
 11
20.549527
 21
51.724848
  0
LINE
  8
型材断面
  6
CONTINUOUS
 10
23.049527
 20
21.403223
 11
23.049527
 21
54.224842
  0
LINE
  8
型材断面
  6
CONTINUOUS
 10
0.986403
 20
51.960445
 11
20.31373
 21
51.960445
  0
LINE
  8
型材断面
  6
CONTINUOUS
 10
0.986403
 20
23.66762
 11
20.31373
 21
23.66762
  0
LINE
  8
型材断面
  6
CONTINUOUS
 10
-64.930315
 20
55.814075
 11
-64.930315
 21
37.81403
  0
LINE
  8
型材断面
  6
CONTINUOUS
 10
-64.930315
 20
19.81399
 11
-64.930315
 21
37.814035
  0
LINE
  8
型材断面
  6
CONTINUOUS
 10
-63.34103
 20
21.16752
 11
-63.57673
 21
21.40322
  0
LINE
  8
型材断面
  6
CONTINUOUS
 10
-64.930315
 20
19.81399
 11
-63.458907
 21
21.285397
  0
LINE
  8
型材断面
  6
CONTINUOUS
 10
-60.84103
 20
23.66752
 11
-61.07673
 21
23.90322
  0
LINE
  8
型材断面
  6
CONTINUOUS
 10
-61.07673
 20
23.90322
 11
-63.576728
 21
21.403223
  0
LINE
  8
型材断面
  6
CONTINUOUS
 10
-60.84103
 20
23.66752
 11
-63.340927
 21
21.167622
  0
LINE
  8
型材断面
  6
CONTINUOUS
 10
-61.076728
 20
37.397365
 11
-61.076728
 21
23.903218
  0
LINE
  8
型材断面
  6
CONTINUOUS
 10
-63.34103
 20
54.460545
 11
-63.57673
 21
54.224845
  0
LINE
  8
型材断面
  6
CONTINUOUS
 10
-64.930315
 20
55.814075
 11
-63.458907
 21
54.342668
  0
LINE
  8
型材断面
  6
CONTINUOUS
 10
-60.84103
 20
51.960545
 11
-61.07673
 21
51.724845
  0
LINE
  8
型材断面
  6
CONTINUOUS
 10
-61.07673
 20
51.724845
 11
-63.576728
 21
54.224842
  0
LINE
  8
型材断面
  6
CONTINUOUS
 10
-60.84103
 20
51.960545
 11
-63.340927
 21
54.460442
  0
LINE
  8
型材断面
  6
CONTINUOUS
 10
-61.076728
 20
38.2307
 11
-61.076728
 21
51.724848
  0
LINE
  8
型材断面
  6
CONTINUOUS
 10
-63.576728
 20
21.403223
 11
-63.576728
 21
54.224842
  0
LINE
  8
型材断面
  6
CONTINUOUS
 10
-41.513602
 20
23.66762
 11
-60.84093
 21
23.66762
  0
LINE
  8
型材断面
  6
CONTINUOUS
 10
22.81373
 20
21.16762
 11
-63.34093
 21
21.16762
  0
LINE
  8
型材断面
  6
CONTINUOUS
 10
-41.513602
 20
51.960445
 11
-60.84093
 21
51.960445
  0
LINE
  8
型材断面
  6
CONTINUOUS
 10
22.81373
 20
54.460445
 11
-63.34093
 21
54.460445
  0
TEXT
  7
TextStyle03
  8
文字
  6
CONTINUOUS
 10
-113.025
 20
94.925
  1
は排水穴位置を示す
 40
3.0
 72
     5
 11
-83.025
 21
94.925
  0
TEXT
  7
TextStyle03
  8
文字
  6
CONTINUOUS
 10
61.275
 20
104.525
  1
ＮＳコード：ＮＳＦＫＺ
 40
5.0
 72
     5
 11
122.525
 21
104.525
  0
TEXT
  7
TextStyle03
  8
文字
  6
CONTINUOUS
 10
97.975
 20
-76.7
  1
網入り6.8t
 40
3.0
 72
     5
 11
114.6625
 21
-76.7
  0
TEXT
  7
TextStyle03
  8
文字
  6
CONTINUOUS
 10
104.65
 20
-81.375
  1
×２枚
 40
3.0
 72
     5
 11
114.4
 21
-81.375
  0
TEXT
  7
TextStyle03
  8
文字
  6
CONTINUOUS
 10
-82.925
 20
16.275
  1
アンカーピッチ
 40
3.0
 50
90.0
 72
     5
 11
-82.925
 21
39.525
  0
TEXT
  7
TextStyle03
  8
文字
  6
CONTINUOUS
 10
-55.3
 20
90.85
  1
アンカーピッチ
 40
3.0
 72
     5
 11
-32.05
 21
90.85
  0
TEXT
  7
TextStyle03
  8
文字
  6
CONTINUOUS
 10
-116.75
 20
89.075
  1
アンカー数量　１２ヶ所
 40
3.0
 72
     5
 11
-80.0
 21
89.075
  0
LINE
  8
文字
  6
CONTINUOUS
 10
116.84193
 20
66.45319
 11
116.84193
 21
57.100035
  0
LINE
  8
文字
  6
CONTINUOUS
 10
120.158598
 20
66.45319
 11
120.158598
 21
57.165387
  0
LINE
  8
文字
  6
CONTINUOUS
 10
35.042277
 20
-68.817685
 11
25.68912
 21
-68.817685
  0
LINE
  8
文字
  6
CONTINUOUS
 10
35.042277
 20
-72.134353
 11
25.754472
 21
-72.134353
  0
LINE
  8
文字
  6
CONTINUOUS
 10
116.489623
 20
-45.667035
 11
116.489623
 21
-52.202377
  0
LINE
  8
文字
  6
CONTINUOUS
 10
75.722955
 20
-45.667035
 11
75.722955
 21
-52.202377
  0
TEXT
  7
TextStyle03
  8
文字
  6
CONTINUOUS
 10
61.125
 20
125.25
  1
シリーズ：ＴＦ２ＦＫＬ
 40
5.0
 72
     5
 11
122.375
 21
125.25
  0
TEXT
  7
TextStyle03
  8
文字
  6
CONTINUOUS
 10
61.125
 20
119.625
  1
　　　　　（固定）900×2500タイプ
 40
5.0
 72
     5
 11
153.3125
 21
119.625
  0
TEXT
  7
TextStyle03
  8
文字
  6
CONTINUOUS
 10
61.125
 20
114.0
  1
図面名　：外観姿図
 40
5.0
 72
     5
 11
111.125
 21
114.0
  0
TEXT
  7
TextStyle03
  8
文字
  6
CONTINUOUS
 10
61.125
 20
108.375
  1
　　　　　　
 40
5.0
 72
     5
 11
94.25
 21
108.375
  0
LINE
  8
文字
  6
CONTINUOUS
 10
0.986403
 20
23.66762
 11
0.986403
 21
21.16762
  0
LINE
  8
文字
  6
CONTINUOUS
 10
0.153067
 20
23.66762
 11
0.153067
 21
21.16762
  0
LINE
  8
文字
  6
CONTINUOUS
 10
-41.513602
 20
23.66762
 11
-41.513602
 21
21.16762
  0
LINE
  8
文字
  6
CONTINUOUS
 10
-40.680267
 20
23.66762
 11
-40.680267
 21
21.16762
  0
LINE
  8
文字
  6
CONTINUOUS
 10
0.986403
 20
51.960445
 11
0.986403
 21
54.460445
  0
LINE
  8
文字
  6
CONTINUOUS
 10
0.153067
 20
51.960445
 11
0.153067
 21
54.460445
  0
LINE
  8
文字
  6
CONTINUOUS
 10
-41.513602
 20
51.960445
 11
-41.513602
 21
54.460445
  0
LINE
  8
文字
  6
CONTINUOUS
 10
-40.680267
 20
51.960445
 11
-40.680267
 21
54.460445
  0
LINE
  8
文字
  6
CONTINUOUS
 10
-19.0136
 20
24.500952
 11
-21.5136
 21
24.500952
  0
LINE
  8
文字
  6
CONTINUOUS
 10
-19.0136
 20
51.127112
 11
-21.5136
 21
51.127112
  0
LINE
  8
文字
  6
CONTINUOUS
 10
23.049527
 20
37.397365
 11
20.549527
 21
37.397365
  0
LINE
  8
文字
  6
CONTINUOUS
 10
23.049527
 20
38.2307
 11
20.549527
 21
38.2307
  0
LINE
  8
文字
  6
CONTINUOUS
 10
-63.576728
 20
37.397365
 11
-61.076728
 21
37.397365
  0
LINE
  8
文字
  6
CONTINUOUS
 10
-63.576728
 20
38.2307
 11
-61.076728
 21
38.2307
  0
INSERT
  2
*DIM_0002
  8
寸法
  6
CONTINUOUS
 10
0.0
 20
0.0
  0
INSERT
  2
*DIM_0003
  8
寸法
  6
CONTINUOUS
 10
0.0
 20
0.0
  0
INSERT
  2
*DIM_0004
  8
寸法
  6
CONTINUOUS
 10
0.0
 20
0.0
  0
INSERT
  2
*DIM_0005
  8
寸法
  6
CONTINUOUS
 10
0.0
 20
0.0
  0
INSERT
  2
*DIM_0006
  8
寸法
  6
CONTINUOUS
 10
0.0
 20
0.0
  0
INSERT
  2
*DIM_0007
  8
寸法
  6
CONTINUOUS
 10
0.0
 20
0.0
  0
INSERT
  2
*DIM_0008
  8
寸法
  6
CONTINUOUS
 10
0.0
 20
0.0
  0
INSERT
  2
*DIM_0009
  8
寸法
  6
CONTINUOUS
 10
0.0
 20
0.0
  0
INSERT
  2
*DIM_0010
  8
寸法
  6
CONTINUOUS
 10
0.0
 20
0.0
  0
INSERT
  2
*DIM_0011
  8
寸法
  6
CONTINUOUS
 10
0.0
 20
0.0
  0
INSERT
  2
*DIM_0012
  8
寸法
  6
CONTINUOUS
 10
0.0
 20
0.0
  0
INSERT
  2
*DIM_0013
  8
寸法
  6
CONTINUOUS
 10
0.0
 20
0.0
  0
LINE
  8
別途部材
  6
CONTINUOUS
 62
    47
 10
116.94193
 20
54.460445
 11
117.008597
 21
54.460445
  0
ARC
  8
別途部材
  6
CONTINUOUS
 62
    47
 10
116.941928
 20
54.360444
 40
0.1
 50
90.0
 51
180.0
  0
LINE
  8
別途部材
  6
CONTINUOUS
 62
    47
 10
116.84193
 20
54.360445
 11
116.84193
 21
54.303923
  0
LINE
  8
別途部材
  6
CONTINUOUS
 62
    47
 10
118.508597
 20
54.303923
 11
117.008597
 21
54.303923
  0
LINE
  8
別途部材
  6
CONTINUOUS
 62
    47
 10
116.94193
 20
21.16752
 11
117.008597
 21
21.16752
  0
ARC
  8
別途部材
  6
CONTINUOUS
 62
    47
 10
116.941928
 20
21.26752
 40
0.1
 50
180.0
 51
270.0
  0
LINE
  8
別途部材
  6
CONTINUOUS
 62
    47
 10
116.84193
 20
21.26752
 11
116.84193
 21
21.324042
  0
LINE
  8
別途部材
  6
CONTINUOUS
 62
    47
 10
118.508597
 20
21.324042
 11
117.008597
 21
21.324042
  0
LINE
  8
別途部材
  6
CONTINUOUS
 62
    47
 10
-63.576728
 20
-68.917685
 11
-63.576728
 21
-68.984353
  0
ARC
  8
別途部材
  6
CONTINUOUS
 62
    47
 10
-63.476728
 20
-68.917681
 40
0.1
 50
90.0
 51
180.0
  0
LINE
  8
別途部材
  6
CONTINUOUS
 62
    47
 10
-63.476728
 20
-68.817685
 11
-63.420205
 21
-68.817685
  0
LINE
  8
別途部材
  6
CONTINUOUS
 62
    47
 10
-63.420205
 20
-70.484353
 11
-63.420205
 21
-68.984353
  0
LINE
  8
別途部材
  6
CONTINUOUS
 62
    47
 10
23.04953
 20
-68.917685
 11
23.04953
 21
-68.984353
  0
ARC
  8
別途部材
  6
CONTINUOUS
 62
    47
 10
22.949529
 20
-68.917681
 40
0.1
 50
0.0
 51
90.0
  0
LINE
  8
別途部材
  6
CONTINUOUS
 62
    47
 10
22.94953
 20
-68.817685
 11
22.893008
 21
-68.817685
  0
LINE
  8
別途部材
  6
CONTINUOUS
 62
    47
 10
22.893008
 20
-70.484353
 11
22.893008
 21
-68.984353
  0
LINE
  8
曲げ物
  6
CONTINUOUS
 10
1.89681
 20
39.693362
 11
-1.798502
 21
35.99805
  0
LINE
  8
曲げ物
  6
CONTINUOUS
 10
1.19334
 20
38.157252
 11
-0.26239
 21
36.701522
  0
LINE
  8
曲げ物
  6
CONTINUOUS
 10
0.3607
 20
38.989892
 11
-1.09503
 21
37.534162
  0
LINE
  8
曲げ物
  6
CONTINUOUS
 10
-38.21488
 20
39.693362
 11
-41.910192
 21
35.99805
  0
LINE
  8
曲げ物
  6
CONTINUOUS
 10
-38.91835
 20
38.157252
 11
-40.37408
 21
36.701522
  0
LINE
  8
曲げ物
  6
CONTINUOUS
 10
-39.75099
 20
38.989892
 11
-41.20672
 21
37.534162
  0
LINE
  8
曲げ物
  6
CONTINUOUS
 10
116.489623
 20
-83.118728
 11
116.489623
 21
-53.785395
  0
LINE
  8
曲げ物
  6
CONTINUOUS
 10
75.722955
 20
-83.118728
 11
75.722955
 21
-53.785395
  0
LINE
  8
曲げ物
  6
CONTINUOUS
 10
116.489623
 20
-53.785395
 11
75.722955
 21
-53.785395
  0
LINE
  8
曲げ物
  6
CONTINUOUS
 10
116.489623
 20
-83.118728
 11
75.722955
 21
-83.118728
  0
CIRCLE
  8
LAYER010
  6
CONTINUOUS
 62
    47
 10
119.6586
 20
55.813975
 40
0.011113
  0
CIRCLE
  8
LAYER010
  6
CONTINUOUS
 62
    47
 10
119.6586
 20
19.81399
 40
0.011113
  0
CIRCLE
  8
LAYER010
  6
CONTINUOUS
 62
    47
 10
-64.930257
 20
-71.634355
 40
0.011113
  0
CIRCLE
  8
LAYER010
  6
CONTINUOUS
 62
    47
 10
24.40306
 20
-71.634355
 40
0.011113
  0
ENDSEC
  0
EOF
