  0
SECTION
  2
HEADER
  9
$EXTMIN
 10
-210.0
 20
-148.5
  9
$EXTMAX
 10
210.0
 20
148.5
  9
$PDMODE
 70
    32
  9
$PDSIZE
 40
1.5
  9
$LTSCALE
 40
10.0
  0
ENDSEC
  0
SECTION
  2
TABLES
  0
TABLE
  2
LTYPE
 70
    15
  0
LTYPE
  2
CONTINUOUS
 70
    64
  3
実線
 72
    65
 73
     0
 40
0.0
  0
LTYPE
  2
DASHED
 70
    64
  3
破線A
 72
    65
 73
     2
 40
0.6
 49
0.4
 49
-0.2
  0
LTYPE
  2
DASHEDX2
 70
    64
  3
破線B
 72
    65
 73
     2
 40
1.3
 49
0.9
 49
-0.4
  0
LTYPE
  2
DASHDOT
 70
    64
  3
１点鎖線A
 72
    65
 73
     4
 40
0.5375
 49
0.375
 49
-0.05
 49
0.0625
 49
-0.05
  0
LTYPE
  2
DASHDOTX2
 70
    64
  3
１点鎖線B
 72
    65
 73
     4
 40
1.075
 49
0.75
 49
-0.1
 49
0.125
 49
-0.1
  0
LTYPE
  2
DIVIDE2
 70
    64
  3
２点鎖線A
 72
    65
 73
     6
 40
0.5125
 49
0.3
 49
-0.0375
 49
0.05
 49
-0.0375
 49
0.05
 49
-0.0375
  0
LTYPE
  2
DIVIDE
 70
    64
  3
２点鎖線B
 72
    65
 73
     6
 40
1.05
 49
0.55
 49
-0.1
 49
0.1
 49
-0.1
 49
0.1
 49
-0.1
  0
LTYPE
  2
DOT
 70
    64
  3
点線A
 72
    65
 73
     2
 40
0.1125
 49
0.0625
 49
-0.05
  0
LTYPE
  2
DOTX2
 70
    64
  3
点線B
 72
    65
 73
     2
 40
0.275
 49
0.15
 49
-0.125
  0
LTYPE
  2
CONTINUOUS
 70
    64
  3
実線
 72
    65
 73
     0
 40
0.0
  0
LTYPE
  2
CONTINUOUS
 70
    64
  3
実線
 72
    65
 73
     0
 40
0.0
  0
LTYPE
  2
CONTINUOUS
 70
    64
  3
実線
 72
    65
 73
     0
 40
0.0
  0
LTYPE
  2
CONTINUOUS
 70
    64
  3
実線
 72
    65
 73
     0
 40
0.0
  0
LTYPE
  2
CONTINUOUS
 70
    64
  3
実線
 72
    65
 73
     0
 40
0.0
  0
LTYPE
  2
CONTINUOUS
 70
    64
  3
実線
 72
    65
 73
     0
 40
0.0
  0
ENDTAB
  0
TABLE
  2
LAYER
 70
    35
  0
LAYER
  2
通り芯
 70
     0
 62
    15
  6
CONTINUOUS
  0
LAYER
  2
補助線
 70
     0
 62
    16
  6
DOT
  0
LAYER
  2
躯体
 70
     0
 62
    31
  6
CONTINUOUS
  0
LAYER
  2
型材
 70
     0
 62
    32
  6
CONTINUOUS
  0
LAYER
  2
型材断面
 70
     0
 62
    47
  6
CONTINUOUS
  0
LAYER
  2
ガラス
 70
     0
 62
    48
  6
CONTINUOUS
  0
LAYER
  2
ゴム等
 70
     0
 62
    63
  6
CONTINUOUS
  0
LAYER
  2
ボルト／ビス
 70
     0
 62
    64
  6
CONTINUOUS
  0
LAYER
  2
文字
 70
     0
 62
    79
  6
CONTINUOUS
  0
LAYER
  2
寸法
 70
     0
 62
    80
  6
CONTINUOUS
  0
LAYER
  2
ﾊｯﾁﾝｸﾞ
 70
     0
 62
    95
  6
CONTINUOUS
  0
LAYER
  2
別途部材
 70
     0
 62
    96
  6
CONTINUOUS
  0
LAYER
  2
曲げ物
 70
     0
 62
   111
  6
CONTINUOUS
  0
LAYER
  2
鉄骨等
 70
     0
 62
   112
  6
CONTINUOUS
  0
LAYER
  2
St
 70
     0
 62
   127
  6
CONTINUOUS
  0
LAYER
  2
その他部品等
 70
     0
 62
   128
  6
CONTINUOUS
  0
LAYER
  2
ｶﾞｽｹｯﾄ
 70
     0
 62
   143
  6
CONTINUOUS
  0
LAYER
  2
ｽｹｯﾁ
 70
     0
 62
    14
  6
CONTINUOUS
  0
LAYER
  2
0
 70
     0
 62
    17
  6
CONTINUOUS
  0
LAYER
  2
1
 70
     0
 62
    30
  6
CONTINUOUS
  0
LAYER
  2
4
 70
     0
 62
    33
  6
CONTINUOUS
  0
LAYER
  2
ﾚｲﾔ3
 70
     0
 62
    46
  6
CONTINUOUS
  0
LAYER
  2
外形線
 70
     0
 62
    49
  6
CONTINUOUS
  0
LAYER
  2
部品
 70
     0
 62
    14
  6
CONTINUOUS
  0
LAYER
  2
サッシ芯
 70
     0
 62
    17
  6
DASHDOTX2
  0
LAYER
  2
寸法線
 70
     0
 62
    62
  6
CONTINUOUS
  0
LAYER
  2
姿図外形線
 70
     0
 62
    65
  6
CONTINUOUS
  0
LAYER
  2
姿補助線
 70
     0
 62
    30
  6
CONTINUOUS
  0
LAYER
  2
透視線
 70
     0
 62
    78
  6
DOT
  0
LAYER
  2
用紙
 70
     0
 62
    81
  6
CONTINUOUS
  0
LAYER
  2
実線図枠
 70
     0
 62
    94
  6
CONTINUOUS
  0
LAYER
  2
補助図枠
 70
     0
 62
    97
  6
CONTINUOUS
  0
LAYER
  2
建具記号
 70
     0
 62
   110
  6
CONTINUOUS
  0
LAYER
  2
補助文字
 70
     0
 62
   113
  6
CONTINUOUS
  0
LAYER
  2
LAYER010
 70
     0
 62
    11
  6
CONTINUOUS
  0
ENDTAB
  0
TABLE
  2
STYLE
 70
    10
  0
STYLE
  2
STANDARD
 70
     0
 40
1.0
 41
1.0
 42
1.0
 50
0.0
 71
     0
  3
TXT
  4
BIGFONT
  0
STYLE
  2
TATE
 70
     4
 40
1.0
 41
1.0
 42
1.0
 50
0.0
 71
     0
  3
TXT
  4
BIGFONT
  0
STYLE
  2
TextStyle03
 70
     0
 40
1.0
 41
1.0
 42
1.0
 50
0.0
 71
     0
  3
MONOTXT
  4
BIGFONT
  0
STYLE
  2
TextStyle04
 70
     0
 40
1.0
 41
1.0
 42
1.0
 50
0.0
 71
     0
  3
MONOTXT
  4
BIGFONT
  0
STYLE
  2
TextStyle05
 70
     0
 40
1.0
 41
1.0
 42
1.0
 50
0.0
 71
     0
  3
MONOTXT
  4
BIGFONT
  0
STYLE
  2
TextStyle06
 70
     0
 40
1.0
 41
1.0
 42
1.0
 50
0.0
 71
     0
  3
MONOTXT
  4
BIGFONT
  0
STYLE
  2
TextStyle07
 70
     0
 40
1.0
 41
1.0
 42
1.0
 50
0.0
 71
     0
  3
MONOTXT
  4
BIGFONT
  0
STYLE
  2
TextStyle08
 70
     0
 40
1.0
 41
1.0
 42
1.0
 50
0.0
 71
     0
  3
MONOTXT
  4
BIGFONT
  0
STYLE
  2
TextStyle09
 70
     0
 40
1.0
 41
1.0
 42
1.0
 50
0.0
 71
     0
  3
MONOTXT
  4
BIGFONT
  0
STYLE
  2
TextStyle10
 70
     0
 40
1.0
 41
1.0
 42
1.0
 50
0.0
 71
     0
  3
MONOTXT
  4
BIGFONT
  0
ENDTAB
  0
ENDSEC
  0
SECTION
  2
BLOCKS
  0
BLOCK
  2
*GRP_0001
 70
    65
 10
0.0
 20
0.0
  0
LINE
  8
型材断面
  6
CONTINUOUS
 10
195.0
 20
133.5
 11
195.0
 21
-133.5
  0
LINE
  8
型材断面
  6
CONTINUOUS
 10
195.0
 20
-133.5
 11
-185.0
 21
-133.5
  0
LINE
  8
型材断面
  6
CONTINUOUS
 10
-185.0
 20
-133.5
 11
-185.0
 21
133.5
  0
LINE
  8
型材断面
  6
CONTINUOUS
 10
195.0
 20
133.5
 11
-185.0
 21
133.5
  0
LINE
  8
型材断面
  6
CONTINUOUS
 10
145.0
 20
-133.5
 11
145.0
 21
-118.5
  0
LINE
  8
型材断面
  6
CONTINUOUS
 10
195.0
 20
-118.5
 11
145.0
 21
-118.5
  0
ENDBLK
  0
BLOCK
  2
*DIM_0002
 70
    65
 10
0.0
 20
0.0
  0
LINE
  8
寸法
  6
BYBLOCK
 62
     0
 10
-76.650292
 20
-13.511205
 11
-76.650292
 21
-13.121378
  0
LINE
  8
寸法
  6
BYBLOCK
 62
     0
 10
40.016375
 20
-13.121378
 11
-76.650292
 21
-13.121378
  0
POINT
  8
寸法
 62
     0
 10
40.016375
 20
-13.121378
  0
POINT
  8
寸法
 62
     0
 10
-76.650292
 20
-13.121378
  0
TEXT
  7
TextStyle03
  8
寸法
  6
CONTINUOUS
 62
     0
 10
-30.01875
 20
-12.75
  1
呼称寸法　3500
 40
3.0
 72
     5
 11
-6.58125
 21
-12.75
  0
ENDBLK
  0
BLOCK
  2
*DIM_0003
 70
    65
 10
0.0
 20
0.0
  0
LINE
  8
寸法
  6
BYBLOCK
 62
     0
 10
-59.983625
 20
19.183902
 11
-59.983625
 21
14.000657
  0
LINE
  8
寸法
  6
BYBLOCK
 62
     0
 10
23.34971
 20
19.183902
 11
23.34971
 21
14.000657
  0
LINE
  8
寸法
  6
BYBLOCK
 62
     0
 10
-59.983625
 20
14.000657
 11
23.34971
 21
14.000657
  0
POINT
  8
寸法
 62
     0
 10
-59.983625
 20
14.000657
  0
POINT
  8
寸法
 62
     0
 10
23.34971
 20
14.000657
  0
TEXT
  7
TextStyle03
  8
寸法
  6
CONTINUOUS
 62
     0
 10
-21.60625
 20
14.375
  1
2500
 40
3.0
 72
     5
 11
-15.04375
 21
14.375
  0
ENDBLK
  0
BLOCK
  2
*DIM_0004
 70
    65
 10
0.0
 20
0.0
  0
LINE
  8
寸法
  6
BYBLOCK
 62
     0
 10
43.01642
 20
-69.576397
 11
43.01642
 21
-13.121378
  0
LINE
  8
寸法
  6
BYBLOCK
 62
     0
 10
40.016375
 20
-13.121378
 11
43.01642
 21
-13.121378
  0
POINT
  8
寸法
 62
     0
 10
40.016375
 20
-13.121378
  0
POINT
  8
寸法
 62
     0
 10
43.01642
 20
-13.121378
  0
TEXT
  7
TextStyle03
  8
寸法
  6
CONTINUOUS
 62
     0
 10
39.93125
 20
-12.75
  1
90
 40
3.0
 72
     5
 11
43.11875
 21
-12.75
  0
ENDBLK
  0
BLOCK
  2
*DIM_0005
 70
    65
 10
0.0
 20
0.0
  0
LINE
  8
寸法
  6
BYBLOCK
 62
     0
 10
-79.650335
 20
-69.576397
 11
-79.650335
 21
-13.121378
  0
LINE
  8
寸法
  6
BYBLOCK
 62
     0
 10
-76.65029
 20
-13.121378
 11
-79.650335
 21
-13.121378
  0
POINT
  8
寸法
 62
     0
 10
-76.65029
 20
-13.121378
  0
POINT
  8
寸法
 62
     0
 10
-79.650335
 20
-13.121378
  0
TEXT
  7
TextStyle03
  8
寸法
  6
CONTINUOUS
 62
     0
 10
-79.76875
 20
-12.75
  1
90
 40
3.0
 72
     5
 11
-76.58125
 21
-12.75
  0
ENDBLK
  0
BLOCK
  2
*DIM_0006
 70
    65
 10
0.0
 20
0.0
  0
LINE
  8
寸法
  6
BYBLOCK
 62
     0
 10
136.10293
 20
-53.785395
 11
144.16122
 21
-53.785395
  0
LINE
  8
寸法
  6
BYBLOCK
 62
     0
 10
136.10293
 20
-83.118728
 11
144.16122
 21
-83.118728
  0
LINE
  8
寸法
  6
BYBLOCK
 62
     0
 10
144.16122
 20
-53.785395
 11
144.16122
 21
-83.118728
  0
POINT
  8
寸法
 62
     0
 10
144.16122
 20
-53.785395
  0
POINT
  8
寸法
 62
     0
 10
144.16122
 20
-83.118728
  0
TEXT
  7
TextStyle03
  8
寸法
  6
CONTINUOUS
 62
     0
 10
143.825
 20
-70.9125
  1
880
 40
3.0
 50
90.0
 72
     5
 11
143.825
 21
-66.0375
  0
ENDBLK
  0
BLOCK
  2
*DIM_0007
 70
    65
 10
0.0
 20
0.0
  0
LINE
  8
寸法
  6
BYBLOCK
 62
     0
 10
-79.650292
 20
47.814033
 11
-92.94313
 21
47.814033
  0
LINE
  8
寸法
  6
BYBLOCK
 62
     0
 10
-79.650292
 20
27.814033
 11
-92.94313
 21
27.814033
  0
LINE
  8
寸法
  6
BYBLOCK
 62
     0
 10
-92.94313
 20
47.814033
 11
-92.94313
 21
27.814033
  0
POINT
  8
寸法
 62
     0
 10
-92.94313
 20
47.814033
  0
POINT
  8
寸法
 62
     0
 10
-92.94313
 20
27.814033
  0
TEXT
  7
TextStyle03
  8
寸法
  6
CONTINUOUS
 62
     0
 10
-93.325
 20
35.3625
  1
600
 40
3.0
 50
90.0
 72
     5
 11
-93.325
 21
40.2375
  0
ENDBLK
  0
BLOCK
  2
*DIM_0008
 70
    65
 10
0.0
 20
0.0
  0
LINE
  8
寸法
  6
BYBLOCK
 62
     0
 10
-71.65029
 20
55.814033
 11
-71.65029
 21
84.922105
  0
LINE
  8
寸法
  6
BYBLOCK
 62
     0
 10
-44.983625
 20
55.814033
 11
-44.983625
 21
84.922105
  0
LINE
  8
寸法
  6
BYBLOCK
 62
     0
 10
-71.65029
 20
84.922105
 11
-44.983625
 21
84.922105
  0
POINT
  8
寸法
 62
     0
 10
-71.65029
 20
84.922105
  0
POINT
  8
寸法
 62
     0
 10
-44.983625
 20
84.922105
  0
TEXT
  7
TextStyle03
  8
寸法
  6
CONTINUOUS
 62
     0
 10
-60.7625
 20
85.3
  1
800
 40
3.0
 72
     5
 11
-55.8875
 21
85.3
  0
ENDBLK
  0
BLOCK
  2
*DIM_0009
 70
    65
 10
0.0
 20
0.0
  0
LINE
  8
寸法
  6
BYBLOCK
 62
     0
 10
-18.316957
 20
55.814033
 11
-18.316957
 21
84.922105
  0
LINE
  8
寸法
  6
BYBLOCK
 62
     0
 10
-44.983625
 20
84.922105
 11
-18.316957
 21
84.922105
  0
POINT
  8
寸法
 62
     0
 10
-18.316957
 20
84.922105
  0
TEXT
  7
TextStyle03
  8
寸法
  6
CONTINUOUS
 62
     0
 10
-34.1125
 20
85.3
  1
800
 40
3.0
 72
     5
 11
-29.2375
 21
85.3
  0
ENDBLK
  0
BLOCK
  2
*DIM_0010
 70
    65
 10
0.0
 20
0.0
  0
LINE
  8
寸法
  6
BYBLOCK
 62
     0
 10
8.34971
 20
55.814033
 11
8.34971
 21
84.922105
  0
LINE
  8
寸法
  6
BYBLOCK
 62
     0
 10
-18.316957
 20
84.922105
 11
8.34971
 21
84.922105
  0
POINT
  8
寸法
 62
     0
 10
8.34971
 20
84.922105
  0
TEXT
  7
TextStyle03
  8
寸法
  6
CONTINUOUS
 62
     0
 10
-7.4375
 20
85.3
  1
800
 40
3.0
 72
     5
 11
-2.5625
 21
85.3
  0
ENDBLK
  0
BLOCK
  2
*DIM_0011
 70
    65
 10
0.0
 20
0.0
  0
LINE
  8
寸法
  6
BYBLOCK
 62
     0
 10
35.016375
 20
55.814033
 11
35.016375
 21
84.922105
  0
LINE
  8
寸法
  6
BYBLOCK
 62
     0
 10
8.34971
 20
84.922105
 11
35.016375
 21
84.922105
  0
POINT
  8
寸法
 62
     0
 10
35.016375
 20
84.922105
  0
TEXT
  7
TextStyle03
  8
寸法
  6
CONTINUOUS
 62
     0
 10
19.2375
 20
85.3
  1
800
 40
3.0
 72
     5
 11
24.1125
 21
85.3
  0
ENDBLK
  0
BLOCK
  2
*DIM_0012
 70
    65
 10
0.0
 20
0.0
  0
LINE
  8
寸法
  6
CONTINUOUS
 10
114.123305
 20
66.45319
 11
117.439972
 21
66.45319
  0
POINT
  8
寸法
 10
114.123305
 20
66.45319
  0
POINT
  8
寸法
 10
117.439972
 20
66.45319
  0
TEXT
  7
TextStyle03
  8
寸法
  6
CONTINUOUS
 10
112.39375
 20
66.65
  1
99.5
 40
3.0
 72
     5
 11
118.95625
 21
66.65
  0
ENDBLK
  0
BLOCK
  2
*DIM_0013
 70
    65
 10
0.0
 20
0.0
  0
LINE
  8
寸法
  6
CONTINUOUS
 10
53.655582
 20
-68.033445
 11
53.655582
 21
-71.350115
  0
POINT
  8
寸法
 10
53.655582
 20
-68.033445
  0
POINT
  8
寸法
 10
53.655582
 20
-71.350115
  0
TEXT
  7
TextStyle03
  8
寸法
  6
CONTINUOUS
 10
56.8
 20
-72.85625
  1
99.5
 40
3.0
 50
90.0
 72
     5
 11
56.8
 21
-66.29375
  0
ENDBLK
  0
BLOCK
  2
*DIM_0014
 70
    65
 10
0.0
 20
0.0
  0
LINE
  8
寸法
  6
CONTINUOUS
 10
135.10293
 20
-44.802495
 11
97.21293
 21
-44.802495
  0
POINT
  8
寸法
 10
135.10293
 20
-44.802495
  0
POINT
  8
寸法
 10
97.21293
 20
-44.802495
  0
TEXT
  7
TextStyle03
  8
寸法
  6
CONTINUOUS
 10
111.18125
 20
-44.45
  1
1136.7
 40
3.0
 72
     5
 11
121.11875
 21
-44.45
  0
ENDBLK
  0
ENDSEC
  0
SECTION
  2
ENTITIES
  0
POLYLINE
  8
通り芯
  6
CONTINUOUS
 66
     1
 70
     1
  0
VERTEX
  8
通り芯
 10
-210.0
 20
-148.5
  0
VERTEX
  8
通り芯
 10
210.0
 20
-148.5
  0
VERTEX
  8
通り芯
 10
210.0
 20
148.5
  0
VERTEX
  8
通り芯
 10
-210.0
 20
148.5
  0
SEQEND
  0
INSERT
  2
*GRP_0001
  8
型材断面
  6
CONTINUOUS
 10
0.0
 20
0.0
  0
LINE
  8
型材断面
  6
DASHDOT
 10
40.016375
 20
-77.836442
 11
40.016375
 21
52.814033
  0
LINE
  8
型材断面
  6
DASHDOT
 10
-18.316957
 20
-77.836442
 11
-18.316957
 21
52.814033
  0
LINE
  8
型材断面
  6
DASHDOT
 10
-76.650292
 20
-77.836442
 11
-76.650292
 21
52.814033
  0
LINE
  8
型材断面
  6
CONTINUOUS
 10
-59.983625
 20
55.444162
 11
-61.479255
 21
58.03467
  0
LINE
  8
型材断面
  6
CONTINUOUS
 10
-59.983625
 20
55.444162
 11
-58.487995
 21
58.03467
  0
LINE
  8
型材断面
  6
CONTINUOUS
 10
-58.487995
 20
58.03467
 11
-61.479255
 21
58.03467
  0
LINE
  8
型材断面
  6
CONTINUOUS
 10
-79.280422
 20
37.814033
 11
-81.87093
 21
39.309663
  0
LINE
  8
型材断面
  6
CONTINUOUS
 10
-79.280422
 20
37.814033
 11
-81.87093
 21
36.318403
  0
LINE
  8
型材断面
  6
CONTINUOUS
 10
-81.87093
 20
36.318403
 11
-81.87093
 21
39.309663
  0
LINE
  8
型材断面
  6
CONTINUOUS
 10
-59.983625
 20
20.183902
 11
-61.479255
 21
17.593395
  0
LINE
  8
型材断面
  6
CONTINUOUS
 10
-59.983625
 20
20.183902
 11
-58.487995
 21
17.593395
  0
LINE
  8
型材断面
  6
CONTINUOUS
 10
-58.487995
 20
17.593395
 11
-61.479255
 21
17.593395
  0
LINE
  8
型材断面
  6
CONTINUOUS
 10
-130.528815
 20
97.32138
 11
-132.024445
 21
94.730873
  0
LINE
  8
型材断面
  6
CONTINUOUS
 10
-130.528815
 20
97.32138
 11
-129.033185
 21
94.730873
  0
LINE
  8
型材断面
  6
CONTINUOUS
 10
-129.033185
 20
94.730873
 11
-132.024445
 21
94.730873
  0
LINE
  8
型材断面
  6
CONTINUOUS
 10
-136.551403
 20
93.792277
 11
-90.309625
 21
93.792277
  0
LINE
  8
型材断面
  6
CONTINUOUS
 10
23.34971
 20
55.444162
 11
24.84534
 21
58.03467
  0
LINE
  8
型材断面
  6
CONTINUOUS
 10
23.34971
 20
55.444162
 11
21.85408
 21
58.03467
  0
LINE
  8
型材断面
  6
CONTINUOUS
 10
21.85408
 20
58.03467
 11
24.84534
 21
58.03467
  0
LINE
  8
型材断面
  6
CONTINUOUS
 10
42.646508
 20
37.814033
 11
45.237015
 21
39.309663
  0
LINE
  8
型材断面
  6
CONTINUOUS
 10
42.646508
 20
37.814033
 11
45.237015
 21
36.318403
  0
LINE
  8
型材断面
  6
CONTINUOUS
 10
45.237015
 20
36.318403
 11
45.237015
 21
39.309663
  0
LINE
  8
型材断面
  6
CONTINUOUS
 10
23.34971
 20
20.183902
 11
24.84534
 21
17.593395
  0
LINE
  8
型材断面
  6
CONTINUOUS
 10
23.34971
 20
20.183902
 11
21.85408
 21
17.593395
  0
LINE
  8
型材断面
  6
CONTINUOUS
 10
21.85408
 20
17.593395
 11
24.84534
 21
17.593395
  0
LINE
  8
型材断面
  6
CONTINUOUS
 10
-136.551403
 20
87.492275
 11
-90.309625
 21
87.492275
  0
LINE
  8
型材断面
  6
CONTINUOUS
 10
-79.65034
 20
19.81399
 11
-18.316957
 21
19.81399
  0
LINE
  8
型材断面
  6
CONTINUOUS
 10
-79.65034
 20
55.814075
 11
-18.316957
 21
55.814075
  0
LINE
  8
型材断面
  6
CONTINUOUS
 10
43.016425
 20
55.814075
 11
-18.316957
 21
55.814075
  0
LINE
  8
型材断面
  6
CONTINUOUS
 10
43.016425
 20
19.81399
 11
-18.316957
 21
19.81399
  0
CIRCLE
  8
型材断面
  6
CONTINUOUS
 62
    47
 10
116.939975
 20
55.813975
 40
0.011113
  0
LINE
  8
型材断面
  6
CONTINUOUS
 62
    47
 10
117.439972
 20
55.313983
 11
117.439972
 21
55.813975
  0
LINE
  8
型材断面
  6
CONTINUOUS
 62
    47
 10
117.439972
 20
55.813975
 11
116.939975
 21
55.813975
  0
LINE
  8
型材断面
  6
CONTINUOUS
 62
    47
 10
116.939975
 20
55.813975
 11
116.442795
 21
52.880643
  0
LINE
  8
型材断面
  6
CONTINUOUS
 62
    47
 10
117.439972
 20
55.313983
 11
117.939972
 21
55.313983
  0
LINE
  8
型材断面
  6
CONTINUOUS
 62
    47
 10
116.442795
 20
52.880643
 11
115.789972
 21
52.880643
  0
CIRCLE
  8
型材断面
  6
CONTINUOUS
 62
    47
 10
116.939975
 20
19.81399
 40
0.011113
  0
LINE
  8
型材断面
  6
CONTINUOUS
 62
    47
 10
117.439972
 20
20.313983
 11
117.439972
 21
19.81399
  0
LINE
  8
型材断面
  6
CONTINUOUS
 62
    47
 10
117.439972
 20
19.81399
 11
116.939975
 21
19.81399
  0
LINE
  8
型材断面
  6
CONTINUOUS
 62
    47
 10
116.939975
 20
19.81399
 11
116.442795
 21
22.747322
  0
LINE
  8
型材断面
  6
CONTINUOUS
 62
    47
 10
117.439972
 20
20.313983
 11
117.939972
 21
20.313983
  0
LINE
  8
型材断面
  6
CONTINUOUS
 62
    47
 10
116.442795
 20
22.747322
 11
115.789972
 21
22.747322
  0
LINE
  8
型材断面
  6
CONTINUOUS
 62
    47
 10
114.289972
 20
54.460445
 11
114.289972
 21
37.813983
  0
LINE
  8
型材断面
  6
CONTINUOUS
 62
    47
 10
114.123305
 20
54.303923
 11
114.123305
 21
37.813983
  0
LINE
  8
型材断面
  6
CONTINUOUS
 62
    47
 10
115.789972
 20
54.303923
 11
115.789972
 21
37.813983
  0
LINE
  8
型材断面
  6
CONTINUOUS
 10
116.442795
 20
52.880695
 11
116.442795
 21
37.813983
  0
LINE
  8
型材断面
  6
CONTINUOUS
 10
116.939977
 20
55.814027
 11
116.939977
 21
37.813983
  0
LINE
  8
型材断面
  6
CONTINUOUS
 62
    47
 10
117.439972
 20
55.814027
 11
117.439972
 21
37.813983
  0
LINE
  8
型材断面
  6
CONTINUOUS
 10
117.939972
 20
55.314038
 11
117.939972
 21
37.813983
  0
LINE
  8
型材断面
  6
CONTINUOUS
 10
117.939972
 20
20.313927
 11
117.939972
 21
37.813983
  0
LINE
  8
型材断面
  6
CONTINUOUS
 10
116.939977
 20
19.813938
 11
116.939977
 21
37.813983
  0
LINE
  8
型材断面
  6
CONTINUOUS
 62
    47
 10
117.439972
 20
19.813938
 11
117.439972
 21
37.813983
  0
LINE
  8
型材断面
  6
CONTINUOUS
 10
116.442795
 20
22.74727
 11
116.442795
 21
37.813983
  0
LINE
  8
型材断面
  6
CONTINUOUS
 62
    47
 10
115.789972
 20
21.324042
 11
115.789972
 21
37.813983
  0
LINE
  8
型材断面
  6
CONTINUOUS
 62
    47
 10
114.289972
 20
21.16752
 11
114.289972
 21
37.813983
  0
LINE
  8
型材断面
  6
CONTINUOUS
 62
    47
 10
114.123305
 20
21.324042
 11
114.123305
 21
37.813983
  0
LINE
  8
型材断面
  6
DASHDOT
 10
-76.650292
 20
37.814033
 11
124.915983
 21
37.814033
  0
CIRCLE
  8
型材断面
  6
CONTINUOUS
 62
    47
 10
-79.650282
 20
-70.850115
 40
0.011113
  0
LINE
  8
型材断面
  6
CONTINUOUS
 62
    47
 10
-79.150292
 20
-71.350115
 11
-79.650282
 21
-71.350115
  0
LINE
  8
型材断面
  6
CONTINUOUS
 62
    47
 10
-79.650282
 20
-71.350115
 11
-79.650282
 21
-70.850115
  0
LINE
  8
型材断面
  6
CONTINUOUS
 62
    47
 10
-79.650282
 20
-70.850115
 11
-76.716953
 21
-70.352935
  0
LINE
  8
型材断面
  6
CONTINUOUS
 62
    47
 10
-79.150292
 20
-71.350115
 11
-79.150292
 21
-71.850115
  0
LINE
  8
型材断面
  6
CONTINUOUS
 62
    47
 10
-76.716953
 20
-70.352935
 11
-76.716953
 21
-69.700112
  0
CIRCLE
  8
型材断面
  6
CONTINUOUS
 62
    47
 10
43.016367
 20
-70.850115
 40
0.011113
  0
LINE
  8
型材断面
  6
CONTINUOUS
 62
    47
 10
42.516375
 20
-71.350115
 11
43.016367
 21
-71.350115
  0
LINE
  8
型材断面
  6
CONTINUOUS
 62
    47
 10
43.016367
 20
-71.350115
 11
43.016367
 21
-70.850115
  0
LINE
  8
型材断面
  6
CONTINUOUS
 62
    47
 10
43.016367
 20
-70.850115
 11
40.083035
 21
-70.352935
  0
LINE
  8
型材断面
  6
CONTINUOUS
 62
    47
 10
42.516375
 20
-71.350115
 11
42.516375
 21
-71.850115
  0
LINE
  8
型材断面
  6
CONTINUOUS
 62
    47
 10
40.083035
 20
-70.352935
 11
40.083035
 21
-69.700112
  0
LINE
  8
型材断面
  6
CONTINUOUS
 10
-76.717005
 20
-70.352935
 11
-18.316957
 21
-70.352935
  0
LINE
  8
型材断面
  6
CONTINUOUS
 10
-79.650338
 20
-70.850118
 11
-18.316957
 21
-70.850118
  0
LINE
  8
型材断面
  6
CONTINUOUS
 62
    47
 10
-78.140232
 20
-68.033445
 11
-18.316957
 21
-68.033445
  0
LINE
  8
型材断面
  6
CONTINUOUS
 62
    47
 10
-78.296752
 20
-68.200112
 11
-18.316957
 21
-68.200112
  0
LINE
  8
型材断面
  6
CONTINUOUS
 62
    47
 10
-78.140232
 20
-69.700112
 11
-18.316957
 21
-69.700112
  0
LINE
  8
型材断面
  6
CONTINUOUS
 62
    47
 10
-79.650338
 20
-71.350115
 11
-18.316957
 21
-71.350115
  0
LINE
  8
型材断面
  6
CONTINUOUS
 10
-79.150348
 20
-71.850115
 11
-18.316957
 21
-71.850115
  0
LINE
  8
型材断面
  6
CONTINUOUS
 62
    47
 10
43.01642
 20
-71.350115
 11
-18.316957
 21
-71.350115
  0
LINE
  8
型材断面
  6
CONTINUOUS
 10
43.01642
 20
-70.850118
 11
-18.316957
 21
-70.850118
  0
LINE
  8
型材断面
  6
CONTINUOUS
 62
    47
 10
41.506315
 20
-69.700112
 11
-18.316957
 21
-69.700112
  0
LINE
  8
型材断面
  6
CONTINUOUS
 10
40.083087
 20
-70.352935
 11
-18.316957
 21
-70.352935
  0
LINE
  8
型材断面
  6
CONTINUOUS
 62
    47
 10
41.506315
 20
-68.033445
 11
-18.316957
 21
-68.033445
  0
LINE
  8
型材断面
  6
CONTINUOUS
 62
    47
 10
41.662838
 20
-68.200112
 11
-18.316957
 21
-68.200112
  0
LINE
  8
型材断面
  6
CONTINUOUS
 10
42.51643
 20
-71.850115
 11
-18.316957
 21
-71.850115
  0
LINE
  8
型材断面
  6
DASHDOT
 10
124.915983
 20
52.813983
 11
-76.650292
 21
52.813983
  0
LINE
  8
型材断面
  6
DASHDOT
 10
124.915983
 20
22.813983
 11
-76.650292
 21
22.813983
  0
LINE
  8
型材断面
  6
DASHDOT
 10
-37.843625
 20
22.814033
 11
-37.843625
 21
52.814033
  0
LINE
  8
型材断面
  6
DASHDOT
 10
1.20971
 20
22.814033
 11
1.20971
 21
52.814033
  0
LINE
  8
型材断面
  6
CONTINUOUS
 10
-17.90029
 20
51.960545
 11
20.196375
 21
51.960545
  0
LINE
  8
型材断面
  6
CONTINUOUS
 10
-17.90029
 20
23.66752
 11
20.196375
 21
23.66752
  0
LINE
  8
型材断面
  6
CONTINUOUS
 10
-56.83029
 20
23.66752
 11
-18.733625
 21
23.66752
  0
LINE
  8
型材断面
  6
CONTINUOUS
 10
-56.83029
 20
51.960545
 11
-18.733625
 21
51.960545
  0
LINE
  8
型材断面
  6
CONTINUOUS
 10
2.45971
 20
24.500852
 11
-0.04029
 21
24.500852
  0
LINE
  8
型材断面
  6
CONTINUOUS
 10
2.45971
 20
51.127212
 11
-0.04029
 21
51.127212
  0
LINE
  8
型材断面
  6
CONTINUOUS
 10
2.45971
 20
24.500852
 11
2.45971
 21
51.127212
  0
LINE
  8
型材断面
  6
CONTINUOUS
 10
-0.04029
 20
24.500852
 11
-0.04029
 21
51.127212
  0
LINE
  8
型材断面
  6
CONTINUOUS
 10
-36.593625
 20
24.500852
 11
-39.093625
 21
24.500852
  0
LINE
  8
型材断面
  6
CONTINUOUS
 10
-36.593625
 20
51.127212
 11
-39.093625
 21
51.127212
  0
LINE
  8
型材断面
  6
CONTINUOUS
 10
-36.593625
 20
24.500852
 11
-36.593625
 21
51.127212
  0
LINE
  8
型材断面
  6
CONTINUOUS
 10
-39.093625
 20
24.500852
 11
-39.093625
 21
51.127212
  0
LINE
  8
型材断面
  6
CONTINUOUS
 10
43.016423
 20
55.814075
 11
43.016423
 21
37.81403
  0
LINE
  8
型材断面
  6
CONTINUOUS
 10
43.016423
 20
19.81399
 11
43.016423
 21
37.814035
  0
LINE
  8
型材断面
  6
CONTINUOUS
 10
41.427138
 20
21.16752
 11
41.662838
 21
21.40322
  0
LINE
  8
型材断面
  6
CONTINUOUS
 10
43.016423
 20
19.81399
 11
41.545015
 21
21.285397
  0
LINE
  8
型材断面
  6
CONTINUOUS
 10
38.927138
 20
23.66752
 11
39.162838
 21
23.90322
  0
LINE
  8
型材断面
  6
CONTINUOUS
 10
39.162838
 20
23.90322
 11
41.662835
 21
21.403223
  0
LINE
  8
型材断面
  6
CONTINUOUS
 10
38.927138
 20
23.66752
 11
41.427035
 21
21.167622
  0
LINE
  8
型材断面
  6
CONTINUOUS
 10
39.162835
 20
37.397365
 11
39.162835
 21
23.903218
  0
LINE
  8
型材断面
  6
CONTINUOUS
 10
41.427138
 20
54.460545
 11
41.662838
 21
54.224845
  0
LINE
  8
型材断面
  6
CONTINUOUS
 10
43.016423
 20
55.814075
 11
41.545015
 21
54.342668
  0
LINE
  8
型材断面
  6
CONTINUOUS
 10
38.927138
 20
51.960545
 11
39.162838
 21
51.724845
  0
LINE
  8
型材断面
  6
CONTINUOUS
 10
39.162838
 20
51.724845
 11
41.662835
 21
54.224842
  0
LINE
  8
型材断面
  6
CONTINUOUS
 10
38.927138
 20
51.960545
 11
41.427035
 21
54.460442
  0
LINE
  8
型材断面
  6
CONTINUOUS
 10
39.162835
 20
38.2307
 11
39.162835
 21
51.724848
  0
LINE
  8
型材断面
  6
CONTINUOUS
 10
41.662835
 20
21.403223
 11
41.662835
 21
54.224842
  0
LINE
  8
型材断面
  6
CONTINUOUS
 10
21.02971
 20
51.960545
 11
38.927138
 21
51.960545
  0
LINE
  8
型材断面
  6
CONTINUOUS
 10
21.02971
 20
23.66752
 11
38.927138
 21
23.66752
  0
LINE
  8
型材断面
  6
CONTINUOUS
 10
-79.650338
 20
55.814075
 11
-79.650338
 21
37.81403
  0
LINE
  8
型材断面
  6
CONTINUOUS
 10
-79.650338
 20
19.81399
 11
-79.650338
 21
37.814035
  0
LINE
  8
型材断面
  6
CONTINUOUS
 10
-78.061053
 20
21.16752
 11
-78.296752
 21
21.40322
  0
LINE
  8
型材断面
  6
CONTINUOUS
 10
-79.650338
 20
19.81399
 11
-78.17893
 21
21.285397
  0
LINE
  8
型材断面
  6
CONTINUOUS
 10
-75.561053
 20
23.66752
 11
-75.796752
 21
23.90322
  0
LINE
  8
型材断面
  6
CONTINUOUS
 10
-75.796752
 20
23.90322
 11
-78.29675
 21
21.403223
  0
LINE
  8
型材断面
  6
CONTINUOUS
 10
-75.561053
 20
23.66752
 11
-78.06095
 21
21.167622
  0
LINE
  8
型材断面
  6
CONTINUOUS
 10
-75.79675
 20
37.397365
 11
-75.79675
 21
23.903218
  0
LINE
  8
型材断面
  6
CONTINUOUS
 10
-78.061053
 20
54.460545
 11
-78.296752
 21
54.224845
  0
LINE
  8
型材断面
  6
CONTINUOUS
 10
-79.650338
 20
55.814075
 11
-78.17893
 21
54.342668
  0
LINE
  8
型材断面
  6
CONTINUOUS
 10
-75.561053
 20
51.960545
 11
-75.796752
 21
51.724845
  0
LINE
  8
型材断面
  6
CONTINUOUS
 10
-75.796752
 20
51.724845
 11
-78.29675
 21
54.224842
  0
LINE
  8
型材断面
  6
CONTINUOUS
 10
-75.561053
 20
51.960545
 11
-78.06095
 21
54.460442
  0
LINE
  8
型材断面
  6
CONTINUOUS
 10
-75.79675
 20
38.2307
 11
-75.79675
 21
51.724848
  0
LINE
  8
型材断面
  6
CONTINUOUS
 10
-78.29675
 20
21.403223
 11
-78.29675
 21
54.224842
  0
LINE
  8
型材断面
  6
CONTINUOUS
 10
-57.663625
 20
23.66752
 11
-75.561053
 21
23.66752
  0
LINE
  8
型材断面
  6
CONTINUOUS
 10
41.427138
 20
21.16752
 11
-78.061053
 21
21.16752
  0
LINE
  8
型材断面
  6
CONTINUOUS
 10
-57.663625
 20
51.960545
 11
-75.561053
 21
51.960545
  0
LINE
  8
型材断面
  6
CONTINUOUS
 10
41.427138
 20
54.460545
 11
-78.061053
 21
54.460545
  0
TEXT
  7
TextStyle03
  8
文字
  6
CONTINUOUS
 10
-127.75
 20
94.925
  1
は排水穴位置を示す
 40
3.0
 72
     5
 11
-97.75
 21
94.925
  0
TEXT
  7
TextStyle03
  8
文字
  6
CONTINUOUS
 10
61.275
 20
104.525
  1
ＮＳコード：ＮＳＦＫＺ
 40
5.0
 72
     5
 11
122.525
 21
104.525
  0
TEXT
  7
TextStyle03
  8
文字
  6
CONTINUOUS
 10
116.575
 20
-76.7
  1
網入り6.8t
 40
3.0
 72
     5
 11
133.2625
 21
-76.7
  0
TEXT
  7
TextStyle03
  8
文字
  6
CONTINUOUS
 10
123.25
 20
-81.375
  1
×３枚
 40
3.0
 72
     5
 11
133.0
 21
-81.375
  0
TEXT
  7
TextStyle03
  8
文字
  6
CONTINUOUS
 10
-97.65
 20
16.275
  1
アンカーピッチ
 40
3.0
 50
90.0
 72
     5
 11
-97.65
 21
39.525
  0
TEXT
  7
TextStyle03
  8
文字
  6
CONTINUOUS
 10
-65.5
 20
89.775
  1
アンカーピッチ
 40
3.0
 72
     5
 11
-42.25
 21
89.775
  0
TEXT
  7
TextStyle03
  8
文字
  6
CONTINUOUS
 10
-131.475
 20
88.4
  1
アンカー数量　１４ヶ所
 40
3.0
 72
     5
 11
-94.725
 21
88.4
  0
LINE
  8
文字
  6
CONTINUOUS
 10
114.123305
 20
66.45319
 11
114.123305
 21
57.100035
  0
LINE
  8
文字
  6
CONTINUOUS
 10
117.439972
 20
66.45319
 11
117.439972
 21
57.165387
  0
LINE
  8
文字
  6
CONTINUOUS
 10
53.655582
 20
-68.033445
 11
44.302427
 21
-68.033445
  0
LINE
  8
文字
  6
CONTINUOUS
 10
53.655582
 20
-71.350115
 11
44.36778
 21
-71.350115
  0
LINE
  8
文字
  6
CONTINUOUS
 10
135.10293
 20
-44.802495
 11
135.10293
 21
-51.6
  0
LINE
  8
文字
  6
CONTINUOUS
 10
97.21293
 20
-44.802495
 11
97.21293
 21
-51.6
  0
TEXT
  7
TextStyle03
  8
文字
  6
CONTINUOUS
 10
61.125
 20
125.25
  1
シリーズ：ＴＦ２ＦＫＬ
 40
5.0
 72
     5
 11
122.375
 21
125.25
  0
TEXT
  7
TextStyle03
  8
文字
  6
CONTINUOUS
 10
61.125
 20
119.625
  1
　　　　　（固定）900×3500タイプ
 40
5.0
 72
     5
 11
153.3125
 21
119.625
  0
TEXT
  7
TextStyle03
  8
文字
  6
CONTINUOUS
 10
61.125
 20
114.0
  1
図面名　：外観姿図
 40
5.0
 72
     5
 11
111.125
 21
114.0
  0
TEXT
  7
TextStyle03
  8
文字
  6
CONTINUOUS
 10
61.125
 20
108.375
  1
　　　　　　
 40
5.0
 72
     5
 11
94.25
 21
108.375
  0
LINE
  8
文字
  6
CONTINUOUS
 10
21.02971
 20
23.66752
 11
21.02971
 21
21.16752
  0
LINE
  8
文字
  6
CONTINUOUS
 10
20.196375
 20
23.66752
 11
20.196375
 21
21.16752
  0
LINE
  8
文字
  6
CONTINUOUS
 10
-17.90029
 20
23.66752
 11
-17.90029
 21
21.16752
  0
LINE
  8
文字
  6
CONTINUOUS
 10
-18.733625
 20
23.66752
 11
-18.733625
 21
21.16752
  0
LINE
  8
文字
  6
CONTINUOUS
 10
-57.663625
 20
23.66752
 11
-57.663625
 21
21.16752
  0
LINE
  8
文字
  6
CONTINUOUS
 10
-56.83029
 20
23.66752
 11
-56.83029
 21
21.16752
  0
LINE
  8
文字
  6
CONTINUOUS
 10
21.02971
 20
51.960545
 11
21.02971
 21
54.460545
  0
LINE
  8
文字
  6
CONTINUOUS
 10
20.196375
 20
51.960545
 11
20.196375
 21
54.460545
  0
LINE
  8
文字
  6
CONTINUOUS
 10
-17.90029
 20
51.960545
 11
-17.90029
 21
54.460545
  0
LINE
  8
文字
  6
CONTINUOUS
 10
-18.733625
 20
51.960545
 11
-18.733625
 21
54.460545
  0
LINE
  8
文字
  6
CONTINUOUS
 10
-57.663625
 20
51.960545
 11
-57.663625
 21
54.460545
  0
LINE
  8
文字
  6
CONTINUOUS
 10
-56.83029
 20
51.960545
 11
-56.83029
 21
54.460545
  0
LINE
  8
文字
  6
CONTINUOUS
 10
41.662835
 20
37.397365
 11
39.162835
 21
37.397365
  0
LINE
  8
文字
  6
CONTINUOUS
 10
41.662835
 20
38.2307
 11
39.162835
 21
38.2307
  0
LINE
  8
文字
  6
CONTINUOUS
 10
-78.29675
 20
37.397365
 11
-75.79675
 21
37.397365
  0
LINE
  8
文字
  6
CONTINUOUS
 10
-78.29675
 20
38.2307
 11
-75.79675
 21
38.2307
  0
INSERT
  2
*DIM_0002
  8
寸法
  6
CONTINUOUS
 10
0.0
 20
0.0
  0
INSERT
  2
*DIM_0003
  8
寸法
  6
CONTINUOUS
 10
0.0
 20
0.0
  0
INSERT
  2
*DIM_0004
  8
寸法
  6
CONTINUOUS
 10
0.0
 20
0.0
  0
INSERT
  2
*DIM_0005
  8
寸法
  6
CONTINUOUS
 10
0.0
 20
0.0
  0
INSERT
  2
*DIM_0006
  8
寸法
  6
CONTINUOUS
 10
0.0
 20
0.0
  0
INSERT
  2
*DIM_0007
  8
寸法
  6
CONTINUOUS
 10
0.0
 20
0.0
  0
INSERT
  2
*DIM_0008
  8
寸法
  6
CONTINUOUS
 10
0.0
 20
0.0
  0
INSERT
  2
*DIM_0009
  8
寸法
  6
CONTINUOUS
 10
0.0
 20
0.0
  0
INSERT
  2
*DIM_0010
  8
寸法
  6
CONTINUOUS
 10
0.0
 20
0.0
  0
INSERT
  2
*DIM_0011
  8
寸法
  6
CONTINUOUS
 10
0.0
 20
0.0
  0
INSERT
  2
*DIM_0012
  8
寸法
  6
CONTINUOUS
 10
0.0
 20
0.0
  0
INSERT
  2
*DIM_0013
  8
寸法
  6
CONTINUOUS
 10
0.0
 20
0.0
  0
INSERT
  2
*DIM_0014
  8
寸法
  6
CONTINUOUS
 10
0.0
 20
0.0
  0
LINE
  8
別途部材
  6
CONTINUOUS
 62
    47
 10
114.223305
 20
54.460445
 11
114.289972
 21
54.460445
  0
ARC
  8
別途部材
  6
CONTINUOUS
 62
    47
 10
114.223305
 20
54.360444
 40
0.1
 50
90.0
 51
180.0
  0
LINE
  8
別途部材
  6
CONTINUOUS
 62
    47
 10
114.123305
 20
54.360445
 11
114.123305
 21
54.303923
  0
LINE
  8
別途部材
  6
CONTINUOUS
 62
    47
 10
115.789972
 20
54.303923
 11
114.289972
 21
54.303923
  0
LINE
  8
別途部材
  6
CONTINUOUS
 62
    47
 10
114.223305
 20
21.16752
 11
114.289972
 21
21.16752
  0
ARC
  8
別途部材
  6
CONTINUOUS
 62
    47
 10
114.223305
 20
21.26752
 40
0.1
 50
180.0
 51
270.0
  0
LINE
  8
別途部材
  6
CONTINUOUS
 62
    47
 10
114.123305
 20
21.26752
 11
114.123305
 21
21.324042
  0
LINE
  8
別途部材
  6
CONTINUOUS
 62
    47
 10
115.789972
 20
21.324042
 11
114.289972
 21
21.324042
  0
LINE
  8
別途部材
  6
CONTINUOUS
 62
    47
 10
-78.296752
 20
-68.133445
 11
-78.296752
 21
-68.200112
  0
ARC
  8
別途部材
  6
CONTINUOUS
 62
    47
 10
-78.196754
 20
-68.133443
 40
0.1
 50
90.0
 51
180.0
  0
LINE
  8
別途部材
  6
CONTINUOUS
 62
    47
 10
-78.196753
 20
-68.033445
 11
-78.140232
 21
-68.033445
  0
LINE
  8
別途部材
  6
CONTINUOUS
 62
    47
 10
-78.140232
 20
-69.700112
 11
-78.140232
 21
-68.200112
  0
LINE
  8
別途部材
  6
CONTINUOUS
 62
    47
 10
41.662838
 20
-68.133445
 11
41.662838
 21
-68.200112
  0
ARC
  8
別途部材
  6
CONTINUOUS
 62
    47
 10
41.562836
 20
-68.133443
 40
0.1
 50
0.0
 51
90.0
  0
LINE
  8
別途部材
  6
CONTINUOUS
 62
    47
 10
41.562838
 20
-68.033445
 11
41.506315
 21
-68.033445
  0
LINE
  8
別途部材
  6
CONTINUOUS
 62
    47
 10
41.506315
 20
-69.700112
 11
41.506315
 21
-68.200112
  0
LINE
  8
曲げ物
  6
CONTINUOUS
 10
23.03029
 20
39.693362
 11
19.334978
 21
35.99805
  0
LINE
  8
曲げ物
  6
CONTINUOUS
 10
22.32682
 20
38.157252
 11
20.87109
 21
36.701522
  0
LINE
  8
曲げ物
  6
CONTINUOUS
 10
21.49418
 20
38.989892
 11
20.03845
 21
37.534162
  0
LINE
  8
曲げ物
  6
CONTINUOUS
 10
-16.08599
 20
39.693362
 11
-19.781303
 21
35.99805
  0
LINE
  8
曲げ物
  6
CONTINUOUS
 10
-16.78946
 20
38.157252
 11
-18.24519
 21
36.701522
  0
LINE
  8
曲げ物
  6
CONTINUOUS
 10
-17.6221
 20
38.989892
 11
-19.07783
 21
37.534162
  0
LINE
  8
曲げ物
  6
CONTINUOUS
 10
-54.872012
 20
39.693362
 11
-58.567325
 21
35.99805
  0
LINE
  8
曲げ物
  6
CONTINUOUS
 10
-55.575483
 20
38.157252
 11
-57.031213
 21
36.701522
  0
LINE
  8
曲げ物
  6
CONTINUOUS
 10
-56.408122
 20
38.989892
 11
-57.863853
 21
37.534162
  0
LINE
  8
曲げ物
  6
CONTINUOUS
 10
135.10293
 20
-83.118728
 11
135.10293
 21
-53.785395
  0
LINE
  8
曲げ物
  6
CONTINUOUS
 10
97.21293
 20
-83.118728
 11
97.21293
 21
-53.785395
  0
LINE
  8
曲げ物
  6
CONTINUOUS
 10
135.10293
 20
-53.785395
 11
97.21293
 21
-53.785395
  0
LINE
  8
曲げ物
  6
CONTINUOUS
 10
135.10293
 20
-83.118728
 11
97.21293
 21
-83.118728
  0
CIRCLE
  8
LAYER010
  6
CONTINUOUS
 62
    47
 10
116.939975
 20
55.813975
 40
0.011113
  0
CIRCLE
  8
LAYER010
  6
CONTINUOUS
 62
    47
 10
116.939975
 20
19.81399
 40
0.011113
  0
CIRCLE
  8
LAYER010
  6
CONTINUOUS
 62
    47
 10
-79.650282
 20
-70.850115
 40
0.011113
  0
CIRCLE
  8
LAYER010
  6
CONTINUOUS
 62
    47
 10
43.016367
 20
-70.850115
 40
0.011113
  0
ENDSEC
  0
EOF
