  0
SECTION
  2
HEADER
  9
$EXTMIN
 10
-210.0
 20
-148.5
  9
$EXTMAX
 10
210.0
 20
148.5
  9
$PDMODE
 70
    32
  9
$PDSIZE
 40
1.5
  9
$LTSCALE
 40
10.0
  0
ENDSEC
  0
SECTION
  2
TABLES
  0
TABLE
  2
LTYPE
 70
    15
  0
LTYPE
  2
CONTINUOUS
 70
    64
  3
実線
 72
    65
 73
     0
 40
0.0
  0
LTYPE
  2
DASHED
 70
    64
  3
破線A
 72
    65
 73
     2
 40
0.6
 49
0.4
 49
-0.2
  0
LTYPE
  2
DASHEDX2
 70
    64
  3
破線B
 72
    65
 73
     2
 40
1.3
 49
0.9
 49
-0.4
  0
LTYPE
  2
DASHDOT
 70
    64
  3
１点鎖線A
 72
    65
 73
     4
 40
0.5375
 49
0.375
 49
-0.05
 49
0.0625
 49
-0.05
  0
LTYPE
  2
DASHDOTX2
 70
    64
  3
１点鎖線B
 72
    65
 73
     4
 40
1.075
 49
0.75
 49
-0.1
 49
0.125
 49
-0.1
  0
LTYPE
  2
DIVIDE2
 70
    64
  3
２点鎖線A
 72
    65
 73
     6
 40
0.5125
 49
0.3
 49
-0.0375
 49
0.05
 49
-0.0375
 49
0.05
 49
-0.0375
  0
LTYPE
  2
DIVIDE
 70
    64
  3
２点鎖線B
 72
    65
 73
     6
 40
1.05
 49
0.55
 49
-0.1
 49
0.1
 49
-0.1
 49
0.1
 49
-0.1
  0
LTYPE
  2
DOT
 70
    64
  3
点線A
 72
    65
 73
     2
 40
0.1125
 49
0.0625
 49
-0.05
  0
LTYPE
  2
DOTX2
 70
    64
  3
点線B
 72
    65
 73
     2
 40
0.275
 49
0.15
 49
-0.125
  0
LTYPE
  2
CONTINUOUS
 70
    64
  3
実線
 72
    65
 73
     0
 40
0.0
  0
LTYPE
  2
CONTINUOUS
 70
    64
  3
実線
 72
    65
 73
     0
 40
0.0
  0
LTYPE
  2
CONTINUOUS
 70
    64
  3
実線
 72
    65
 73
     0
 40
0.0
  0
LTYPE
  2
CONTINUOUS
 70
    64
  3
実線
 72
    65
 73
     0
 40
0.0
  0
LTYPE
  2
CONTINUOUS
 70
    64
  3
実線
 72
    65
 73
     0
 40
0.0
  0
LTYPE
  2
CONTINUOUS
 70
    64
  3
実線
 72
    65
 73
     0
 40
0.0
  0
ENDTAB
  0
TABLE
  2
LAYER
 70
    35
  0
LAYER
  2
通り芯
 70
     0
 62
    15
  6
CONTINUOUS
  0
LAYER
  2
補助線
 70
     0
 62
    16
  6
DOT
  0
LAYER
  2
躯体
 70
     0
 62
    31
  6
CONTINUOUS
  0
LAYER
  2
型材
 70
     0
 62
    32
  6
CONTINUOUS
  0
LAYER
  2
型材断面
 70
     0
 62
    47
  6
CONTINUOUS
  0
LAYER
  2
ガラス
 70
     0
 62
    48
  6
CONTINUOUS
  0
LAYER
  2
ゴム等
 70
     0
 62
    63
  6
CONTINUOUS
  0
LAYER
  2
ボルト／ビス
 70
     0
 62
    64
  6
CONTINUOUS
  0
LAYER
  2
文字
 70
     0
 62
    79
  6
CONTINUOUS
  0
LAYER
  2
寸法
 70
     0
 62
    80
  6
CONTINUOUS
  0
LAYER
  2
ﾊｯﾁﾝｸﾞ
 70
     0
 62
    95
  6
CONTINUOUS
  0
LAYER
  2
別途部材
 70
     0
 62
    96
  6
CONTINUOUS
  0
LAYER
  2
曲げ物
 70
     0
 62
   111
  6
CONTINUOUS
  0
LAYER
  2
鉄骨等
 70
     0
 62
   112
  6
CONTINUOUS
  0
LAYER
  2
St
 70
     0
 62
   127
  6
CONTINUOUS
  0
LAYER
  2
その他部品等
 70
     0
 62
   128
  6
CONTINUOUS
  0
LAYER
  2
ｶﾞｽｹｯﾄ
 70
     0
 62
   143
  6
CONTINUOUS
  0
LAYER
  2
ｽｹｯﾁ
 70
     0
 62
    14
  6
CONTINUOUS
  0
LAYER
  2
0
 70
     0
 62
    17
  6
CONTINUOUS
  0
LAYER
  2
1
 70
     0
 62
    30
  6
CONTINUOUS
  0
LAYER
  2
4
 70
     0
 62
    33
  6
CONTINUOUS
  0
LAYER
  2
ﾚｲﾔ3
 70
     0
 62
    46
  6
CONTINUOUS
  0
LAYER
  2
外形線
 70
     0
 62
    49
  6
CONTINUOUS
  0
LAYER
  2
部品
 70
     0
 62
    14
  6
CONTINUOUS
  0
LAYER
  2
サッシ芯
 70
     0
 62
    17
  6
DASHDOTX2
  0
LAYER
  2
寸法線
 70
     0
 62
    62
  6
CONTINUOUS
  0
LAYER
  2
姿図外形線
 70
     0
 62
    65
  6
CONTINUOUS
  0
LAYER
  2
姿補助線
 70
     0
 62
    30
  6
CONTINUOUS
  0
LAYER
  2
透視線
 70
     0
 62
    78
  6
DOT
  0
LAYER
  2
用紙
 70
     0
 62
    81
  6
CONTINUOUS
  0
LAYER
  2
実線図枠
 70
     0
 62
    94
  6
CONTINUOUS
  0
LAYER
  2
補助図枠
 70
     0
 62
    97
  6
CONTINUOUS
  0
LAYER
  2
建具記号
 70
     0
 62
   110
  6
CONTINUOUS
  0
LAYER
  2
補助文字
 70
     0
 62
   113
  6
CONTINUOUS
  0
LAYER
  2
LAYER010
 70
     0
 62
    11
  6
CONTINUOUS
  0
ENDTAB
  0
TABLE
  2
STYLE
 70
    10
  0
STYLE
  2
STANDARD
 70
     0
 40
1.0
 41
1.0
 42
1.0
 50
0.0
 71
     0
  3
TXT
  4
BIGFONT
  0
STYLE
  2
TATE
 70
     4
 40
1.0
 41
1.0
 42
1.0
 50
0.0
 71
     0
  3
TXT
  4
BIGFONT
  0
STYLE
  2
TextStyle03
 70
     0
 40
1.0
 41
1.0
 42
1.0
 50
0.0
 71
     0
  3
MONOTXT
  4
BIGFONT
  0
STYLE
  2
TextStyle04
 70
     0
 40
1.0
 41
1.0
 42
1.0
 50
0.0
 71
     0
  3
MONOTXT
  4
BIGFONT
  0
STYLE
  2
TextStyle05
 70
     0
 40
1.0
 41
1.0
 42
1.0
 50
0.0
 71
     0
  3
MONOTXT
  4
BIGFONT
  0
STYLE
  2
TextStyle06
 70
     0
 40
1.0
 41
1.0
 42
1.0
 50
0.0
 71
     0
  3
MONOTXT
  4
BIGFONT
  0
STYLE
  2
TextStyle07
 70
     0
 40
1.0
 41
1.0
 42
1.0
 50
0.0
 71
     0
  3
MONOTXT
  4
BIGFONT
  0
STYLE
  2
TextStyle08
 70
     0
 40
1.0
 41
1.0
 42
1.0
 50
0.0
 71
     0
  3
MONOTXT
  4
BIGFONT
  0
STYLE
  2
TextStyle09
 70
     0
 40
1.0
 41
1.0
 42
1.0
 50
0.0
 71
     0
  3
MONOTXT
  4
BIGFONT
  0
STYLE
  2
TextStyle10
 70
     0
 40
1.0
 41
1.0
 42
1.0
 50
0.0
 71
     0
  3
MONOTXT
  4
BIGFONT
  0
ENDTAB
  0
ENDSEC
  0
SECTION
  2
BLOCKS
  0
BLOCK
  2
*GRP_0001
 70
    65
 10
0.0
 20
0.0
  0
LINE
  8
型材断面
  6
CONTINUOUS
 10
195.0
 20
133.5
 11
195.0
 21
-133.5
  0
LINE
  8
型材断面
  6
CONTINUOUS
 10
195.0
 20
-133.5
 11
-185.0
 21
-133.5
  0
LINE
  8
型材断面
  6
CONTINUOUS
 10
-185.0
 20
-133.5
 11
-185.0
 21
133.5
  0
LINE
  8
型材断面
  6
CONTINUOUS
 10
195.0
 20
133.5
 11
-185.0
 21
133.5
  0
LINE
  8
型材断面
  6
CONTINUOUS
 10
145.0
 20
-133.5
 11
145.0
 21
-118.5
  0
LINE
  8
型材断面
  6
CONTINUOUS
 10
195.0
 20
-118.5
 11
145.0
 21
-118.5
  0
ENDBLK
  0
BLOCK
  2
*DIM_0002
 70
    65
 10
0.0
 20
0.0
  0
LINE
  8
寸法
  6
BYBLOCK
 62
     0
 10
-92.009562
 20
-13.511205
 11
-92.009562
 21
-13.121378
  0
LINE
  8
寸法
  6
BYBLOCK
 62
     0
 10
57.990438
 20
-13.121378
 11
-92.009562
 21
-13.121378
  0
POINT
  8
寸法
 62
     0
 10
57.990438
 20
-13.121378
  0
POINT
  8
寸法
 62
     0
 10
-92.009562
 20
-13.121378
  0
TEXT
  7
TextStyle03
  8
寸法
  6
CONTINUOUS
 62
     0
 10
-28.74375
 20
-12.75
  1
呼称寸法　4500
 40
3.0
 72
     5
 11
-5.30625
 21
-12.75
  0
ENDBLK
  0
BLOCK
  2
*DIM_0003
 70
    65
 10
0.0
 20
0.0
  0
LINE
  8
寸法
  6
BYBLOCK
 62
     0
 10
-75.342895
 20
19.183902
 11
-75.342895
 21
13.91212
  0
LINE
  8
寸法
  6
BYBLOCK
 62
     0
 10
-17.009562
 20
19.183905
 11
-17.009562
 21
13.91212
  0
LINE
  8
寸法
  6
BYBLOCK
 62
     0
 10
-75.342895
 20
13.91212
 11
-17.009562
 21
13.91212
  0
POINT
  8
寸法
 62
     0
 10
-75.342895
 20
13.91212
  0
POINT
  8
寸法
 62
     0
 10
-17.009562
 20
13.91212
  0
TEXT
  7
TextStyle03
  8
寸法
  6
CONTINUOUS
 62
     0
 10
-49.48125
 20
14.275
  1
1750
 40
3.0
 72
     5
 11
-42.91875
 21
14.275
  0
ENDBLK
  0
BLOCK
  2
*DIM_0004
 70
    65
 10
0.0
 20
0.0
  0
LINE
  8
寸法
  6
BYBLOCK
 62
     0
 10
41.32377
 20
19.183902
 11
41.32377
 21
13.91212
  0
LINE
  8
寸法
  6
BYBLOCK
 62
     0
 10
-17.009562
 20
13.91212
 11
41.32377
 21
13.91212
  0
POINT
  8
寸法
 62
     0
 10
41.32377
 20
13.91212
  0
TEXT
  7
TextStyle03
  8
寸法
  6
CONTINUOUS
 62
     0
 10
8.86875
 20
14.275
  1
1750
 40
3.0
 72
     5
 11
15.43125
 21
14.275
  0
ENDBLK
  0
BLOCK
  2
*DIM_0005
 70
    65
 10
0.0
 20
0.0
  0
LINE
  8
寸法
  6
BYBLOCK
 62
     0
 10
60.990482
 20
-69.576397
 11
60.990482
 21
-13.121378
  0
LINE
  8
寸法
  6
BYBLOCK
 62
     0
 10
57.990438
 20
-13.121378
 11
60.990482
 21
-13.121378
  0
POINT
  8
寸法
 62
     0
 10
57.990438
 20
-13.121378
  0
POINT
  8
寸法
 62
     0
 10
60.990482
 20
-13.121378
  0
TEXT
  7
TextStyle03
  8
寸法
  6
CONTINUOUS
 62
     0
 10
57.88125
 20
-12.75
  1
90
 40
3.0
 72
     5
 11
61.06875
 21
-12.75
  0
ENDBLK
  0
BLOCK
  2
*DIM_0006
 70
    65
 10
0.0
 20
0.0
  0
LINE
  8
寸法
  6
BYBLOCK
 62
     0
 10
-95.009608
 20
-69.576397
 11
-95.009608
 21
-13.121378
  0
LINE
  8
寸法
  6
BYBLOCK
 62
     0
 10
-92.009562
 20
-13.121378
 11
-95.009608
 21
-13.121378
  0
POINT
  8
寸法
 62
     0
 10
-92.009562
 20
-13.121378
  0
POINT
  8
寸法
 62
     0
 10
-95.009608
 20
-13.121378
  0
TEXT
  7
TextStyle03
  8
寸法
  6
CONTINUOUS
 62
     0
 10
-95.11875
 20
-12.75
  1
90
 40
3.0
 72
     5
 11
-91.93125
 21
-12.75
  0
ENDBLK
  0
BLOCK
  2
*DIM_0007
 70
    65
 10
0.0
 20
0.0
  0
LINE
  8
寸法
  6
BYBLOCK
 62
     0
 10
154.076993
 20
-53.785395
 11
162.135282
 21
-53.785395
  0
LINE
  8
寸法
  6
BYBLOCK
 62
     0
 10
154.076993
 20
-83.118728
 11
162.135282
 21
-83.118728
  0
LINE
  8
寸法
  6
BYBLOCK
 62
     0
 10
162.135282
 20
-53.785395
 11
162.135282
 21
-83.118728
  0
POINT
  8
寸法
 62
     0
 10
162.135282
 20
-53.785395
  0
POINT
  8
寸法
 62
     0
 10
162.135282
 20
-83.118728
  0
TEXT
  7
TextStyle03
  8
寸法
  6
CONTINUOUS
 62
     0
 10
161.775
 20
-70.9125
  1
880
 40
3.0
 50
90.0
 72
     5
 11
161.775
 21
-66.0375
  0
ENDBLK
  0
BLOCK
  2
*DIM_0008
 70
    65
 10
0.0
 20
0.0
  0
LINE
  8
寸法
  6
BYBLOCK
 62
     0
 10
-95.009562
 20
47.814033
 11
-108.3024
 21
47.814033
  0
LINE
  8
寸法
  6
BYBLOCK
 62
     0
 10
-95.009562
 20
27.814033
 11
-108.3024
 21
27.814033
  0
LINE
  8
寸法
  6
BYBLOCK
 62
     0
 10
-108.3024
 20
47.814033
 11
-108.3024
 21
27.814033
  0
POINT
  8
寸法
 62
     0
 10
-108.3024
 20
47.814033
  0
POINT
  8
寸法
 62
     0
 10
-108.3024
 20
27.814033
  0
TEXT
  7
TextStyle03
  8
寸法
  6
CONTINUOUS
 62
     0
 10
-108.675
 20
35.3625
  1
600
 40
3.0
 50
90.0
 72
     5
 11
-108.675
 21
40.2375
  0
ENDBLK
  0
BLOCK
  2
*DIM_0009
 70
    65
 10
0.0
 20
0.0
  0
LINE
  8
寸法
  6
BYBLOCK
 62
     0
 10
-83.67623
 20
55.814033
 11
-83.67623
 21
84.922105
  0
LINE
  8
寸法
  6
BYBLOCK
 62
     0
 10
-57.009562
 20
55.814033
 11
-57.009562
 21
84.922105
  0
LINE
  8
寸法
  6
BYBLOCK
 62
     0
 10
-83.67623
 20
84.922105
 11
-57.009562
 21
84.922105
  0
POINT
  8
寸法
 62
     0
 10
-83.67623
 20
84.922105
  0
POINT
  8
寸法
 62
     0
 10
-57.009562
 20
84.922105
  0
TEXT
  7
TextStyle03
  8
寸法
  6
CONTINUOUS
 62
     0
 10
-72.8125
 20
85.3
  1
800
 40
3.0
 72
     5
 11
-67.9375
 21
85.3
  0
ENDBLK
  0
BLOCK
  2
*DIM_0010
 70
    65
 10
0.0
 20
0.0
  0
LINE
  8
寸法
  6
BYBLOCK
 62
     0
 10
-30.342895
 20
55.814033
 11
-30.342895
 21
84.922105
  0
LINE
  8
寸法
  6
BYBLOCK
 62
     0
 10
-57.009562
 20
84.922105
 11
-30.342895
 21
84.922105
  0
POINT
  8
寸法
 62
     0
 10
-30.342895
 20
84.922105
  0
TEXT
  7
TextStyle03
  8
寸法
  6
CONTINUOUS
 62
     0
 10
-46.1375
 20
85.3
  1
800
 40
3.0
 72
     5
 11
-41.2625
 21
85.3
  0
ENDBLK
  0
BLOCK
  2
*DIM_0011
 70
    65
 10
0.0
 20
0.0
  0
LINE
  8
寸法
  6
BYBLOCK
 62
     0
 10
-3.67623
 20
55.814033
 11
-3.67623
 21
84.922105
  0
LINE
  8
寸法
  6
BYBLOCK
 62
     0
 10
-30.342895
 20
84.922105
 11
-3.67623
 21
84.922105
  0
POINT
  8
寸法
 62
     0
 10
-3.67623
 20
84.922105
  0
TEXT
  7
TextStyle03
  8
寸法
  6
CONTINUOUS
 62
     0
 10
-19.4625
 20
85.3
  1
800
 40
3.0
 72
     5
 11
-14.5875
 21
85.3
  0
ENDBLK
  0
BLOCK
  2
*DIM_0012
 70
    65
 10
0.0
 20
0.0
  0
LINE
  8
寸法
  6
BYBLOCK
 62
     0
 10
22.990438
 20
55.814033
 11
22.990438
 21
84.922105
  0
LINE
  8
寸法
  6
BYBLOCK
 62
     0
 10
-3.67623
 20
84.922105
 11
22.990438
 21
84.922105
  0
POINT
  8
寸法
 62
     0
 10
22.990438
 20
84.922105
  0
TEXT
  7
TextStyle03
  8
寸法
  6
CONTINUOUS
 62
     0
 10
7.1875
 20
85.3
  1
800
 40
3.0
 72
     5
 11
12.0625
 21
85.3
  0
ENDBLK
  0
BLOCK
  2
*DIM_0013
 70
    65
 10
0.0
 20
0.0
  0
LINE
  8
寸法
  6
BYBLOCK
 62
     0
 10
49.657105
 20
55.814033
 11
49.657105
 21
84.922105
  0
LINE
  8
寸法
  6
BYBLOCK
 62
     0
 10
22.990438
 20
84.922105
 11
49.657105
 21
84.922105
  0
POINT
  8
寸法
 62
     0
 10
49.657105
 20
84.922105
  0
TEXT
  7
TextStyle03
  8
寸法
  6
CONTINUOUS
 62
     0
 10
33.8625
 20
85.3
  1
800
 40
3.0
 72
     5
 11
38.7375
 21
85.3
  0
ENDBLK
  0
BLOCK
  2
*DIM_0014
 70
    65
 10
0.0
 20
0.0
  0
LINE
  8
寸法
  6
CONTINUOUS
 10
117.846083
 20
66.453292
 11
121.16275
 21
66.453292
  0
POINT
  8
寸法
 10
117.846083
 20
66.453292
  0
POINT
  8
寸法
 10
121.16275
 20
66.453292
  0
TEXT
  7
TextStyle03
  8
寸法
  6
CONTINUOUS
 10
116.01875
 20
66.625
  1
99.5
 40
3.0
 72
     5
 11
122.58125
 21
66.625
  0
ENDBLK
  0
BLOCK
  2
*DIM_0015
 70
    65
 10
0.0
 20
0.0
  0
LINE
  8
寸法
  6
CONTINUOUS
 10
71.629645
 20
-68.131475
 11
71.629645
 21
-71.448145
  0
POINT
  8
寸法
 10
71.629645
 20
-68.131475
  0
POINT
  8
寸法
 10
71.629645
 20
-71.448145
  0
TEXT
  7
TextStyle03
  8
寸法
  6
CONTINUOUS
 10
74.75
 20
-72.98125
  1
99.5
 40
3.0
 50
90.0
 72
     5
 11
74.75
 21
-66.41875
  0
ENDBLK
  0
BLOCK
  2
*DIM_0016
 70
    65
 10
0.0
 20
0.0
  0
LINE
  8
寸法
  6
CONTINUOUS
 10
153.076993
 20
-45.64636
 11
116.616993
 21
-45.64636
  0
POINT
  8
寸法
 10
153.076993
 20
-45.64636
  0
POINT
  8
寸法
 10
116.616993
 20
-45.64636
  0
TEXT
  7
TextStyle03
  8
寸法
  6
CONTINUOUS
 10
129.85625
 20
-45.3
  1
1093.8
 40
3.0
 72
     5
 11
139.79375
 21
-45.3
  0
ENDBLK
  0
ENDSEC
  0
SECTION
  2
ENTITIES
  0
POLYLINE
  8
通り芯
  6
CONTINUOUS
 66
     1
 70
     1
  0
VERTEX
  8
通り芯
 10
-210.0
 20
-148.5
  0
VERTEX
  8
通り芯
 10
210.0
 20
-148.5
  0
VERTEX
  8
通り芯
 10
210.0
 20
148.5
  0
VERTEX
  8
通り芯
 10
-210.0
 20
148.5
  0
SEQEND
  0
INSERT
  2
*GRP_0001
  8
型材断面
  6
CONTINUOUS
 10
0.0
 20
0.0
  0
LINE
  8
型材断面
  6
DASHDOT
 10
57.990438
 20
-77.836442
 11
57.990438
 21
52.814033
  0
LINE
  8
型材断面
  6
DASHDOT
 10
-17.009562
 20
-77.836442
 11
-17.009562
 21
52.814033
  0
LINE
  8
型材断面
  6
DASHDOT
 10
-92.009562
 20
-77.836442
 11
-92.009562
 21
52.814033
  0
LINE
  8
型材断面
  6
DASHDOT
 10
-17.009562
 20
22.814033
 11
-17.009562
 21
52.814033
  0
LINE
  8
型材断面
  6
CONTINUOUS
 10
-75.342895
 20
55.444162
 11
-76.838525
 21
58.03467
  0
LINE
  8
型材断面
  6
CONTINUOUS
 10
-75.342895
 20
55.444162
 11
-73.847265
 21
58.03467
  0
LINE
  8
型材断面
  6
CONTINUOUS
 10
-73.847265
 20
58.03467
 11
-76.838525
 21
58.03467
  0
LINE
  8
型材断面
  6
CONTINUOUS
 10
-132.86177
 20
97.32138
 11
-134.3574
 21
94.730873
  0
LINE
  8
型材断面
  6
CONTINUOUS
 10
-132.86177
 20
97.32138
 11
-131.36614
 21
94.730873
  0
LINE
  8
型材断面
  6
CONTINUOUS
 10
-131.36614
 20
94.730873
 11
-134.3574
 21
94.730873
  0
LINE
  8
型材断面
  6
CONTINUOUS
 10
-138.884357
 20
93.792277
 11
-92.64258
 21
93.792277
  0
LINE
  8
型材断面
  6
CONTINUOUS
 10
-94.639692
 20
37.814033
 11
-97.2302
 21
39.309663
  0
LINE
  8
型材断面
  6
CONTINUOUS
 10
-94.639692
 20
37.814033
 11
-97.2302
 21
36.318403
  0
LINE
  8
型材断面
  6
CONTINUOUS
 10
-97.2302
 20
36.318403
 11
-97.2302
 21
39.309663
  0
LINE
  8
型材断面
  6
CONTINUOUS
 10
-75.342895
 20
20.183902
 11
-76.838525
 21
17.593395
  0
LINE
  8
型材断面
  6
CONTINUOUS
 10
-75.342895
 20
20.183902
 11
-73.847265
 21
17.593395
  0
LINE
  8
型材断面
  6
CONTINUOUS
 10
-73.847265
 20
17.593395
 11
-76.838525
 21
17.593395
  0
LINE
  8
型材断面
  6
CONTINUOUS
 10
41.32377
 20
55.444162
 11
42.8194
 21
58.03467
  0
LINE
  8
型材断面
  6
CONTINUOUS
 10
41.32377
 20
55.444162
 11
39.82814
 21
58.03467
  0
LINE
  8
型材断面
  6
CONTINUOUS
 10
39.82814
 20
58.03467
 11
42.8194
 21
58.03467
  0
LINE
  8
型材断面
  6
CONTINUOUS
 10
60.620567
 20
37.814033
 11
63.211075
 21
39.309663
  0
LINE
  8
型材断面
  6
CONTINUOUS
 10
60.620567
 20
37.814033
 11
63.211075
 21
36.318403
  0
LINE
  8
型材断面
  6
CONTINUOUS
 10
63.211075
 20
36.318403
 11
63.211075
 21
39.309663
  0
LINE
  8
型材断面
  6
CONTINUOUS
 10
41.32377
 20
20.183902
 11
42.8194
 21
17.593395
  0
LINE
  8
型材断面
  6
CONTINUOUS
 10
41.32377
 20
20.183902
 11
39.82814
 21
17.593395
  0
LINE
  8
型材断面
  6
CONTINUOUS
 10
39.82814
 20
17.593395
 11
42.8194
 21
17.593395
  0
LINE
  8
型材断面
  6
CONTINUOUS
 10
-17.009562
 20
55.44416
 11
-15.513933
 21
58.034668
  0
LINE
  8
型材断面
  6
CONTINUOUS
 10
-17.009562
 20
55.44416
 11
-18.505192
 21
58.034668
  0
LINE
  8
型材断面
  6
CONTINUOUS
 10
-18.505192
 20
58.034668
 11
-15.513933
 21
58.034668
  0
LINE
  8
型材断面
  6
CONTINUOUS
 10
-17.009562
 20
20.1839
 11
-15.513933
 21
17.593392
  0
LINE
  8
型材断面
  6
CONTINUOUS
 10
-17.009562
 20
20.1839
 11
-18.505192
 21
17.593392
  0
LINE
  8
型材断面
  6
CONTINUOUS
 10
-18.505192
 20
17.593392
 11
-15.513933
 21
17.593392
  0
LINE
  8
型材断面
  6
CONTINUOUS
 10
-138.884357
 20
87.157948
 11
-92.64258
 21
87.157948
  0
LINE
  8
型材断面
  6
CONTINUOUS
 10
-95.00961
 20
19.81399
 11
-17.009562
 21
19.81399
  0
LINE
  8
型材断面
  6
CONTINUOUS
 10
-95.00961
 20
55.814075
 11
-17.009562
 21
55.814075
  0
LINE
  8
型材断面
  6
CONTINUOUS
 10
60.990485
 20
55.814075
 11
-17.009562
 21
55.814075
  0
LINE
  8
型材断面
  6
CONTINUOUS
 10
60.990485
 20
19.81399
 11
-17.009562
 21
19.81399
  0
CIRCLE
  8
型材断面
  6
CONTINUOUS
 62
    47
 10
120.662752
 20
55.814075
 40
0.011113
  0
LINE
  8
型材断面
  6
CONTINUOUS
 62
    47
 10
121.16275
 20
55.314085
 11
121.16275
 21
55.814075
  0
LINE
  8
型材断面
  6
CONTINUOUS
 62
    47
 10
121.16275
 20
55.814075
 11
120.662752
 21
55.814075
  0
LINE
  8
型材断面
  6
CONTINUOUS
 62
    47
 10
120.662752
 20
55.814075
 11
120.165573
 21
52.880745
  0
LINE
  8
型材断面
  6
CONTINUOUS
 62
    47
 10
121.16275
 20
55.314085
 11
121.66275
 21
55.314085
  0
LINE
  8
型材断面
  6
CONTINUOUS
 62
    47
 10
120.165573
 20
52.880745
 11
119.512747
 21
52.880745
  0
CIRCLE
  8
型材断面
  6
CONTINUOUS
 62
    47
 10
120.662752
 20
19.814092
 40
0.011113
  0
LINE
  8
型材断面
  6
CONTINUOUS
 62
    47
 10
121.16275
 20
20.314085
 11
121.16275
 21
19.814092
  0
LINE
  8
型材断面
  6
CONTINUOUS
 62
    47
 10
121.16275
 20
19.814092
 11
120.662752
 21
19.814092
  0
LINE
  8
型材断面
  6
CONTINUOUS
 62
    47
 10
120.662752
 20
19.814092
 11
120.165573
 21
22.747425
  0
LINE
  8
型材断面
  6
CONTINUOUS
 62
    47
 10
121.16275
 20
20.314085
 11
121.66275
 21
20.314085
  0
LINE
  8
型材断面
  6
CONTINUOUS
 62
    47
 10
120.165573
 20
22.747425
 11
119.512747
 21
22.747425
  0
LINE
  8
型材断面
  6
CONTINUOUS
 62
    47
 10
118.012747
 20
54.460545
 11
118.012747
 21
37.814085
  0
LINE
  8
型材断面
  6
CONTINUOUS
 62
    47
 10
117.846083
 20
54.304025
 11
117.846083
 21
37.814085
  0
LINE
  8
型材断面
  6
CONTINUOUS
 62
    47
 10
119.512747
 20
54.304025
 11
119.512747
 21
37.814085
  0
LINE
  8
型材断面
  6
CONTINUOUS
 10
120.165573
 20
52.880797
 11
120.165573
 21
37.814085
  0
LINE
  8
型材断面
  6
CONTINUOUS
 10
120.662752
 20
55.81413
 11
120.662752
 21
37.814085
  0
LINE
  8
型材断面
  6
CONTINUOUS
 62
    47
 10
121.16275
 20
55.81413
 11
121.16275
 21
37.814085
  0
LINE
  8
型材断面
  6
CONTINUOUS
 10
121.66275
 20
55.31414
 11
121.66275
 21
37.814085
  0
LINE
  8
型材断面
  6
CONTINUOUS
 10
121.66275
 20
20.31403
 11
121.66275
 21
37.814085
  0
LINE
  8
型材断面
  6
CONTINUOUS
 10
120.662752
 20
19.81404
 11
120.662752
 21
37.814085
  0
LINE
  8
型材断面
  6
CONTINUOUS
 62
    47
 10
121.16275
 20
19.81404
 11
121.16275
 21
37.814085
  0
LINE
  8
型材断面
  6
CONTINUOUS
 10
120.165573
 20
22.74737
 11
120.165573
 21
37.814085
  0
LINE
  8
型材断面
  6
CONTINUOUS
 62
    47
 10
119.512747
 20
21.324145
 11
119.512747
 21
37.814085
  0
LINE
  8
型材断面
  6
CONTINUOUS
 62
    47
 10
118.012747
 20
21.167622
 11
118.012747
 21
37.814085
  0
LINE
  8
型材断面
  6
CONTINUOUS
 62
    47
 10
117.846083
 20
21.324145
 11
117.846083
 21
37.814085
  0
LINE
  8
型材断面
  6
DASHDOT
 10
-92.009562
 20
37.814033
 11
128.63876
 21
37.814033
  0
CIRCLE
  8
型材断面
  6
CONTINUOUS
 62
    47
 10
-95.009555
 20
-70.948145
 40
0.011113
  0
LINE
  8
型材断面
  6
CONTINUOUS
 62
    47
 10
-94.509562
 20
-71.448145
 11
-95.009555
 21
-71.448145
  0
LINE
  8
型材断面
  6
CONTINUOUS
 62
    47
 10
-95.009555
 20
-71.448145
 11
-95.009555
 21
-70.948145
  0
LINE
  8
型材断面
  6
CONTINUOUS
 62
    47
 10
-95.009555
 20
-70.948145
 11
-92.076223
 21
-70.450965
  0
LINE
  8
型材断面
  6
CONTINUOUS
 62
    47
 10
-94.509562
 20
-71.448145
 11
-94.509562
 21
-71.948145
  0
LINE
  8
型材断面
  6
CONTINUOUS
 62
    47
 10
-92.076223
 20
-70.450965
 11
-92.076223
 21
-69.798142
  0
CIRCLE
  8
型材断面
  6
CONTINUOUS
 62
    47
 10
60.990428
 20
-70.948145
 40
0.011113
  0
LINE
  8
型材断面
  6
CONTINUOUS
 62
    47
 10
60.490438
 20
-71.448145
 11
60.990428
 21
-71.448145
  0
LINE
  8
型材断面
  6
CONTINUOUS
 62
    47
 10
60.990428
 20
-71.448145
 11
60.990428
 21
-70.948145
  0
LINE
  8
型材断面
  6
CONTINUOUS
 62
    47
 10
60.990428
 20
-70.948145
 11
58.057098
 21
-70.450965
  0
LINE
  8
型材断面
  6
CONTINUOUS
 62
    47
 10
60.490438
 20
-71.448145
 11
60.490438
 21
-71.948145
  0
LINE
  8
型材断面
  6
CONTINUOUS
 62
    47
 10
58.057098
 20
-70.450965
 11
58.057098
 21
-69.798142
  0
LINE
  8
型材断面
  6
CONTINUOUS
 10
-95.009608
 20
-70.948147
 11
-17.009562
 21
-70.948147
  0
LINE
  8
型材断面
  6
CONTINUOUS
 62
    47
 10
-93.499503
 20
-69.798142
 11
-17.009562
 21
-69.798142
  0
LINE
  8
型材断面
  6
CONTINUOUS
 62
    47
 10
-95.009608
 20
-71.448145
 11
-17.009562
 21
-71.448145
  0
LINE
  8
型材断面
  6
CONTINUOUS
 10
-94.509617
 20
-71.948145
 11
-17.009562
 21
-71.948145
  0
LINE
  8
型材断面
  6
CONTINUOUS
 10
-92.076278
 20
-70.450965
 11
-17.009562
 21
-70.450965
  0
LINE
  8
型材断面
  6
CONTINUOUS
 62
    47
 10
-93.499503
 20
-68.131475
 11
-17.009562
 21
-68.131475
  0
LINE
  8
型材断面
  6
CONTINUOUS
 62
    47
 10
-93.656025
 20
-68.298142
 11
-17.009562
 21
-68.298142
  0
LINE
  8
型材断面
  6
CONTINUOUS
 10
60.490493
 20
-71.948145
 11
-17.009562
 21
-71.948145
  0
LINE
  8
型材断面
  6
CONTINUOUS
 62
    47
 10
60.990482
 20
-71.448145
 11
-17.009562
 21
-71.448145
  0
LINE
  8
型材断面
  6
CONTINUOUS
 10
60.990482
 20
-70.948147
 11
-17.009562
 21
-70.948147
  0
LINE
  8
型材断面
  6
CONTINUOUS
 10
58.05715
 20
-70.450965
 11
-17.009562
 21
-70.450965
  0
LINE
  8
型材断面
  6
CONTINUOUS
 62
    47
 10
59.480378
 20
-69.798142
 11
-17.009562
 21
-69.798142
  0
LINE
  8
型材断面
  6
CONTINUOUS
 62
    47
 10
59.636897
 20
-68.298142
 11
-17.009562
 21
-68.298142
  0
LINE
  8
型材断面
  6
CONTINUOUS
 62
    47
 10
59.480378
 20
-68.131475
 11
-17.009562
 21
-68.131475
  0
LINE
  8
型材断面
  6
DASHDOT
 10
128.63876
 20
22.814085
 11
-92.009562
 21
22.814085
  0
LINE
  8
型材断面
  6
DASHDOT
 10
128.63876
 20
52.814085
 11
-92.009562
 21
52.814085
  0
LINE
  8
型材断面
  6
DASHDOT
 10
-54.634562
 20
22.814033
 11
-54.634562
 21
52.814033
  0
LINE
  8
型材断面
  6
DASHDOT
 10
20.615438
 20
22.814033
 11
20.615438
 21
52.814033
  0
LINE
  8
型材断面
  6
CONTINUOUS
 10
38.88627
 20
51.960545
 11
2.219605
 21
51.960545
  0
LINE
  8
型材断面
  6
CONTINUOUS
 10
38.88627
 20
23.66752
 11
2.219605
 21
23.66752
  0
LINE
  8
型材断面
  6
CONTINUOUS
 10
1.38627
 20
23.66752
 11
-35.405395
 21
23.66752
  0
LINE
  8
型材断面
  6
CONTINUOUS
 10
1.38627
 20
51.960545
 11
-35.405395
 21
51.960545
  0
LINE
  8
型材断面
  6
CONTINUOUS
 10
-36.23873
 20
51.960545
 11
-72.905395
 21
51.960545
  0
LINE
  8
型材断面
  6
CONTINUOUS
 10
-36.23873
 20
23.66752
 11
-72.905395
 21
23.66752
  0
LINE
  8
型材断面
  6
CONTINUOUS
 10
21.865438
 20
24.500852
 11
19.365438
 21
24.500852
  0
LINE
  8
型材断面
  6
CONTINUOUS
 10
21.865438
 20
24.500852
 11
21.865438
 21
51.127212
  0
LINE
  8
型材断面
  6
CONTINUOUS
 10
21.865438
 20
51.127212
 11
19.365438
 21
51.127212
  0
LINE
  8
型材断面
  6
CONTINUOUS
 10
19.365438
 20
24.500852
 11
19.365438
 21
51.127212
  0
LINE
  8
型材断面
  6
CONTINUOUS
 10
-15.759562
 20
24.500852
 11
-18.259562
 21
24.500852
  0
LINE
  8
型材断面
  6
CONTINUOUS
 10
-15.759562
 20
24.500852
 11
-15.759562
 21
51.127212
  0
LINE
  8
型材断面
  6
CONTINUOUS
 10
-15.759562
 20
51.127212
 11
-18.259562
 21
51.127212
  0
LINE
  8
型材断面
  6
CONTINUOUS
 10
-18.259562
 20
24.500852
 11
-18.259562
 21
51.127212
  0
LINE
  8
型材断面
  6
CONTINUOUS
 10
-53.384562
 20
24.500852
 11
-55.884562
 21
24.500852
  0
LINE
  8
型材断面
  6
CONTINUOUS
 10
-53.384562
 20
24.500852
 11
-53.384562
 21
51.127212
  0
LINE
  8
型材断面
  6
CONTINUOUS
 10
-53.384562
 20
51.127212
 11
-55.884562
 21
51.127212
  0
LINE
  8
型材断面
  6
CONTINUOUS
 10
-55.884562
 20
24.500852
 11
-55.884562
 21
51.127212
  0
LINE
  8
型材断面
  6
CONTINUOUS
 10
60.990485
 20
55.814075
 11
60.990485
 21
37.81403
  0
LINE
  8
型材断面
  6
CONTINUOUS
 10
60.990485
 20
19.81399
 11
60.990485
 21
37.814035
  0
LINE
  8
型材断面
  6
CONTINUOUS
 10
59.4012
 20
21.16752
 11
59.6369
 21
21.40322
  0
LINE
  8
型材断面
  6
CONTINUOUS
 10
60.990485
 20
19.81399
 11
59.519077
 21
21.285397
  0
LINE
  8
型材断面
  6
CONTINUOUS
 10
56.9012
 20
23.66752
 11
57.1369
 21
23.90322
  0
LINE
  8
型材断面
  6
CONTINUOUS
 10
57.1369
 20
23.90322
 11
59.636897
 21
21.403223
  0
LINE
  8
型材断面
  6
CONTINUOUS
 10
56.9012
 20
23.66752
 11
59.401097
 21
21.167622
  0
LINE
  8
型材断面
  6
CONTINUOUS
 10
57.136897
 20
37.397365
 11
57.136897
 21
23.903218
  0
LINE
  8
型材断面
  6
CONTINUOUS
 10
59.4012
 20
54.460545
 11
59.6369
 21
54.224845
  0
LINE
  8
型材断面
  6
CONTINUOUS
 10
60.990485
 20
55.814075
 11
59.519077
 21
54.342668
  0
LINE
  8
型材断面
  6
CONTINUOUS
 10
56.9012
 20
51.960545
 11
57.1369
 21
51.724845
  0
LINE
  8
型材断面
  6
CONTINUOUS
 10
57.1369
 20
51.724845
 11
59.636897
 21
54.224842
  0
LINE
  8
型材断面
  6
CONTINUOUS
 10
56.9012
 20
51.960545
 11
59.401097
 21
54.460442
  0
LINE
  8
型材断面
  6
CONTINUOUS
 10
57.136897
 20
38.2307
 11
57.136897
 21
51.724848
  0
LINE
  8
型材断面
  6
CONTINUOUS
 10
59.636897
 20
21.403223
 11
59.636897
 21
54.224842
  0
LINE
  8
型材断面
  6
CONTINUOUS
 10
39.719605
 20
51.960545
 11
56.9012
 21
51.960545
  0
LINE
  8
型材断面
  6
CONTINUOUS
 10
39.719605
 20
23.66752
 11
56.9012
 21
23.66752
  0
LINE
  8
型材断面
  6
CONTINUOUS
 10
-95.00961
 20
55.814075
 11
-95.00961
 21
37.81403
  0
LINE
  8
型材断面
  6
CONTINUOUS
 10
-95.00961
 20
19.81399
 11
-95.00961
 21
37.814035
  0
LINE
  8
型材断面
  6
CONTINUOUS
 10
-93.420325
 20
21.16752
 11
-93.656025
 21
21.40322
  0
LINE
  8
型材断面
  6
CONTINUOUS
 10
-95.00961
 20
19.81399
 11
-93.538202
 21
21.285397
  0
LINE
  8
型材断面
  6
CONTINUOUS
 10
-90.920325
 20
23.66752
 11
-91.156025
 21
23.90322
  0
LINE
  8
型材断面
  6
CONTINUOUS
 10
-91.156025
 20
23.90322
 11
-93.656023
 21
21.403223
  0
LINE
  8
型材断面
  6
CONTINUOUS
 10
-90.920325
 20
23.66752
 11
-93.420222
 21
21.167622
  0
LINE
  8
型材断面
  6
CONTINUOUS
 10
-91.156023
 20
37.397365
 11
-91.156023
 21
23.903218
  0
LINE
  8
型材断面
  6
CONTINUOUS
 10
-93.420325
 20
54.460545
 11
-93.656025
 21
54.224845
  0
LINE
  8
型材断面
  6
CONTINUOUS
 10
-95.00961
 20
55.814075
 11
-93.538202
 21
54.342668
  0
LINE
  8
型材断面
  6
CONTINUOUS
 10
-90.920325
 20
51.960545
 11
-91.156025
 21
51.724845
  0
LINE
  8
型材断面
  6
CONTINUOUS
 10
-91.156025
 20
51.724845
 11
-93.656023
 21
54.224842
  0
LINE
  8
型材断面
  6
CONTINUOUS
 10
-90.920325
 20
51.960545
 11
-93.420222
 21
54.460442
  0
LINE
  8
型材断面
  6
CONTINUOUS
 10
-91.156023
 20
38.2307
 11
-91.156023
 21
51.724848
  0
LINE
  8
型材断面
  6
CONTINUOUS
 10
-93.656023
 20
21.403223
 11
-93.656023
 21
54.224842
  0
LINE
  8
型材断面
  6
CONTINUOUS
 10
-73.73873
 20
23.66752
 11
-90.920325
 21
23.66752
  0
LINE
  8
型材断面
  6
CONTINUOUS
 10
59.4012
 20
21.16752
 11
-93.420325
 21
21.16752
  0
LINE
  8
型材断面
  6
CONTINUOUS
 10
-73.73873
 20
51.960545
 11
-90.920325
 21
51.960545
  0
LINE
  8
型材断面
  6
CONTINUOUS
 10
59.4012
 20
54.460545
 11
-93.420325
 21
54.460545
  0
TEXT
  7
TextStyle03
  8
文字
  6
CONTINUOUS
 10
-130.075
 20
94.925
  1
は排水穴位置を示す
 40
3.0
 72
     5
 11
-100.075
 21
94.925
  0
TEXT
  7
TextStyle03
  8
文字
  6
CONTINUOUS
 10
60.45
 20
104.525
  1
ＮＳコード：ＮＳＦＫＺ
 40
5.0
 72
     5
 11
121.7
 21
104.525
  0
TEXT
  7
TextStyle03
  8
文字
  6
CONTINUOUS
 10
134.525
 20
-76.7
  1
網入り6.8t
 40
3.0
 72
     5
 11
151.2125
 21
-76.7
  0
TEXT
  7
TextStyle03
  8
文字
  6
CONTINUOUS
 10
141.2
 20
-81.375
  1
×４枚
 40
3.0
 72
     5
 11
150.95
 21
-81.375
  0
TEXT
  7
TextStyle03
  8
文字
  6
CONTINUOUS
 10
-113.0
 20
16.275
  1
アンカーピッチ
 40
3.0
 50
90.0
 72
     5
 11
-113.0
 21
39.525
  0
TEXT
  7
TextStyle03
  8
文字
  6
CONTINUOUS
 10
-77.075
 20
89.9
  1
アンカーピッチ
 40
3.0
 72
     5
 11
-53.825
 21
89.9
  0
TEXT
  7
TextStyle03
  8
文字
  6
CONTINUOUS
 10
-133.8
 20
88.05
  1
アンカー数量　１６ヶ所
 40
3.0
 72
     5
 11
-97.05
 21
88.05
  0
LINE
  8
文字
  6
CONTINUOUS
 10
117.846083
 20
66.453292
 11
117.846083
 21
57.100135
  0
LINE
  8
文字
  6
CONTINUOUS
 10
121.16275
 20
66.453292
 11
121.16275
 21
57.16549
  0
LINE
  8
文字
  6
CONTINUOUS
 10
71.629645
 20
-68.131475
 11
62.276488
 21
-68.131475
  0
LINE
  8
文字
  6
CONTINUOUS
 10
71.629645
 20
-71.448145
 11
62.341842
 21
-71.448145
  0
LINE
  8
文字
  6
CONTINUOUS
 10
153.076993
 20
-45.64636
 11
153.076993
 21
-52.34803
  0
LINE
  8
文字
  6
CONTINUOUS
 10
116.616993
 20
-45.64636
 11
116.616993
 21
-52.34803
  0
TEXT
  7
TextStyle03
  8
文字
  6
CONTINUOUS
 10
60.3
 20
125.25
  1
シリーズ：ＴＦ２ＦＫＬ
 40
5.0
 72
     5
 11
121.55
 21
125.25
  0
TEXT
  7
TextStyle03
  8
文字
  6
CONTINUOUS
 10
60.3
 20
119.625
  1
　　　　　（固定）900×4500タイプ
 40
5.0
 72
     5
 11
152.4875
 21
119.625
  0
TEXT
  7
TextStyle03
  8
文字
  6
CONTINUOUS
 10
60.3
 20
114.0
  1
図面名　：外観姿図
 40
5.0
 72
     5
 11
110.3
 21
114.0
  0
TEXT
  7
TextStyle03
  8
文字
  6
CONTINUOUS
 10
60.3
 20
108.375
  1
　　　　　　
 40
5.0
 72
     5
 11
93.425
 21
108.375
  0
LINE
  8
文字
  6
CONTINUOUS
 10
39.719605
 20
23.66752
 11
39.719605
 21
21.16752
  0
LINE
  8
文字
  6
CONTINUOUS
 10
38.88627
 20
23.66752
 11
38.88627
 21
21.16752
  0
LINE
  8
文字
  6
CONTINUOUS
 10
2.219605
 20
23.66752
 11
2.219605
 21
21.16752
  0
LINE
  8
文字
  6
CONTINUOUS
 10
1.38627
 20
23.66752
 11
1.38627
 21
21.16752
  0
LINE
  8
文字
  6
CONTINUOUS
 10
-73.73873
 20
23.66752
 11
-73.73873
 21
21.16752
  0
LINE
  8
文字
  6
CONTINUOUS
 10
-72.905395
 20
23.66752
 11
-72.905395
 21
21.16752
  0
LINE
  8
文字
  6
CONTINUOUS
 10
-36.23873
 20
23.66752
 11
-36.23873
 21
21.16752
  0
LINE
  8
文字
  6
CONTINUOUS
 10
-35.405395
 20
23.66752
 11
-35.405395
 21
21.16752
  0
LINE
  8
文字
  6
CONTINUOUS
 10
39.719605
 20
51.960545
 11
39.719605
 21
54.460545
  0
LINE
  8
文字
  6
CONTINUOUS
 10
38.88627
 20
51.960545
 11
38.88627
 21
54.460545
  0
LINE
  8
文字
  6
CONTINUOUS
 10
2.219605
 20
51.960545
 11
2.219605
 21
54.460545
  0
LINE
  8
文字
  6
CONTINUOUS
 10
1.38627
 20
51.960545
 11
1.38627
 21
54.460545
  0
LINE
  8
文字
  6
CONTINUOUS
 10
-73.73873
 20
51.960545
 11
-73.73873
 21
54.460545
  0
LINE
  8
文字
  6
CONTINUOUS
 10
-72.905395
 20
51.960545
 11
-72.905395
 21
54.460545
  0
LINE
  8
文字
  6
CONTINUOUS
 10
-36.23873
 20
51.960545
 11
-36.23873
 21
54.460545
  0
LINE
  8
文字
  6
CONTINUOUS
 10
-35.405395
 20
51.960545
 11
-35.405395
 21
54.460545
  0
LINE
  8
文字
  6
CONTINUOUS
 10
59.636897
 20
37.397365
 11
57.136897
 21
37.397365
  0
LINE
  8
文字
  6
CONTINUOUS
 10
59.636897
 20
38.2307
 11
57.136897
 21
38.2307
  0
LINE
  8
文字
  6
CONTINUOUS
 10
-93.656023
 20
37.397365
 11
-91.156023
 21
37.397365
  0
LINE
  8
文字
  6
CONTINUOUS
 10
-93.656023
 20
38.2307
 11
-91.156023
 21
38.2307
  0
INSERT
  2
*DIM_0002
  8
寸法
  6
CONTINUOUS
 10
0.0
 20
0.0
  0
INSERT
  2
*DIM_0003
  8
寸法
  6
CONTINUOUS
 10
0.0
 20
0.0
  0
INSERT
  2
*DIM_0004
  8
寸法
  6
CONTINUOUS
 10
0.0
 20
0.0
  0
INSERT
  2
*DIM_0005
  8
寸法
  6
CONTINUOUS
 10
0.0
 20
0.0
  0
INSERT
  2
*DIM_0006
  8
寸法
  6
CONTINUOUS
 10
0.0
 20
0.0
  0
INSERT
  2
*DIM_0007
  8
寸法
  6
CONTINUOUS
 10
0.0
 20
0.0
  0
INSERT
  2
*DIM_0008
  8
寸法
  6
CONTINUOUS
 10
0.0
 20
0.0
  0
INSERT
  2
*DIM_0009
  8
寸法
  6
CONTINUOUS
 10
0.0
 20
0.0
  0
INSERT
  2
*DIM_0010
  8
寸法
  6
CONTINUOUS
 10
0.0
 20
0.0
  0
INSERT
  2
*DIM_0011
  8
寸法
  6
CONTINUOUS
 10
0.0
 20
0.0
  0
INSERT
  2
*DIM_0012
  8
寸法
  6
CONTINUOUS
 10
0.0
 20
0.0
  0
INSERT
  2
*DIM_0013
  8
寸法
  6
CONTINUOUS
 10
0.0
 20
0.0
  0
INSERT
  2
*DIM_0014
  8
寸法
  6
CONTINUOUS
 10
0.0
 20
0.0
  0
INSERT
  2
*DIM_0015
  8
寸法
  6
CONTINUOUS
 10
0.0
 20
0.0
  0
INSERT
  2
*DIM_0016
  8
寸法
  6
CONTINUOUS
 10
0.0
 20
0.0
  0
LINE
  8
別途部材
  6
CONTINUOUS
 62
    47
 10
117.946083
 20
54.460545
 11
118.012747
 21
54.460545
  0
ARC
  8
別途部材
  6
CONTINUOUS
 62
    47
 10
117.94608
 20
54.360546
 40
0.1
 50
90.0
 51
180.0
  0
LINE
  8
別途部材
  6
CONTINUOUS
 62
    47
 10
117.846083
 20
54.360545
 11
117.846083
 21
54.304025
  0
LINE
  8
別途部材
  6
CONTINUOUS
 62
    47
 10
119.512747
 20
54.304025
 11
118.012747
 21
54.304025
  0
LINE
  8
別途部材
  6
CONTINUOUS
 62
    47
 10
117.946083
 20
21.167622
 11
118.012747
 21
21.167622
  0
ARC
  8
別途部材
  6
CONTINUOUS
 62
    47
 10
117.94608
 20
21.267622
 40
0.1
 50
180.0
 51
270.0
  0
LINE
  8
別途部材
  6
CONTINUOUS
 62
    47
 10
117.846083
 20
21.267622
 11
117.846083
 21
21.324145
  0
LINE
  8
別途部材
  6
CONTINUOUS
 62
    47
 10
119.512747
 20
21.324145
 11
118.012747
 21
21.324145
  0
LINE
  8
別途部材
  6
CONTINUOUS
 62
    47
 10
-93.656025
 20
-68.231475
 11
-93.656025
 21
-68.298142
  0
ARC
  8
別途部材
  6
CONTINUOUS
 62
    47
 10
-93.556027
 20
-68.231472
 40
0.1
 50
90.0
 51
180.0
  0
LINE
  8
別途部材
  6
CONTINUOUS
 62
    47
 10
-93.556025
 20
-68.131475
 11
-93.499503
 21
-68.131475
  0
LINE
  8
別途部材
  6
CONTINUOUS
 62
    47
 10
-93.499503
 20
-69.798142
 11
-93.499503
 21
-68.298142
  0
LINE
  8
別途部材
  6
CONTINUOUS
 62
    47
 10
59.636897
 20
-68.231475
 11
59.636897
 21
-68.298142
  0
ARC
  8
別途部材
  6
CONTINUOUS
 62
    47
 10
59.536898
 20
-68.231472
 40
0.1
 50
0.0
 51
90.0
  0
LINE
  8
別途部材
  6
CONTINUOUS
 62
    47
 10
59.536897
 20
-68.131475
 11
59.480378
 21
-68.131475
  0
LINE
  8
別途部材
  6
CONTINUOUS
 62
    47
 10
59.480378
 20
-69.798142
 11
59.480378
 21
-68.298142
  0
LINE
  8
曲げ物
  6
CONTINUOUS
 10
42.716167
 20
39.693362
 11
39.020855
 21
35.99805
  0
LINE
  8
曲げ物
  6
CONTINUOUS
 10
42.012697
 20
38.157252
 11
40.556968
 21
36.701522
  0
LINE
  8
曲げ物
  6
CONTINUOUS
 10
41.180057
 20
38.989892
 11
39.724328
 21
37.534162
  0
LINE
  8
曲げ物
  6
CONTINUOUS
 10
4.7112
 20
39.693362
 11
1.015887
 21
35.99805
  0
LINE
  8
曲げ物
  6
CONTINUOUS
 10
4.00773
 20
38.157252
 11
2.552
 21
36.701522
  0
LINE
  8
曲げ物
  6
CONTINUOUS
 10
3.17509
 20
38.989892
 11
1.71936
 21
37.534162
  0
LINE
  8
曲げ物
  6
CONTINUOUS
 10
-33.658252
 20
39.693362
 11
-37.353565
 21
35.99805
  0
LINE
  8
曲げ物
  6
CONTINUOUS
 10
-34.361722
 20
38.157252
 11
-35.817453
 21
36.701522
  0
LINE
  8
曲げ物
  6
CONTINUOUS
 10
-35.194362
 20
38.989892
 11
-36.650093
 21
37.534162
  0
LINE
  8
曲げ物
  6
CONTINUOUS
 10
-71.175543
 20
39.693362
 11
-74.870855
 21
35.99805
  0
LINE
  8
曲げ物
  6
CONTINUOUS
 10
-71.879013
 20
38.157252
 11
-73.334742
 21
36.701522
  0
LINE
  8
曲げ物
  6
CONTINUOUS
 10
-72.711653
 20
38.989892
 11
-74.167382
 21
37.534162
  0
LINE
  8
曲げ物
  6
CONTINUOUS
 10
153.076993
 20
-83.118728
 11
153.076993
 21
-53.785395
  0
LINE
  8
曲げ物
  6
CONTINUOUS
 10
116.616993
 20
-83.118728
 11
116.616993
 21
-53.785395
  0
LINE
  8
曲げ物
  6
CONTINUOUS
 10
153.076993
 20
-53.785395
 11
116.616993
 21
-53.785395
  0
LINE
  8
曲げ物
  6
CONTINUOUS
 10
153.076993
 20
-83.118728
 11
116.616993
 21
-83.118728
  0
CIRCLE
  8
LAYER010
  6
CONTINUOUS
 62
    47
 10
120.662752
 20
55.814075
 40
0.011113
  0
CIRCLE
  8
LAYER010
  6
CONTINUOUS
 62
    47
 10
120.662752
 20
19.814092
 40
0.011113
  0
CIRCLE
  8
LAYER010
  6
CONTINUOUS
 62
    47
 10
-95.009555
 20
-70.948145
 40
0.011113
  0
CIRCLE
  8
LAYER010
  6
CONTINUOUS
 62
    47
 10
60.990428
 20
-70.948145
 40
0.011113
  0
ENDSEC
  0
EOF
