  0
SECTION
  2
HEADER
  9
$EXTMIN
 10
-210.0
 20
-148.5
  9
$EXTMAX
 10
210.0
 20
148.5
  9
$PDMODE
 70
    32
  9
$PDSIZE
 40
1.5
  9
$LTSCALE
 40
10.0
  0
ENDSEC
  0
SECTION
  2
TABLES
  0
TABLE
  2
LTYPE
 70
    15
  0
LTYPE
  2
CONTINUOUS
 70
    64
  3
実線
 72
    65
 73
     0
 40
0.0
  0
LTYPE
  2
DASHED
 70
    64
  3
破線A
 72
    65
 73
     2
 40
0.6
 49
0.4
 49
-0.2
  0
LTYPE
  2
DASHEDX2
 70
    64
  3
破線B
 72
    65
 73
     2
 40
1.3
 49
0.9
 49
-0.4
  0
LTYPE
  2
DASHDOT
 70
    64
  3
１点鎖線A
 72
    65
 73
     4
 40
0.5375
 49
0.375
 49
-0.05
 49
0.0625
 49
-0.05
  0
LTYPE
  2
DASHDOTX2
 70
    64
  3
１点鎖線B
 72
    65
 73
     4
 40
1.075
 49
0.75
 49
-0.1
 49
0.125
 49
-0.1
  0
LTYPE
  2
DIVIDE2
 70
    64
  3
２点鎖線A
 72
    65
 73
     6
 40
0.5125
 49
0.3
 49
-0.0375
 49
0.05
 49
-0.0375
 49
0.05
 49
-0.0375
  0
LTYPE
  2
DIVIDE
 70
    64
  3
２点鎖線B
 72
    65
 73
     6
 40
1.05
 49
0.55
 49
-0.1
 49
0.1
 49
-0.1
 49
0.1
 49
-0.1
  0
LTYPE
  2
DOT
 70
    64
  3
点線A
 72
    65
 73
     2
 40
0.1125
 49
0.0625
 49
-0.05
  0
LTYPE
  2
DOTX2
 70
    64
  3
点線B
 72
    65
 73
     2
 40
0.275
 49
0.15
 49
-0.125
  0
LTYPE
  2
CONTINUOUS
 70
    64
  3
実線
 72
    65
 73
     0
 40
0.0
  0
LTYPE
  2
CONTINUOUS
 70
    64
  3
実線
 72
    65
 73
     0
 40
0.0
  0
LTYPE
  2
CONTINUOUS
 70
    64
  3
実線
 72
    65
 73
     0
 40
0.0
  0
LTYPE
  2
CONTINUOUS
 70
    64
  3
実線
 72
    65
 73
     0
 40
0.0
  0
LTYPE
  2
CONTINUOUS
 70
    64
  3
実線
 72
    65
 73
     0
 40
0.0
  0
LTYPE
  2
CONTINUOUS
 70
    64
  3
実線
 72
    65
 73
     0
 40
0.0
  0
ENDTAB
  0
TABLE
  2
LAYER
 70
    35
  0
LAYER
  2
通り芯
 70
     0
 62
    15
  6
CONTINUOUS
  0
LAYER
  2
補助線
 70
     0
 62
    16
  6
DOT
  0
LAYER
  2
躯体
 70
     0
 62
    31
  6
CONTINUOUS
  0
LAYER
  2
型材
 70
     0
 62
    32
  6
CONTINUOUS
  0
LAYER
  2
型材断面
 70
     0
 62
    47
  6
CONTINUOUS
  0
LAYER
  2
ガラス
 70
     0
 62
    48
  6
CONTINUOUS
  0
LAYER
  2
ゴム等
 70
     0
 62
    63
  6
CONTINUOUS
  0
LAYER
  2
ボルト／ビス
 70
     0
 62
    64
  6
CONTINUOUS
  0
LAYER
  2
文字
 70
     0
 62
    79
  6
CONTINUOUS
  0
LAYER
  2
寸法
 70
     0
 62
    80
  6
CONTINUOUS
  0
LAYER
  2
ﾊｯﾁﾝｸﾞ
 70
     0
 62
    95
  6
CONTINUOUS
  0
LAYER
  2
別途部材
 70
     0
 62
    96
  6
CONTINUOUS
  0
LAYER
  2
曲げ物
 70
     0
 62
   111
  6
CONTINUOUS
  0
LAYER
  2
鉄骨等
 70
     0
 62
   112
  6
CONTINUOUS
  0
LAYER
  2
St
 70
     0
 62
   127
  6
CONTINUOUS
  0
LAYER
  2
その他部品等
 70
     0
 62
   128
  6
CONTINUOUS
  0
LAYER
  2
ｶﾞｽｹｯﾄ
 70
     0
 62
   143
  6
CONTINUOUS
  0
LAYER
  2
ｽｹｯﾁ
 70
     0
 62
    14
  6
CONTINUOUS
  0
LAYER
  2
0
 70
     0
 62
    17
  6
CONTINUOUS
  0
LAYER
  2
1
 70
     0
 62
    30
  6
CONTINUOUS
  0
LAYER
  2
4
 70
     0
 62
    33
  6
CONTINUOUS
  0
LAYER
  2
ﾚｲﾔ3
 70
     0
 62
    46
  6
CONTINUOUS
  0
LAYER
  2
外形線
 70
     0
 62
    49
  6
CONTINUOUS
  0
LAYER
  2
部品
 70
     0
 62
    14
  6
CONTINUOUS
  0
LAYER
  2
サッシ芯
 70
     0
 62
    17
  6
DASHDOTX2
  0
LAYER
  2
寸法線
 70
     0
 62
    62
  6
CONTINUOUS
  0
LAYER
  2
姿図外形線
 70
     0
 62
    65
  6
CONTINUOUS
  0
LAYER
  2
姿補助線
 70
     0
 62
    30
  6
CONTINUOUS
  0
LAYER
  2
透視線
 70
     0
 62
    78
  6
DOT
  0
LAYER
  2
用紙
 70
     0
 62
    81
  6
CONTINUOUS
  0
LAYER
  2
実線図枠
 70
     0
 62
    94
  6
CONTINUOUS
  0
LAYER
  2
補助図枠
 70
     0
 62
    97
  6
CONTINUOUS
  0
LAYER
  2
建具記号
 70
     0
 62
   110
  6
CONTINUOUS
  0
LAYER
  2
補助文字
 70
     0
 62
   113
  6
CONTINUOUS
  0
LAYER
  2
LAYER010
 70
     0
 62
    11
  6
CONTINUOUS
  0
ENDTAB
  0
TABLE
  2
STYLE
 70
    10
  0
STYLE
  2
STANDARD
 70
     0
 40
1.0
 41
1.0
 42
1.0
 50
0.0
 71
     0
  3
TXT
  4
BIGFONT
  0
STYLE
  2
TATE
 70
     4
 40
1.0
 41
1.0
 42
1.0
 50
0.0
 71
     0
  3
TXT
  4
BIGFONT
  0
STYLE
  2
TextStyle03
 70
     0
 40
1.0
 41
1.0
 42
1.0
 50
0.0
 71
     0
  3
MONOTXT
  4
BIGFONT
  0
STYLE
  2
TextStyle04
 70
     0
 40
1.0
 41
1.0
 42
1.0
 50
0.0
 71
     0
  3
MONOTXT
  4
BIGFONT
  0
STYLE
  2
TextStyle05
 70
     0
 40
1.0
 41
1.0
 42
1.0
 50
0.0
 71
     0
  3
MONOTXT
  4
BIGFONT
  0
STYLE
  2
TextStyle06
 70
     0
 40
1.0
 41
1.0
 42
1.0
 50
0.0
 71
     0
  3
MONOTXT
  4
BIGFONT
  0
STYLE
  2
TextStyle07
 70
     0
 40
1.0
 41
1.0
 42
1.0
 50
0.0
 71
     0
  3
MONOTXT
  4
BIGFONT
  0
STYLE
  2
TextStyle08
 70
     0
 40
1.0
 41
1.0
 42
1.0
 50
0.0
 71
     0
  3
MONOTXT
  4
BIGFONT
  0
STYLE
  2
TextStyle09
 70
     0
 40
1.0
 41
1.0
 42
1.0
 50
0.0
 71
     0
  3
MONOTXT
  4
BIGFONT
  0
STYLE
  2
TextStyle10
 70
     0
 40
1.0
 41
1.0
 42
1.0
 50
0.0
 71
     0
  3
MONOTXT
  4
BIGFONT
  0
ENDTAB
  0
ENDSEC
  0
SECTION
  2
BLOCKS
  0
BLOCK
  2
*GRP_0001
 70
    65
 10
0.0
 20
0.0
  0
LINE
  8
型材断面
  6
CONTINUOUS
 10
195.0
 20
133.5
 11
195.0
 21
-133.5
  0
LINE
  8
型材断面
  6
CONTINUOUS
 10
195.0
 20
-133.5
 11
-185.0
 21
-133.5
  0
LINE
  8
型材断面
  6
CONTINUOUS
 10
-185.0
 20
-133.5
 11
-185.0
 21
133.5
  0
LINE
  8
型材断面
  6
CONTINUOUS
 10
195.0
 20
133.5
 11
-185.0
 21
133.5
  0
LINE
  8
型材断面
  6
CONTINUOUS
 10
145.0
 20
-133.5
 11
145.0
 21
-118.5
  0
LINE
  8
型材断面
  6
CONTINUOUS
 10
195.0
 20
-118.5
 11
145.0
 21
-118.5
  0
ENDBLK
  0
BLOCK
  2
*DIM_0002
 70
    65
 10
0.0
 20
0.0
  0
LINE
  8
寸法
  6
BYBLOCK
 62
     0
 10
-108.676228
 20
-13.511205
 11
-108.676228
 21
-13.121378
  0
LINE
  8
寸法
  6
BYBLOCK
 62
     0
 10
57.990438
 20
-13.121378
 11
-108.676228
 21
-13.121378
  0
POINT
  8
寸法
 62
     0
 10
57.990438
 20
-13.121378
  0
POINT
  8
寸法
 62
     0
 10
-108.676228
 20
-13.121378
  0
TEXT
  7
TextStyle03
  8
寸法
  6
CONTINUOUS
 62
     0
 10
-37.06875
 20
-12.775
  1
呼称寸法　5000
 40
3.0
 72
     5
 11
-13.63125
 21
-12.775
  0
ENDBLK
  0
BLOCK
  2
*DIM_0003
 70
    65
 10
0.0
 20
0.0
  0
LINE
  8
寸法
  6
BYBLOCK
 62
     0
 10
-92.00956
 20
19.183902
 11
-92.00956
 21
13.88158
  0
LINE
  8
寸法
  6
BYBLOCK
 62
     0
 10
-25.342895
 20
19.183905
 11
-25.342895
 21
13.88158
  0
LINE
  8
寸法
  6
BYBLOCK
 62
     0
 10
-92.00956
 20
13.88158
 11
-25.342895
 21
13.88158
  0
POINT
  8
寸法
 62
     0
 10
-92.00956
 20
13.88158
  0
POINT
  8
寸法
 62
     0
 10
-25.342895
 20
13.88158
  0
TEXT
  7
TextStyle03
  8
寸法
  6
CONTINUOUS
 62
     0
 10
-61.98125
 20
14.25
  1
2000
 40
3.0
 72
     5
 11
-55.41875
 21
14.25
  0
ENDBLK
  0
BLOCK
  2
*DIM_0004
 70
    65
 10
0.0
 20
0.0
  0
LINE
  8
寸法
  6
BYBLOCK
 62
     0
 10
41.32377
 20
19.183902
 11
41.32377
 21
13.88158
  0
LINE
  8
寸法
  6
BYBLOCK
 62
     0
 10
-25.342895
 20
13.88158
 11
41.32377
 21
13.88158
  0
POINT
  8
寸法
 62
     0
 10
41.32377
 20
13.88158
  0
TEXT
  7
TextStyle03
  8
寸法
  6
CONTINUOUS
 62
     0
 10
4.69375
 20
14.25
  1
2000
 40
3.0
 72
     5
 11
11.25625
 21
14.25
  0
ENDBLK
  0
BLOCK
  2
*DIM_0005
 70
    65
 10
0.0
 20
0.0
  0
LINE
  8
寸法
  6
BYBLOCK
 62
     0
 10
60.990482
 20
-69.576397
 11
60.990482
 21
-13.121378
  0
LINE
  8
寸法
  6
BYBLOCK
 62
     0
 10
57.990438
 20
-13.121378
 11
60.990482
 21
-13.121378
  0
POINT
  8
寸法
 62
     0
 10
57.990438
 20
-13.121378
  0
POINT
  8
寸法
 62
     0
 10
60.990482
 20
-13.121378
  0
TEXT
  7
TextStyle03
  8
寸法
  6
CONTINUOUS
 62
     0
 10
57.88125
 20
-12.75
  1
90
 40
3.0
 72
     5
 11
61.06875
 21
-12.75
  0
ENDBLK
  0
BLOCK
  2
*DIM_0006
 70
    65
 10
0.0
 20
0.0
  0
LINE
  8
寸法
  6
BYBLOCK
 62
     0
 10
-111.676272
 20
-69.576397
 11
-111.676272
 21
-13.121378
  0
LINE
  8
寸法
  6
BYBLOCK
 62
     0
 10
-108.676228
 20
-13.121378
 11
-111.676272
 21
-13.121378
  0
POINT
  8
寸法
 62
     0
 10
-108.676228
 20
-13.121378
  0
POINT
  8
寸法
 62
     0
 10
-111.676272
 20
-13.121378
  0
TEXT
  7
TextStyle03
  8
寸法
  6
CONTINUOUS
 62
     0
 10
-111.79375
 20
-12.75
  1
90
 40
3.0
 72
     5
 11
-108.60625
 21
-12.75
  0
ENDBLK
  0
BLOCK
  2
*DIM_0007
 70
    65
 10
0.0
 20
0.0
  0
LINE
  8
寸法
  6
BYBLOCK
 62
     0
 10
154.076993
 20
-53.785395
 11
162.135282
 21
-53.785395
  0
LINE
  8
寸法
  6
BYBLOCK
 62
     0
 10
154.076993
 20
-83.118728
 11
162.135282
 21
-83.118728
  0
LINE
  8
寸法
  6
BYBLOCK
 62
     0
 10
162.135282
 20
-53.785395
 11
162.135282
 21
-83.118728
  0
POINT
  8
寸法
 62
     0
 10
162.135282
 20
-53.785395
  0
POINT
  8
寸法
 62
     0
 10
162.135282
 20
-83.118728
  0
TEXT
  7
TextStyle03
  8
寸法
  6
CONTINUOUS
 62
     0
 10
161.775
 20
-70.9125
  1
880
 40
3.0
 50
90.0
 72
     5
 11
161.775
 21
-66.0375
  0
ENDBLK
  0
BLOCK
  2
*DIM_0008
 70
    65
 10
0.0
 20
0.0
  0
LINE
  8
寸法
  6
BYBLOCK
 62
     0
 10
-111.676228
 20
47.814033
 11
-124.969065
 21
47.814033
  0
LINE
  8
寸法
  6
BYBLOCK
 62
     0
 10
-111.676228
 20
27.814033
 11
-124.969065
 21
27.814033
  0
LINE
  8
寸法
  6
BYBLOCK
 62
     0
 10
-124.969065
 20
47.814033
 11
-124.969065
 21
27.814033
  0
POINT
  8
寸法
 62
     0
 10
-124.969065
 20
47.814033
  0
POINT
  8
寸法
 62
     0
 10
-124.969065
 20
27.814033
  0
TEXT
  7
TextStyle03
  8
寸法
  6
CONTINUOUS
 62
     0
 10
-125.325
 20
35.3625
  1
600
 40
3.0
 50
90.0
 72
     5
 11
-125.325
 21
40.2375
  0
ENDBLK
  0
BLOCK
  2
*DIM_0009
 70
    65
 10
0.0
 20
0.0
  0
LINE
  8
寸法
  6
BYBLOCK
 62
     0
 10
-100.342893
 20
55.814033
 11
-100.342893
 21
84.922105
  0
LINE
  8
寸法
  6
BYBLOCK
 62
     0
 10
-75.342893
 20
55.814033
 11
-75.342893
 21
84.922105
  0
LINE
  8
寸法
  6
BYBLOCK
 62
     0
 10
-100.342893
 20
84.922105
 11
-75.342893
 21
84.922105
  0
POINT
  8
寸法
 62
     0
 10
-100.342893
 20
84.922105
  0
POINT
  8
寸法
 62
     0
 10
-75.342893
 20
84.922105
  0
TEXT
  7
TextStyle03
  8
寸法
  6
CONTINUOUS
 62
     0
 10
-90.3125
 20
85.3
  1
750
 40
3.0
 72
     5
 11
-85.4375
 21
85.3
  0
ENDBLK
  0
BLOCK
  2
*DIM_0010
 70
    65
 10
0.0
 20
0.0
  0
LINE
  8
寸法
  6
BYBLOCK
 62
     0
 10
-50.342893
 20
55.814033
 11
-50.342893
 21
84.922105
  0
LINE
  8
寸法
  6
BYBLOCK
 62
     0
 10
-75.342893
 20
84.922105
 11
-50.342893
 21
84.922105
  0
POINT
  8
寸法
 62
     0
 10
-50.342893
 20
84.922105
  0
TEXT
  7
TextStyle03
  8
寸法
  6
CONTINUOUS
 62
     0
 10
-65.3125
 20
85.3
  1
750
 40
3.0
 72
     5
 11
-60.4375
 21
85.3
  0
ENDBLK
  0
BLOCK
  2
*DIM_0011
 70
    65
 10
0.0
 20
0.0
  0
LINE
  8
寸法
  6
BYBLOCK
 62
     0
 10
-25.342893
 20
55.814033
 11
-25.342893
 21
84.922105
  0
LINE
  8
寸法
  6
BYBLOCK
 62
     0
 10
-50.342893
 20
84.922105
 11
-25.342893
 21
84.922105
  0
POINT
  8
寸法
 62
     0
 10
-25.342893
 20
84.922105
  0
TEXT
  7
TextStyle03
  8
寸法
  6
CONTINUOUS
 62
     0
 10
-40.3125
 20
85.3
  1
750
 40
3.0
 72
     5
 11
-35.4375
 21
85.3
  0
ENDBLK
  0
BLOCK
  2
*DIM_0012
 70
    65
 10
0.0
 20
0.0
  0
LINE
  8
寸法
  6
BYBLOCK
 62
     0
 10
-0.342893
 20
55.814033
 11
-0.342893
 21
84.922105
  0
LINE
  8
寸法
  6
BYBLOCK
 62
     0
 10
-25.342893
 20
84.922105
 11
-0.342893
 21
84.922105
  0
POINT
  8
寸法
 62
     0
 10
-0.342893
 20
84.922105
  0
TEXT
  7
TextStyle03
  8
寸法
  6
CONTINUOUS
 62
     0
 10
-15.3125
 20
85.3
  1
750
 40
3.0
 72
     5
 11
-10.4375
 21
85.3
  0
ENDBLK
  0
BLOCK
  2
*DIM_0013
 70
    65
 10
0.0
 20
0.0
  0
LINE
  8
寸法
  6
BYBLOCK
 62
     0
 10
24.657107
 20
55.814033
 11
24.657107
 21
84.922105
  0
LINE
  8
寸法
  6
BYBLOCK
 62
     0
 10
-0.342893
 20
84.922105
 11
24.657107
 21
84.922105
  0
POINT
  8
寸法
 62
     0
 10
24.657107
 20
84.922105
  0
TEXT
  7
TextStyle03
  8
寸法
  6
CONTINUOUS
 62
     0
 10
9.6875
 20
85.3
  1
750
 40
3.0
 72
     5
 11
14.5625
 21
85.3
  0
ENDBLK
  0
BLOCK
  2
*DIM_0014
 70
    65
 10
0.0
 20
0.0
  0
LINE
  8
寸法
  6
BYBLOCK
 62
     0
 10
49.657107
 20
55.814033
 11
49.657107
 21
84.922105
  0
LINE
  8
寸法
  6
BYBLOCK
 62
     0
 10
24.657107
 20
84.922105
 11
49.657107
 21
84.922105
  0
POINT
  8
寸法
 62
     0
 10
49.657107
 20
84.922105
  0
TEXT
  7
TextStyle03
  8
寸法
  6
CONTINUOUS
 62
     0
 10
34.6875
 20
85.3
  1
750
 40
3.0
 72
     5
 11
39.5625
 21
85.3
  0
ENDBLK
  0
BLOCK
  2
*DIM_0015
 70
    65
 10
0.0
 20
0.0
  0
LINE
  8
寸法
  6
CONTINUOUS
 10
113.47509
 20
66.453292
 11
116.791757
 21
66.453292
  0
POINT
  8
寸法
 10
113.47509
 20
66.453292
  0
POINT
  8
寸法
 10
116.791757
 20
66.453292
  0
TEXT
  7
TextStyle03
  8
寸法
  6
CONTINUOUS
 10
111.64375
 20
66.625
  1
99.5
 40
3.0
 72
     5
 11
118.20625
 21
66.625
  0
ENDBLK
  0
BLOCK
  2
*DIM_0016
 70
    65
 10
0.0
 20
0.0
  0
LINE
  8
寸法
  6
CONTINUOUS
 10
71.629645
 20
-68.915715
 11
71.629645
 21
-72.232383
  0
POINT
  8
寸法
 10
71.629645
 20
-68.915715
  0
POINT
  8
寸法
 10
71.629645
 20
-72.232383
  0
TEXT
  7
TextStyle03
  8
寸法
  6
CONTINUOUS
 10
74.775
 20
-73.80625
  1
99.5
 40
3.0
 50
90.0
 72
     5
 11
74.775
 21
-67.24375
  0
ENDBLK
  0
BLOCK
  2
*DIM_0017
 70
    65
 10
0.0
 20
0.0
  0
LINE
  8
寸法
  6
CONTINUOUS
 10
153.076993
 20
-44.51895
 11
120.810325
 21
-44.51895
  0
POINT
  8
寸法
 10
153.076993
 20
-44.51895
  0
POINT
  8
寸法
 10
120.810325
 20
-44.51895
  0
TEXT
  7
TextStyle03
  8
寸法
  6
CONTINUOUS
 10
134.4875
 20
-44.175
  1
968
 40
3.0
 72
     5
 11
139.3625
 21
-44.175
  0
ENDBLK
  0
ENDSEC
  0
SECTION
  2
ENTITIES
  0
POLYLINE
  8
通り芯
  6
CONTINUOUS
 66
     1
 70
     1
  0
VERTEX
  8
通り芯
 10
-210.0
 20
-148.5
  0
VERTEX
  8
通り芯
 10
210.0
 20
-148.5
  0
VERTEX
  8
通り芯
 10
210.0
 20
148.5
  0
VERTEX
  8
通り芯
 10
-210.0
 20
148.5
  0
SEQEND
  0
INSERT
  2
*GRP_0001
  8
型材断面
  6
CONTINUOUS
 10
0.0
 20
0.0
  0
LINE
  8
型材断面
  6
DASHDOT
 10
57.990438
 20
-77.836442
 11
57.990438
 21
52.814033
  0
LINE
  8
型材断面
  6
DASHDOT
 10
-25.342895
 20
-77.836442
 11
-25.342895
 21
52.814033
  0
LINE
  8
型材断面
  6
DASHDOT
 10
-108.676228
 20
-77.836442
 11
-108.676228
 21
52.814033
  0
LINE
  8
型材断面
  6
CONTINUOUS
 10
-92.00956
 20
55.444162
 11
-93.50519
 21
58.03467
  0
LINE
  8
型材断面
  6
CONTINUOUS
 10
-92.00956
 20
55.444162
 11
-90.51393
 21
58.03467
  0
LINE
  8
型材断面
  6
CONTINUOUS
 10
-90.51393
 20
58.03467
 11
-93.50519
 21
58.03467
  0
LINE
  8
型材断面
  6
CONTINUOUS
 10
-149.528435
 20
97.32138
 11
-151.024065
 21
94.730873
  0
LINE
  8
型材断面
  6
CONTINUOUS
 10
-149.528435
 20
97.32138
 11
-148.032805
 21
94.730873
  0
LINE
  8
型材断面
  6
CONTINUOUS
 10
-148.032805
 20
94.730873
 11
-151.024065
 21
94.730873
  0
LINE
  8
型材断面
  6
CONTINUOUS
 10
-155.551022
 20
93.792277
 11
-109.309245
 21
93.792277
  0
LINE
  8
型材断面
  6
CONTINUOUS
 10
-111.306358
 20
37.814033
 11
-113.896865
 21
39.309663
  0
LINE
  8
型材断面
  6
CONTINUOUS
 10
-111.306358
 20
37.814033
 11
-113.896865
 21
36.318403
  0
LINE
  8
型材断面
  6
CONTINUOUS
 10
-113.896865
 20
36.318403
 11
-113.896865
 21
39.309663
  0
LINE
  8
型材断面
  6
CONTINUOUS
 10
-92.00956
 20
20.183902
 11
-93.50519
 21
17.593395
  0
LINE
  8
型材断面
  6
CONTINUOUS
 10
-92.00956
 20
20.183902
 11
-90.51393
 21
17.593395
  0
LINE
  8
型材断面
  6
CONTINUOUS
 10
-90.51393
 20
17.593395
 11
-93.50519
 21
17.593395
  0
LINE
  8
型材断面
  6
CONTINUOUS
 10
41.32377
 20
55.444162
 11
42.8194
 21
58.03467
  0
LINE
  8
型材断面
  6
CONTINUOUS
 10
41.32377
 20
55.444162
 11
39.82814
 21
58.03467
  0
LINE
  8
型材断面
  6
CONTINUOUS
 10
39.82814
 20
58.03467
 11
42.8194
 21
58.03467
  0
LINE
  8
型材断面
  6
CONTINUOUS
 10
60.620567
 20
37.814033
 11
63.211075
 21
39.309663
  0
LINE
  8
型材断面
  6
CONTINUOUS
 10
60.620567
 20
37.814033
 11
63.211075
 21
36.318403
  0
LINE
  8
型材断面
  6
CONTINUOUS
 10
63.211075
 20
36.318403
 11
63.211075
 21
39.309663
  0
LINE
  8
型材断面
  6
CONTINUOUS
 10
41.32377
 20
20.183902
 11
42.8194
 21
17.593395
  0
LINE
  8
型材断面
  6
CONTINUOUS
 10
41.32377
 20
20.183902
 11
39.82814
 21
17.593395
  0
LINE
  8
型材断面
  6
CONTINUOUS
 10
39.82814
 20
17.593395
 11
42.8194
 21
17.593395
  0
LINE
  8
型材断面
  6
CONTINUOUS
 10
-25.342895
 20
55.44416
 11
-23.847265
 21
58.034668
  0
LINE
  8
型材断面
  6
CONTINUOUS
 10
-25.342895
 20
55.44416
 11
-26.838525
 21
58.034668
  0
LINE
  8
型材断面
  6
CONTINUOUS
 10
-26.838525
 20
58.034668
 11
-23.847265
 21
58.034668
  0
LINE
  8
型材断面
  6
CONTINUOUS
 10
-25.342895
 20
20.1839
 11
-23.847265
 21
17.593392
  0
LINE
  8
型材断面
  6
CONTINUOUS
 10
-25.342895
 20
20.1839
 11
-26.838525
 21
17.593392
  0
LINE
  8
型材断面
  6
CONTINUOUS
 10
-26.838525
 20
17.593392
 11
-23.847265
 21
17.593392
  0
LINE
  8
型材断面
  6
CONTINUOUS
 10
-155.551022
 20
87.157948
 11
-109.309245
 21
87.157948
  0
LINE
  8
型材断面
  6
DASHDOT
 10
-108.676228
 20
52.814033
 11
57.990438
 21
52.814033
  0
LINE
  8
型材断面
  6
CONTINUOUS
 10
-111.676275
 20
19.81399
 11
-25.342895
 21
19.81399
  0
LINE
  8
型材断面
  6
CONTINUOUS
 10
-111.676275
 20
55.814075
 11
-25.342895
 21
55.814075
  0
LINE
  8
型材断面
  6
CONTINUOUS
 10
60.990485
 20
55.814075
 11
-25.342895
 21
55.814075
  0
LINE
  8
型材断面
  6
CONTINUOUS
 10
60.990485
 20
19.81399
 11
-25.342895
 21
19.81399
  0
CIRCLE
  8
型材断面
  6
CONTINUOUS
 62
    47
 10
116.29176
 20
55.814075
 40
0.011113
  0
LINE
  8
型材断面
  6
CONTINUOUS
 62
    47
 10
116.791757
 20
55.314085
 11
116.791757
 21
55.814075
  0
LINE
  8
型材断面
  6
CONTINUOUS
 62
    47
 10
116.791757
 20
55.814075
 11
116.29176
 21
55.814075
  0
LINE
  8
型材断面
  6
CONTINUOUS
 62
    47
 10
116.29176
 20
55.814075
 11
115.79458
 21
52.880745
  0
LINE
  8
型材断面
  6
CONTINUOUS
 62
    47
 10
116.791757
 20
55.314085
 11
117.291757
 21
55.314085
  0
LINE
  8
型材断面
  6
CONTINUOUS
 62
    47
 10
115.79458
 20
52.880745
 11
115.141755
 21
52.880745
  0
CIRCLE
  8
型材断面
  6
CONTINUOUS
 62
    47
 10
116.29176
 20
19.814092
 40
0.011113
  0
LINE
  8
型材断面
  6
CONTINUOUS
 62
    47
 10
116.791757
 20
20.314085
 11
116.791757
 21
19.814092
  0
LINE
  8
型材断面
  6
CONTINUOUS
 62
    47
 10
116.791757
 20
19.814092
 11
116.29176
 21
19.814092
  0
LINE
  8
型材断面
  6
CONTINUOUS
 62
    47
 10
116.29176
 20
19.814092
 11
115.79458
 21
22.747425
  0
LINE
  8
型材断面
  6
CONTINUOUS
 62
    47
 10
116.791757
 20
20.314085
 11
117.291757
 21
20.314085
  0
LINE
  8
型材断面
  6
CONTINUOUS
 62
    47
 10
115.79458
 20
22.747425
 11
115.141755
 21
22.747425
  0
LINE
  8
型材断面
  6
CONTINUOUS
 62
    47
 10
113.641755
 20
54.460545
 11
113.641755
 21
37.814085
  0
LINE
  8
型材断面
  6
CONTINUOUS
 62
    47
 10
113.47509
 20
54.304025
 11
113.47509
 21
37.814085
  0
LINE
  8
型材断面
  6
CONTINUOUS
 62
    47
 10
115.141755
 20
54.304025
 11
115.141755
 21
37.814085
  0
LINE
  8
型材断面
  6
CONTINUOUS
 10
115.79458
 20
52.880797
 11
115.79458
 21
37.814085
  0
LINE
  8
型材断面
  6
CONTINUOUS
 10
116.29176
 20
55.81413
 11
116.29176
 21
37.814085
  0
LINE
  8
型材断面
  6
CONTINUOUS
 62
    47
 10
116.791757
 20
55.81413
 11
116.791757
 21
37.814085
  0
LINE
  8
型材断面
  6
CONTINUOUS
 10
117.291757
 20
55.31414
 11
117.291757
 21
37.814085
  0
LINE
  8
型材断面
  6
CONTINUOUS
 10
117.291757
 20
20.31403
 11
117.291757
 21
37.814085
  0
LINE
  8
型材断面
  6
CONTINUOUS
 10
116.29176
 20
19.81404
 11
116.29176
 21
37.814085
  0
LINE
  8
型材断面
  6
CONTINUOUS
 62
    47
 10
116.791757
 20
19.81404
 11
116.791757
 21
37.814085
  0
LINE
  8
型材断面
  6
CONTINUOUS
 10
115.79458
 20
22.74737
 11
115.79458
 21
37.814085
  0
LINE
  8
型材断面
  6
CONTINUOUS
 62
    47
 10
115.141755
 20
21.324145
 11
115.141755
 21
37.814085
  0
LINE
  8
型材断面
  6
CONTINUOUS
 62
    47
 10
113.641755
 20
21.167622
 11
113.641755
 21
37.814085
  0
LINE
  8
型材断面
  6
CONTINUOUS
 62
    47
 10
113.47509
 20
21.324145
 11
113.47509
 21
37.814085
  0
LINE
  8
型材断面
  6
DASHDOT
 10
-108.676228
 20
37.814033
 11
124.267768
 21
37.814033
  0
CIRCLE
  8
型材断面
  6
CONTINUOUS
 62
    47
 10
-111.67622
 20
-71.732385
 40
0.011113
  0
LINE
  8
型材断面
  6
CONTINUOUS
 62
    47
 10
-111.17623
 20
-72.232383
 11
-111.67622
 21
-72.232383
  0
LINE
  8
型材断面
  6
CONTINUOUS
 62
    47
 10
-111.67622
 20
-72.232383
 11
-111.67622
 21
-71.732385
  0
LINE
  8
型材断面
  6
CONTINUOUS
 62
    47
 10
-111.67622
 20
-71.732385
 11
-108.74289
 21
-71.235205
  0
LINE
  8
型材断面
  6
CONTINUOUS
 62
    47
 10
-111.17623
 20
-72.232383
 11
-111.17623
 21
-72.732383
  0
LINE
  8
型材断面
  6
CONTINUOUS
 62
    47
 10
-108.74289
 20
-71.235205
 11
-108.74289
 21
-70.58238
  0
CIRCLE
  8
型材断面
  6
CONTINUOUS
 62
    47
 10
60.99043
 20
-71.732385
 40
0.011113
  0
LINE
  8
型材断面
  6
CONTINUOUS
 62
    47
 10
60.490438
 20
-72.232383
 11
60.99043
 21
-72.232383
  0
LINE
  8
型材断面
  6
CONTINUOUS
 62
    47
 10
60.99043
 20
-72.232383
 11
60.99043
 21
-71.732385
  0
LINE
  8
型材断面
  6
CONTINUOUS
 62
    47
 10
60.99043
 20
-71.732385
 11
58.057098
 21
-71.235205
  0
LINE
  8
型材断面
  6
CONTINUOUS
 62
    47
 10
60.490438
 20
-72.232383
 11
60.490438
 21
-72.732383
  0
LINE
  8
型材断面
  6
CONTINUOUS
 62
    47
 10
58.057098
 20
-71.235205
 11
58.057098
 21
-70.58238
  0
LINE
  8
型材断面
  6
CONTINUOUS
 62
    47
 10
-111.676275
 20
-72.232383
 11
-25.342895
 21
-72.232383
  0
LINE
  8
型材断面
  6
CONTINUOUS
 10
-108.742943
 20
-71.235205
 11
-25.342895
 21
-71.235205
  0
LINE
  8
型材断面
  6
CONTINUOUS
 62
    47
 10
-110.16617
 20
-68.915715
 11
-25.342895
 21
-68.915715
  0
LINE
  8
型材断面
  6
CONTINUOUS
 62
    47
 10
-110.32269
 20
-69.08238
 11
-25.342895
 21
-69.08238
  0
LINE
  8
型材断面
  6
CONTINUOUS
 62
    47
 10
-110.16617
 20
-70.58238
 11
-25.342895
 21
-70.58238
  0
LINE
  8
型材断面
  6
CONTINUOUS
 10
-111.176285
 20
-72.732383
 11
-25.342895
 21
-72.732383
  0
LINE
  8
型材断面
  6
CONTINUOUS
 10
-111.676275
 20
-71.732385
 11
-25.342895
 21
-71.732385
  0
LINE
  8
型材断面
  6
CONTINUOUS
 62
    47
 10
60.990482
 20
-72.232383
 11
-25.342895
 21
-72.232383
  0
LINE
  8
型材断面
  6
CONTINUOUS
 10
60.990482
 20
-71.732385
 11
-25.342895
 21
-71.732385
  0
LINE
  8
型材断面
  6
CONTINUOUS
 62
    47
 10
59.480378
 20
-68.915715
 11
-25.342895
 21
-68.915715
  0
LINE
  8
型材断面
  6
CONTINUOUS
 62
    47
 10
59.6369
 20
-69.08238
 11
-25.342895
 21
-69.08238
  0
LINE
  8
型材断面
  6
CONTINUOUS
 62
    47
 10
59.480378
 20
-70.58238
 11
-25.342895
 21
-70.58238
  0
LINE
  8
型材断面
  6
CONTINUOUS
 10
60.490493
 20
-72.732383
 11
-25.342895
 21
-72.732383
  0
LINE
  8
型材断面
  6
CONTINUOUS
 10
58.05715
 20
-71.235205
 11
-25.342895
 21
-71.235205
  0
LINE
  8
型材断面
  6
DASHDOT
 10
124.267768
 20
22.814085
 11
-108.676228
 21
22.814085
  0
LINE
  8
型材断面
  6
DASHDOT
 10
124.267768
 20
52.814085
 11
-108.676228
 21
52.814085
  0
LINE
  8
型材断面
  6
DASHDOT
 10
-75.492893
 20
22.814033
 11
-75.492893
 21
52.814033
  0
LINE
  8
型材断面
  6
DASHDOT
 10
-42.059558
 20
22.814033
 11
-42.059558
 21
52.814033
  0
LINE
  8
型材断面
  6
DASHDOT
 10
24.807102
 20
22.814033
 11
24.807102
 21
52.814033
  0
LINE
  8
型材断面
  6
DASHDOT
 10
-8.626232
 20
22.814033
 11
-8.626232
 21
52.814033
  0
LINE
  8
型材断面
  6
CONTINUOUS
 10
8.507102
 20
51.960442
 11
40.982102
 21
51.960442
  0
LINE
  8
型材断面
  6
CONTINUOUS
 10
8.507102
 20
23.667622
 11
40.982102
 21
23.667622
  0
LINE
  8
型材断面
  6
CONTINUOUS
 10
-24.926228
 20
51.960442
 11
7.673768
 21
51.960442
  0
LINE
  8
型材断面
  6
CONTINUOUS
 10
-24.926228
 20
23.667622
 11
7.673768
 21
23.667622
  0
LINE
  8
型材断面
  6
CONTINUOUS
 10
-58.359558
 20
23.667622
 11
-25.759562
 21
23.667622
  0
LINE
  8
型材断面
  6
CONTINUOUS
 10
-58.359558
 20
51.960442
 11
-25.759562
 21
51.960442
  0
LINE
  8
型材断面
  6
CONTINUOUS
 10
-91.667893
 20
23.667622
 11
-59.192893
 21
23.667622
  0
LINE
  8
型材断面
  6
CONTINUOUS
 10
-91.667893
 20
51.960442
 11
-59.192893
 21
51.960442
  0
LINE
  8
型材断面
  6
CONTINUOUS
 10
26.057102
 20
24.500955
 11
23.557102
 21
24.500955
  0
LINE
  8
型材断面
  6
CONTINUOUS
 10
26.057102
 20
51.12711
 11
23.557102
 21
51.12711
  0
LINE
  8
型材断面
  6
CONTINUOUS
 10
26.057102
 20
24.500955
 11
26.057102
 21
51.12711
  0
LINE
  8
型材断面
  6
CONTINUOUS
 10
23.557102
 20
24.500955
 11
23.557102
 21
51.12711
  0
LINE
  8
型材断面
  6
CONTINUOUS
 10
-7.376232
 20
24.500955
 11
-9.876232
 21
24.500955
  0
LINE
  8
型材断面
  6
CONTINUOUS
 10
-7.376232
 20
51.12711
 11
-9.876232
 21
51.12711
  0
LINE
  8
型材断面
  6
CONTINUOUS
 10
-7.376232
 20
24.500955
 11
-7.376232
 21
51.12711
  0
LINE
  8
型材断面
  6
CONTINUOUS
 10
-9.876232
 20
24.500955
 11
-9.876232
 21
51.12711
  0
LINE
  8
型材断面
  6
CONTINUOUS
 10
-76.742893
 20
24.500955
 11
-74.242893
 21
24.500955
  0
LINE
  8
型材断面
  6
CONTINUOUS
 10
-76.742893
 20
51.12711
 11
-74.242893
 21
51.12711
  0
LINE
  8
型材断面
  6
CONTINUOUS
 10
-76.742893
 20
24.500955
 11
-76.742893
 21
51.12711
  0
LINE
  8
型材断面
  6
CONTINUOUS
 10
-74.242893
 20
24.500955
 11
-74.242893
 21
51.12711
  0
LINE
  8
型材断面
  6
CONTINUOUS
 10
-43.309558
 20
24.500955
 11
-40.809558
 21
24.500955
  0
LINE
  8
型材断面
  6
CONTINUOUS
 10
-43.309558
 20
51.12711
 11
-40.809558
 21
51.12711
  0
LINE
  8
型材断面
  6
CONTINUOUS
 10
-43.309558
 20
24.500955
 11
-43.309558
 21
51.12711
  0
LINE
  8
型材断面
  6
CONTINUOUS
 10
-40.809558
 20
24.500955
 11
-40.809558
 21
51.12711
  0
LINE
  8
型材断面
  6
CONTINUOUS
 10
60.990485
 20
55.814075
 11
60.990485
 21
37.81403
  0
LINE
  8
型材断面
  6
CONTINUOUS
 10
60.990485
 20
19.81399
 11
60.990485
 21
37.814035
  0
LINE
  8
型材断面
  6
CONTINUOUS
 10
59.4012
 20
21.16752
 11
59.6369
 21
21.40322
  0
LINE
  8
型材断面
  6
CONTINUOUS
 10
60.990485
 20
19.81399
 11
59.519077
 21
21.285397
  0
LINE
  8
型材断面
  6
CONTINUOUS
 10
56.9012
 20
23.66752
 11
57.1369
 21
23.90322
  0
LINE
  8
型材断面
  6
CONTINUOUS
 10
57.1369
 20
23.90322
 11
59.636897
 21
21.403223
  0
LINE
  8
型材断面
  6
CONTINUOUS
 10
56.9012
 20
23.66752
 11
59.401097
 21
21.167622
  0
LINE
  8
型材断面
  6
CONTINUOUS
 10
57.136897
 20
37.397365
 11
57.136897
 21
23.903218
  0
LINE
  8
型材断面
  6
CONTINUOUS
 10
59.4012
 20
54.460545
 11
59.6369
 21
54.224845
  0
LINE
  8
型材断面
  6
CONTINUOUS
 10
60.990485
 20
55.814075
 11
59.519077
 21
54.342668
  0
LINE
  8
型材断面
  6
CONTINUOUS
 10
56.9012
 20
51.960545
 11
57.1369
 21
51.724845
  0
LINE
  8
型材断面
  6
CONTINUOUS
 10
57.1369
 20
51.724845
 11
59.636897
 21
54.224842
  0
LINE
  8
型材断面
  6
CONTINUOUS
 10
56.9012
 20
51.960545
 11
59.401097
 21
54.460442
  0
LINE
  8
型材断面
  6
CONTINUOUS
 10
57.136897
 20
38.2307
 11
57.136897
 21
51.724848
  0
LINE
  8
型材断面
  6
CONTINUOUS
 10
59.636897
 20
21.403223
 11
59.636897
 21
54.224842
  0
LINE
  8
型材断面
  6
CONTINUOUS
 10
-111.676275
 20
55.814075
 11
-111.676275
 21
37.81403
  0
LINE
  8
型材断面
  6
CONTINUOUS
 10
-111.676275
 20
19.81399
 11
-111.676275
 21
37.814035
  0
LINE
  8
型材断面
  6
CONTINUOUS
 10
-110.08699
 20
21.16752
 11
-110.32269
 21
21.40322
  0
LINE
  8
型材断面
  6
CONTINUOUS
 10
-111.676275
 20
19.81399
 11
-110.204868
 21
21.285397
  0
LINE
  8
型材断面
  6
CONTINUOUS
 10
-107.58699
 20
23.66752
 11
-107.82269
 21
23.90322
  0
LINE
  8
型材断面
  6
CONTINUOUS
 10
-107.82269
 20
23.90322
 11
-110.322688
 21
21.403223
  0
LINE
  8
型材断面
  6
CONTINUOUS
 10
-107.58699
 20
23.66752
 11
-110.086888
 21
21.167622
  0
LINE
  8
型材断面
  6
CONTINUOUS
 10
-107.822688
 20
37.397365
 11
-107.822688
 21
23.903218
  0
LINE
  8
型材断面
  6
CONTINUOUS
 10
-110.08699
 20
54.460545
 11
-110.32269
 21
54.224845
  0
LINE
  8
型材断面
  6
CONTINUOUS
 10
-111.676275
 20
55.814075
 11
-110.204868
 21
54.342668
  0
LINE
  8
型材断面
  6
CONTINUOUS
 10
-107.58699
 20
51.960545
 11
-107.82269
 21
51.724845
  0
LINE
  8
型材断面
  6
CONTINUOUS
 10
-107.82269
 20
51.724845
 11
-110.322688
 21
54.224842
  0
LINE
  8
型材断面
  6
CONTINUOUS
 10
-107.58699
 20
51.960545
 11
-110.086888
 21
54.460442
  0
LINE
  8
型材断面
  6
CONTINUOUS
 10
-107.822688
 20
38.2307
 11
-107.822688
 21
51.724848
  0
LINE
  8
型材断面
  6
CONTINUOUS
 10
-110.322688
 20
21.403223
 11
-110.322688
 21
54.224842
  0
LINE
  8
型材断面
  6
CONTINUOUS
 10
41.815438
 20
23.667622
 11
56.901097
 21
23.667622
  0
LINE
  8
型材断面
  6
CONTINUOUS
 10
41.815438
 20
51.960442
 11
56.901097
 21
51.960442
  0
LINE
  8
型材断面
  6
CONTINUOUS
 10
-92.501227
 20
51.960442
 11
-107.586888
 21
51.960442
  0
LINE
  8
型材断面
  6
CONTINUOUS
 10
59.401097
 20
54.460442
 11
-110.086888
 21
54.460442
  0
LINE
  8
型材断面
  6
CONTINUOUS
 10
-92.501227
 20
23.667622
 11
-107.586888
 21
23.667622
  0
LINE
  8
型材断面
  6
CONTINUOUS
 10
59.401097
 20
21.167622
 11
-110.086888
 21
21.167622
  0
TEXT
  7
TextStyle03
  8
文字
  6
CONTINUOUS
 10
-146.725
 20
94.925
  1
は排水穴位置を示す
 40
3.0
 72
     5
 11
-116.725
 21
94.925
  0
TEXT
  7
TextStyle03
  8
文字
  6
CONTINUOUS
 10
62.075
 20
104.525
  1
ＮＳコード：ＮＳＦＫＺ
 40
5.0
 72
     5
 11
123.325
 21
104.525
  0
TEXT
  7
TextStyle03
  8
文字
  6
CONTINUOUS
 10
134.525
 20
-76.7
  1
網入り6.8t
 40
3.0
 72
     5
 11
151.2125
 21
-76.7
  0
TEXT
  7
TextStyle03
  8
文字
  6
CONTINUOUS
 10
141.2
 20
-81.375
  1
×５枚
 40
3.0
 72
     5
 11
150.95
 21
-81.375
  0
TEXT
  7
TextStyle03
  8
文字
  6
CONTINUOUS
 10
-129.65
 20
16.275
  1
アンカーピッチ
 40
3.0
 50
90.0
 72
     5
 11
-129.65
 21
39.525
  0
TEXT
  7
TextStyle03
  8
文字
  6
CONTINUOUS
 10
-97.95
 20
90.275
  1
アンカーピッチ
 40
3.0
 72
     5
 11
-74.7
 21
90.275
  0
TEXT
  7
TextStyle03
  8
文字
  6
CONTINUOUS
 10
-150.45
 20
88.05
  1
アンカー数量　１８ヶ所
 40
3.0
 72
     5
 11
-113.7
 21
88.05
  0
LINE
  8
文字
  6
CONTINUOUS
 10
113.47509
 20
66.453292
 11
113.47509
 21
57.100135
  0
LINE
  8
文字
  6
CONTINUOUS
 10
116.791757
 20
66.453292
 11
116.791757
 21
57.16549
  0
LINE
  8
文字
  6
CONTINUOUS
 10
71.629645
 20
-68.915715
 11
62.27649
 21
-68.915715
  0
LINE
  8
文字
  6
CONTINUOUS
 10
71.629645
 20
-72.232383
 11
62.341842
 21
-72.232383
  0
LINE
  8
文字
  6
CONTINUOUS
 10
153.076993
 20
-44.51895
 11
153.076993
 21
-52.11909
  0
LINE
  8
文字
  6
CONTINUOUS
 10
120.810325
 20
-44.51895
 11
120.810325
 21
-52.11909
  0
TEXT
  7
TextStyle03
  8
文字
  6
CONTINUOUS
 10
61.925
 20
125.25
  1
シリーズ：ＴＦ２ＦＫＬ
 40
5.0
 72
     5
 11
123.175
 21
125.25
  0
TEXT
  7
TextStyle03
  8
文字
  6
CONTINUOUS
 10
61.925
 20
119.625
  1
　　　　　（固定）900×5000タイプ
 40
5.0
 72
     5
 11
154.1125
 21
119.625
  0
TEXT
  7
TextStyle03
  8
文字
  6
CONTINUOUS
 10
61.925
 20
114.0
  1
図面名　：外観姿図
 40
5.0
 72
     5
 11
111.925
 21
114.0
  0
TEXT
  7
TextStyle03
  8
文字
  6
CONTINUOUS
 10
61.925
 20
108.375
  1
　　　　　　
 40
5.0
 72
     5
 11
95.05
 21
108.375
  0
LINE
  8
文字
  6
CONTINUOUS
 10
41.815438
 20
23.667622
 11
41.815438
 21
21.167622
  0
LINE
  8
文字
  6
CONTINUOUS
 10
40.982102
 20
23.667622
 11
40.982102
 21
21.167622
  0
LINE
  8
文字
  6
CONTINUOUS
 10
8.507102
 20
23.667622
 11
8.507102
 21
21.167622
  0
LINE
  8
文字
  6
CONTINUOUS
 10
7.673768
 20
23.667622
 11
7.673768
 21
21.167622
  0
LINE
  8
文字
  6
CONTINUOUS
 10
-24.926228
 20
23.667622
 11
-24.926228
 21
21.167622
  0
LINE
  8
文字
  6
CONTINUOUS
 10
-25.759562
 20
23.667622
 11
-25.759562
 21
21.167622
  0
LINE
  8
文字
  6
CONTINUOUS
 10
-92.501227
 20
23.667622
 11
-92.501227
 21
21.167622
  0
LINE
  8
文字
  6
CONTINUOUS
 10
-91.667893
 20
23.667622
 11
-91.667893
 21
21.167622
  0
LINE
  8
文字
  6
CONTINUOUS
 10
-59.192893
 20
23.667622
 11
-59.192893
 21
21.167622
  0
LINE
  8
文字
  6
CONTINUOUS
 10
-58.359558
 20
23.667622
 11
-58.359558
 21
21.167622
  0
LINE
  8
文字
  6
CONTINUOUS
 10
41.815438
 20
51.960442
 11
41.815438
 21
54.460442
  0
LINE
  8
文字
  6
CONTINUOUS
 10
40.982102
 20
51.960442
 11
40.982102
 21
54.460442
  0
LINE
  8
文字
  6
CONTINUOUS
 10
8.507102
 20
51.960442
 11
8.507102
 21
54.460442
  0
LINE
  8
文字
  6
CONTINUOUS
 10
7.673768
 20
51.960442
 11
7.673768
 21
54.460442
  0
LINE
  8
文字
  6
CONTINUOUS
 10
-24.926228
 20
51.960442
 11
-24.926228
 21
54.460442
  0
LINE
  8
文字
  6
CONTINUOUS
 10
-25.759562
 20
51.960442
 11
-25.759562
 21
54.460442
  0
LINE
  8
文字
  6
CONTINUOUS
 10
-92.501227
 20
51.960442
 11
-92.501227
 21
54.460442
  0
LINE
  8
文字
  6
CONTINUOUS
 10
-91.667893
 20
51.960442
 11
-91.667893
 21
54.460442
  0
LINE
  8
文字
  6
CONTINUOUS
 10
-59.192893
 20
51.960442
 11
-59.192893
 21
54.460442
  0
LINE
  8
文字
  6
CONTINUOUS
 10
-58.359558
 20
51.960442
 11
-58.359558
 21
54.460442
  0
LINE
  8
文字
  6
CONTINUOUS
 10
59.636897
 20
37.397365
 11
57.136897
 21
37.397365
  0
LINE
  8
文字
  6
CONTINUOUS
 10
59.636897
 20
38.2307
 11
57.136897
 21
38.2307
  0
LINE
  8
文字
  6
CONTINUOUS
 10
-110.322688
 20
37.397365
 11
-107.822688
 21
37.397365
  0
LINE
  8
文字
  6
CONTINUOUS
 10
-110.322688
 20
38.2307
 11
-107.822688
 21
38.2307
  0
INSERT
  2
*DIM_0002
  8
寸法
  6
CONTINUOUS
 10
0.0
 20
0.0
  0
INSERT
  2
*DIM_0003
  8
寸法
  6
CONTINUOUS
 10
0.0
 20
0.0
  0
INSERT
  2
*DIM_0004
  8
寸法
  6
CONTINUOUS
 10
0.0
 20
0.0
  0
INSERT
  2
*DIM_0005
  8
寸法
  6
CONTINUOUS
 10
0.0
 20
0.0
  0
INSERT
  2
*DIM_0006
  8
寸法
  6
CONTINUOUS
 10
0.0
 20
0.0
  0
INSERT
  2
*DIM_0007
  8
寸法
  6
CONTINUOUS
 10
0.0
 20
0.0
  0
INSERT
  2
*DIM_0008
  8
寸法
  6
CONTINUOUS
 10
0.0
 20
0.0
  0
INSERT
  2
*DIM_0009
  8
寸法
  6
CONTINUOUS
 10
0.0
 20
0.0
  0
INSERT
  2
*DIM_0010
  8
寸法
  6
CONTINUOUS
 10
0.0
 20
0.0
  0
INSERT
  2
*DIM_0011
  8
寸法
  6
CONTINUOUS
 10
0.0
 20
0.0
  0
INSERT
  2
*DIM_0012
  8
寸法
  6
CONTINUOUS
 10
0.0
 20
0.0
  0
INSERT
  2
*DIM_0013
  8
寸法
  6
CONTINUOUS
 10
0.0
 20
0.0
  0
INSERT
  2
*DIM_0014
  8
寸法
  6
CONTINUOUS
 10
0.0
 20
0.0
  0
INSERT
  2
*DIM_0015
  8
寸法
  6
CONTINUOUS
 10
0.0
 20
0.0
  0
INSERT
  2
*DIM_0016
  8
寸法
  6
CONTINUOUS
 10
0.0
 20
0.0
  0
INSERT
  2
*DIM_0017
  8
寸法
  6
CONTINUOUS
 10
0.0
 20
0.0
  0
LINE
  8
別途部材
  6
CONTINUOUS
 62
    47
 10
113.57509
 20
54.460545
 11
113.641755
 21
54.460545
  0
ARC
  8
別途部材
  6
CONTINUOUS
 62
    47
 10
113.575088
 20
54.360546
 40
0.1
 50
90.0
 51
180.0
  0
LINE
  8
別途部材
  6
CONTINUOUS
 62
    47
 10
113.47509
 20
54.360545
 11
113.47509
 21
54.304025
  0
LINE
  8
別途部材
  6
CONTINUOUS
 62
    47
 10
115.141755
 20
54.304025
 11
113.641755
 21
54.304025
  0
LINE
  8
別途部材
  6
CONTINUOUS
 62
    47
 10
113.57509
 20
21.167622
 11
113.641755
 21
21.167622
  0
ARC
  8
別途部材
  6
CONTINUOUS
 62
    47
 10
113.575088
 20
21.267622
 40
0.1
 50
180.0
 51
270.0
  0
LINE
  8
別途部材
  6
CONTINUOUS
 62
    47
 10
113.47509
 20
21.267622
 11
113.47509
 21
21.324145
  0
LINE
  8
別途部材
  6
CONTINUOUS
 62
    47
 10
115.141755
 20
21.324145
 11
113.641755
 21
21.324145
  0
LINE
  8
別途部材
  6
CONTINUOUS
 62
    47
 10
-110.32269
 20
-69.015715
 11
-110.32269
 21
-69.08238
  0
ARC
  8
別途部材
  6
CONTINUOUS
 62
    47
 10
-110.222692
 20
-69.015711
 40
0.1
 50
90.0
 51
180.0
  0
LINE
  8
別途部材
  6
CONTINUOUS
 62
    47
 10
-110.22269
 20
-68.915715
 11
-110.16617
 21
-68.915715
  0
LINE
  8
別途部材
  6
CONTINUOUS
 62
    47
 10
-110.16617
 20
-70.58238
 11
-110.16617
 21
-69.08238
  0
LINE
  8
別途部材
  6
CONTINUOUS
 62
    47
 10
59.6369
 20
-69.015715
 11
59.6369
 21
-69.08238
  0
ARC
  8
別途部材
  6
CONTINUOUS
 62
    47
 10
59.536898
 20
-69.015711
 40
0.1
 50
0.0
 51
90.0
  0
LINE
  8
別途部材
  6
CONTINUOUS
 62
    47
 10
59.5369
 20
-68.915715
 11
59.480378
 21
-68.915715
  0
LINE
  8
別途部材
  6
CONTINUOUS
 62
    47
 10
59.480378
 20
-70.58238
 11
59.480378
 21
-69.08238
  0
LINE
  8
曲げ物
  6
CONTINUOUS
 10
42.716167
 20
39.693362
 11
39.020855
 21
35.99805
  0
LINE
  8
曲げ物
  6
CONTINUOUS
 10
42.012697
 20
38.157252
 11
40.556968
 21
36.701522
  0
LINE
  8
曲げ物
  6
CONTINUOUS
 10
41.180057
 20
38.989892
 11
39.724328
 21
37.534162
  0
LINE
  8
曲げ物
  6
CONTINUOUS
 10
10.713703
 20
39.693362
 11
7.01839
 21
35.99805
  0
LINE
  8
曲げ物
  6
CONTINUOUS
 10
10.010232
 20
38.157252
 11
8.554502
 21
36.701522
  0
LINE
  8
曲げ物
  6
CONTINUOUS
 10
9.177592
 20
38.989892
 11
7.721862
 21
37.534162
  0
LINE
  8
曲げ物
  6
CONTINUOUS
 10
-23.387765
 20
39.693362
 11
-27.083078
 21
35.99805
  0
LINE
  8
曲げ物
  6
CONTINUOUS
 10
-24.091235
 20
38.157252
 11
-25.546965
 21
36.701522
  0
LINE
  8
曲げ物
  6
CONTINUOUS
 10
-24.923875
 20
38.989892
 11
-26.379605
 21
37.534162
  0
LINE
  8
曲げ物
  6
CONTINUOUS
 10
-56.475853
 20
39.693362
 11
-60.171165
 21
35.99805
  0
LINE
  8
曲げ物
  6
CONTINUOUS
 10
-57.179323
 20
38.157252
 11
-58.635052
 21
36.701522
  0
LINE
  8
曲げ物
  6
CONTINUOUS
 10
-58.011963
 20
38.989892
 11
-59.467692
 21
37.534162
  0
LINE
  8
曲げ物
  6
CONTINUOUS
 10
-89.7415
 20
39.693362
 11
-93.436813
 21
35.99805
  0
LINE
  8
曲げ物
  6
CONTINUOUS
 10
-90.44497
 20
38.157252
 11
-91.9007
 21
36.701522
  0
LINE
  8
曲げ物
  6
CONTINUOUS
 10
-91.27761
 20
38.989892
 11
-92.73334
 21
37.534162
  0
LINE
  8
曲げ物
  6
CONTINUOUS
 10
153.076993
 20
-83.118728
 11
153.076993
 21
-53.785395
  0
LINE
  8
曲げ物
  6
CONTINUOUS
 10
120.810325
 20
-83.118728
 11
120.810325
 21
-53.785395
  0
LINE
  8
曲げ物
  6
CONTINUOUS
 10
153.076993
 20
-53.785395
 11
120.810325
 21
-53.785395
  0
LINE
  8
曲げ物
  6
CONTINUOUS
 10
153.076993
 20
-83.118728
 11
120.810325
 21
-83.118728
  0
CIRCLE
  8
LAYER010
  6
CONTINUOUS
 62
    47
 10
116.29176
 20
55.814075
 40
0.011113
  0
CIRCLE
  8
LAYER010
  6
CONTINUOUS
 62
    47
 10
116.29176
 20
19.814092
 40
0.011113
  0
CIRCLE
  8
LAYER010
  6
CONTINUOUS
 62
    47
 10
-111.67622
 20
-71.732385
 40
0.011113
  0
CIRCLE
  8
LAYER010
  6
CONTINUOUS
 62
    47
 10
60.99043
 20
-71.732385
 40
0.011113
  0
ENDSEC
  0
EOF
