  0
SECTION
  2
HEADER
  9
$EXTMIN
 10
-210.0
 20
-148.5
  9
$EXTMAX
 10
210.0
 20
148.5
  9
$PDMODE
 70
    32
  9
$PDSIZE
 40
1.5
  9
$LTSCALE
 40
10.0
  0
ENDSEC
  0
SECTION
  2
TABLES
  0
TABLE
  2
LTYPE
 70
    15
  0
LTYPE
  2
CONTINUOUS
 70
    64
  3
実線
 72
    65
 73
     0
 40
0.0
  0
LTYPE
  2
DASHED
 70
    64
  3
破線A
 72
    65
 73
     2
 40
0.6
 49
0.4
 49
-0.2
  0
LTYPE
  2
DASHEDX2
 70
    64
  3
破線B
 72
    65
 73
     2
 40
1.3
 49
0.9
 49
-0.4
  0
LTYPE
  2
DASHDOT
 70
    64
  3
１点鎖線A
 72
    65
 73
     4
 40
0.5375
 49
0.375
 49
-0.05
 49
0.0625
 49
-0.05
  0
LTYPE
  2
DASHDOTX2
 70
    64
  3
１点鎖線B
 72
    65
 73
     4
 40
1.075
 49
0.75
 49
-0.1
 49
0.125
 49
-0.1
  0
LTYPE
  2
DIVIDE2
 70
    64
  3
２点鎖線A
 72
    65
 73
     6
 40
0.5125
 49
0.3
 49
-0.0375
 49
0.05
 49
-0.0375
 49
0.05
 49
-0.0375
  0
LTYPE
  2
DIVIDE
 70
    64
  3
２点鎖線B
 72
    65
 73
     6
 40
1.05
 49
0.55
 49
-0.1
 49
0.1
 49
-0.1
 49
0.1
 49
-0.1
  0
LTYPE
  2
DOT
 70
    64
  3
点線A
 72
    65
 73
     2
 40
0.1125
 49
0.0625
 49
-0.05
  0
LTYPE
  2
DOTX2
 70
    64
  3
点線B
 72
    65
 73
     2
 40
0.275
 49
0.15
 49
-0.125
  0
LTYPE
  2
CONTINUOUS
 70
    64
  3
実線
 72
    65
 73
     0
 40
0.0
  0
LTYPE
  2
CONTINUOUS
 70
    64
  3
実線
 72
    65
 73
     0
 40
0.0
  0
LTYPE
  2
CONTINUOUS
 70
    64
  3
実線
 72
    65
 73
     0
 40
0.0
  0
LTYPE
  2
CONTINUOUS
 70
    64
  3
実線
 72
    65
 73
     0
 40
0.0
  0
LTYPE
  2
CONTINUOUS
 70
    64
  3
実線
 72
    65
 73
     0
 40
0.0
  0
LTYPE
  2
CONTINUOUS
 70
    64
  3
実線
 72
    65
 73
     0
 40
0.0
  0
ENDTAB
  0
TABLE
  2
LAYER
 70
    35
  0
LAYER
  2
通り芯
 70
     0
 62
    15
  6
CONTINUOUS
  0
LAYER
  2
補助線
 70
     0
 62
    16
  6
DOT
  0
LAYER
  2
躯体
 70
     0
 62
    31
  6
CONTINUOUS
  0
LAYER
  2
型材
 70
     0
 62
    32
  6
CONTINUOUS
  0
LAYER
  2
型材断面
 70
     0
 62
    47
  6
CONTINUOUS
  0
LAYER
  2
ガラス
 70
     0
 62
    48
  6
CONTINUOUS
  0
LAYER
  2
ゴム等
 70
     0
 62
    63
  6
CONTINUOUS
  0
LAYER
  2
ボルト／ビス
 70
     0
 62
    64
  6
CONTINUOUS
  0
LAYER
  2
文字
 70
     0
 62
    79
  6
CONTINUOUS
  0
LAYER
  2
寸法
 70
     0
 62
    80
  6
CONTINUOUS
  0
LAYER
  2
ﾊｯﾁﾝｸﾞ
 70
     0
 62
    95
  6
CONTINUOUS
  0
LAYER
  2
別途部材
 70
     0
 62
    96
  6
CONTINUOUS
  0
LAYER
  2
曲げ物
 70
     0
 62
   111
  6
CONTINUOUS
  0
LAYER
  2
鉄骨等
 70
     0
 62
   112
  6
CONTINUOUS
  0
LAYER
  2
St
 70
     0
 62
   127
  6
CONTINUOUS
  0
LAYER
  2
その他部品等
 70
     0
 62
   128
  6
CONTINUOUS
  0
LAYER
  2
ｶﾞｽｹｯﾄ
 70
     0
 62
   143
  6
CONTINUOUS
  0
LAYER
  2
ｽｹｯﾁ
 70
     0
 62
    14
  6
CONTINUOUS
  0
LAYER
  2
0
 70
     0
 62
    17
  6
CONTINUOUS
  0
LAYER
  2
1
 70
     0
 62
    30
  6
CONTINUOUS
  0
LAYER
  2
4
 70
     0
 62
    33
  6
CONTINUOUS
  0
LAYER
  2
ﾚｲﾔ3
 70
     0
 62
    46
  6
CONTINUOUS
  0
LAYER
  2
外形線
 70
     0
 62
    49
  6
CONTINUOUS
  0
LAYER
  2
部品
 70
     0
 62
    14
  6
CONTINUOUS
  0
LAYER
  2
サッシ芯
 70
     0
 62
    17
  6
DASHDOTX2
  0
LAYER
  2
寸法線
 70
     0
 62
    62
  6
CONTINUOUS
  0
LAYER
  2
姿図外形線
 70
     0
 62
    65
  6
CONTINUOUS
  0
LAYER
  2
姿補助線
 70
     0
 62
    30
  6
CONTINUOUS
  0
LAYER
  2
透視線
 70
     0
 62
    78
  6
DOT
  0
LAYER
  2
用紙
 70
     0
 62
    81
  6
CONTINUOUS
  0
LAYER
  2
実線図枠
 70
     0
 62
    94
  6
CONTINUOUS
  0
LAYER
  2
補助図枠
 70
     0
 62
    97
  6
CONTINUOUS
  0
LAYER
  2
建具記号
 70
     0
 62
   110
  6
CONTINUOUS
  0
LAYER
  2
補助文字
 70
     0
 62
   113
  6
CONTINUOUS
  0
LAYER
  2
LAYER010
 70
     0
 62
    11
  6
CONTINUOUS
  0
ENDTAB
  0
TABLE
  2
STYLE
 70
    10
  0
STYLE
  2
STANDARD
 70
     0
 40
1.0
 41
1.0
 42
1.0
 50
0.0
 71
     0
  3
TXT
  4
BIGFONT
  0
STYLE
  2
TATE
 70
     4
 40
1.0
 41
1.0
 42
1.0
 50
0.0
 71
     0
  3
TXT
  4
BIGFONT
  0
STYLE
  2
TextStyle03
 70
     0
 40
1.0
 41
1.0
 42
1.0
 50
0.0
 71
     0
  3
MONOTXT
  4
BIGFONT
  0
STYLE
  2
TextStyle04
 70
     0
 40
1.0
 41
1.0
 42
1.0
 50
0.0
 71
     0
  3
MONOTXT
  4
BIGFONT
  0
STYLE
  2
TextStyle05
 70
     0
 40
1.0
 41
1.0
 42
1.0
 50
0.0
 71
     0
  3
MONOTXT
  4
BIGFONT
  0
STYLE
  2
TextStyle06
 70
     0
 40
1.0
 41
1.0
 42
1.0
 50
0.0
 71
     0
  3
MONOTXT
  4
BIGFONT
  0
STYLE
  2
TextStyle07
 70
     0
 40
1.0
 41
1.0
 42
1.0
 50
0.0
 71
     0
  3
MONOTXT
  4
BIGFONT
  0
STYLE
  2
TextStyle08
 70
     0
 40
1.0
 41
1.0
 42
1.0
 50
0.0
 71
     0
  3
MONOTXT
  4
BIGFONT
  0
STYLE
  2
TextStyle09
 70
     0
 40
1.0
 41
1.0
 42
1.0
 50
0.0
 71
     0
  3
MONOTXT
  4
BIGFONT
  0
STYLE
  2
TextStyle10
 70
     0
 40
1.0
 41
1.0
 42
1.0
 50
0.0
 71
     0
  3
MONOTXT
  4
BIGFONT
  0
ENDTAB
  0
ENDSEC
  0
SECTION
  2
BLOCKS
  0
BLOCK
  2
*GRP_0001
 70
    65
 10
0.0
 20
0.0
  0
LINE
  8
型材断面
  6
CONTINUOUS
 10
195.0
 20
133.5
 11
195.0
 21
-133.5
  0
LINE
  8
型材断面
  6
CONTINUOUS
 10
195.0
 20
-133.5
 11
-185.0
 21
-133.5
  0
LINE
  8
型材断面
  6
CONTINUOUS
 10
-185.0
 20
-133.5
 11
-185.0
 21
133.5
  0
LINE
  8
型材断面
  6
CONTINUOUS
 10
195.0
 20
133.5
 11
-185.0
 21
133.5
  0
LINE
  8
型材断面
  6
CONTINUOUS
 10
145.0
 20
-133.5
 11
145.0
 21
-118.5
  0
LINE
  8
型材断面
  6
CONTINUOUS
 10
195.0
 20
-118.5
 11
145.0
 21
-118.5
  0
ENDBLK
  0
BLOCK
  2
*DIM_0002
 70
    65
 10
0.0
 20
0.0
  0
LINE
  8
寸法
  6
BYBLOCK
 62
     0
 10
-112.076325
 20
-22.92619
 11
-112.076325
 21
-22.536362
  0
LINE
  8
寸法
  6
BYBLOCK
 62
     0
 10
71.257007
 20
-22.536362
 11
-112.076325
 21
-22.536362
  0
POINT
  8
寸法
 62
     0
 10
71.257007
 20
-22.536362
  0
POINT
  8
寸法
 62
     0
 10
-112.076325
 20
-22.536362
  0
TEXT
  7
TextStyle03
  8
寸法
  6
CONTINUOUS
 62
     0
 10
-32.14375
 20
-22.175
  1
呼称寸法　5500
 40
3.0
 72
     5
 11
-8.70625
 21
-22.175
  0
ENDBLK
  0
BLOCK
  2
*DIM_0003
 70
    65
 10
0.0
 20
0.0
  0
LINE
  8
寸法
  6
BYBLOCK
 62
     0
 10
-95.409657
 20
9.768917
 11
-95.409657
 21
4.783553
  0
LINE
  8
寸法
  6
BYBLOCK
 62
     0
 10
-20.40966
 20
9.76892
 11
-20.40966
 21
4.783553
  0
LINE
  8
寸法
  6
BYBLOCK
 62
     0
 10
-95.409657
 20
4.783553
 11
-20.40966
 21
4.783553
  0
POINT
  8
寸法
 62
     0
 10
-95.409657
 20
4.783553
  0
POINT
  8
寸法
 62
     0
 10
-20.40966
 20
4.783553
  0
TEXT
  7
TextStyle03
  8
寸法
  6
CONTINUOUS
 62
     0
 10
-61.20625
 20
5.15
  1
2250
 40
3.0
 72
     5
 11
-54.64375
 21
5.15
  0
ENDBLK
  0
BLOCK
  2
*DIM_0004
 70
    65
 10
0.0
 20
0.0
  0
LINE
  8
寸法
  6
BYBLOCK
 62
     0
 10
54.590337
 20
9.768917
 11
54.590337
 21
4.783553
  0
LINE
  8
寸法
  6
BYBLOCK
 62
     0
 10
-20.40966
 20
4.783553
 11
54.590337
 21
4.783553
  0
POINT
  8
寸法
 62
     0
 10
54.590337
 20
4.783553
  0
TEXT
  7
TextStyle03
  8
寸法
  6
CONTINUOUS
 62
     0
 10
13.79375
 20
5.15
  1
2250
 40
3.0
 72
     5
 11
20.35625
 21
5.15
  0
ENDBLK
  0
BLOCK
  2
*DIM_0005
 70
    65
 10
0.0
 20
0.0
  0
LINE
  8
寸法
  6
BYBLOCK
 62
     0
 10
74.257052
 20
-78.991382
 11
74.257052
 21
-22.536362
  0
LINE
  8
寸法
  6
BYBLOCK
 62
     0
 10
71.257007
 20
-22.536362
 11
74.257052
 21
-22.536362
  0
POINT
  8
寸法
 62
     0
 10
71.257007
 20
-22.536362
  0
POINT
  8
寸法
 62
     0
 10
74.257052
 20
-22.536362
  0
TEXT
  7
TextStyle03
  8
寸法
  6
CONTINUOUS
 62
     0
 10
71.13125
 20
-22.15
  1
90
 40
3.0
 72
     5
 11
74.31875
 21
-22.15
  0
ENDBLK
  0
BLOCK
  2
*DIM_0006
 70
    65
 10
0.0
 20
0.0
  0
LINE
  8
寸法
  6
BYBLOCK
 62
     0
 10
-115.076372
 20
-78.991382
 11
-115.076372
 21
-22.536362
  0
LINE
  8
寸法
  6
BYBLOCK
 62
     0
 10
-112.076328
 20
-22.536362
 11
-115.076372
 21
-22.536362
  0
POINT
  8
寸法
 62
     0
 10
-112.076328
 20
-22.536362
  0
POINT
  8
寸法
 62
     0
 10
-115.076372
 20
-22.536362
  0
TEXT
  7
TextStyle03
  8
寸法
  6
CONTINUOUS
 62
     0
 10
-115.19375
 20
-22.175
  1
90
 40
3.0
 72
     5
 11
-112.00625
 21
-22.175
  0
ENDBLK
  0
BLOCK
  2
*DIM_0007
 70
    65
 10
0.0
 20
0.0
  0
LINE
  8
寸法
  6
BYBLOCK
 62
     0
 10
167.343563
 20
-63.20038
 11
175.401852
 21
-63.20038
  0
LINE
  8
寸法
  6
BYBLOCK
 62
     0
 10
167.343563
 20
-92.533713
 11
175.401852
 21
-92.533713
  0
LINE
  8
寸法
  6
BYBLOCK
 62
     0
 10
175.401852
 20
-63.20038
 11
175.401852
 21
-92.533713
  0
POINT
  8
寸法
 62
     0
 10
175.401852
 20
-63.20038
  0
POINT
  8
寸法
 62
     0
 10
175.401852
 20
-92.533713
  0
TEXT
  7
TextStyle03
  8
寸法
  6
CONTINUOUS
 62
     0
 10
175.025
 20
-80.3125
  1
880
 40
3.0
 50
90.0
 72
     5
 11
175.025
 21
-75.4375
  0
ENDBLK
  0
BLOCK
  2
*DIM_0008
 70
    65
 10
0.0
 20
0.0
  0
LINE
  8
寸法
  6
BYBLOCK
 62
     0
 10
-115.076325
 20
38.399048
 11
-128.369163
 21
38.399048
  0
LINE
  8
寸法
  6
BYBLOCK
 62
     0
 10
-115.076325
 20
18.399048
 11
-128.369163
 21
18.399048
  0
LINE
  8
寸法
  6
BYBLOCK
 62
     0
 10
-128.369163
 20
38.399048
 11
-128.369163
 21
18.399048
  0
POINT
  8
寸法
 62
     0
 10
-128.369163
 20
38.399048
  0
POINT
  8
寸法
 62
     0
 10
-128.369163
 20
18.399048
  0
TEXT
  7
TextStyle03
  8
寸法
  6
CONTINUOUS
 62
     0
 10
-128.725
 20
25.9625
  1
600
 40
3.0
 50
90.0
 72
     5
 11
-128.725
 21
30.8375
  0
ENDBLK
  0
BLOCK
  2
*DIM_0009
 70
    65
 10
0.0
 20
0.0
  0
LINE
  8
寸法
  6
BYBLOCK
 62
     0
 10
-100.40966
 20
46.399048
 11
-100.40966
 21
75.50712
  0
LINE
  8
寸法
  6
BYBLOCK
 62
     0
 10
-73.742993
 20
46.399048
 11
-73.742993
 21
75.50712
  0
LINE
  8
寸法
  6
BYBLOCK
 62
     0
 10
-100.40966
 20
75.50712
 11
-73.742993
 21
75.50712
  0
POINT
  8
寸法
 62
     0
 10
-100.40966
 20
75.50712
  0
POINT
  8
寸法
 62
     0
 10
-73.742993
 20
75.50712
  0
TEXT
  7
TextStyle03
  8
寸法
  6
CONTINUOUS
 62
     0
 10
-89.5375
 20
75.875
  1
800
 40
3.0
 72
     5
 11
-84.6625
 21
75.875
  0
ENDBLK
  0
BLOCK
  2
*DIM_0010
 70
    65
 10
0.0
 20
0.0
  0
LINE
  8
寸法
  6
BYBLOCK
 62
     0
 10
-47.076328
 20
46.399048
 11
-47.076328
 21
75.50712
  0
LINE
  8
寸法
  6
BYBLOCK
 62
     0
 10
-73.742993
 20
75.50712
 11
-47.076328
 21
75.50712
  0
POINT
  8
寸法
 62
     0
 10
-47.076328
 20
75.50712
  0
TEXT
  7
TextStyle03
  8
寸法
  6
CONTINUOUS
 62
     0
 10
-62.8625
 20
75.875
  1
800
 40
3.0
 72
     5
 11
-57.9875
 21
75.875
  0
ENDBLK
  0
BLOCK
  2
*DIM_0011
 70
    65
 10
0.0
 20
0.0
  0
LINE
  8
寸法
  6
BYBLOCK
 62
     0
 10
-20.40966
 20
46.399048
 11
-20.40966
 21
75.50712
  0
LINE
  8
寸法
  6
BYBLOCK
 62
     0
 10
-47.076328
 20
75.50712
 11
-20.40966
 21
75.50712
  0
POINT
  8
寸法
 62
     0
 10
-20.40966
 20
75.50712
  0
TEXT
  7
TextStyle03
  8
寸法
  6
CONTINUOUS
 62
     0
 10
-36.1875
 20
75.875
  1
800
 40
3.0
 72
     5
 11
-31.3125
 21
75.875
  0
ENDBLK
  0
BLOCK
  2
*DIM_0012
 70
    65
 10
0.0
 20
0.0
  0
LINE
  8
寸法
  6
BYBLOCK
 62
     0
 10
6.257007
 20
46.399048
 11
6.257007
 21
75.50712
  0
LINE
  8
寸法
  6
BYBLOCK
 62
     0
 10
-20.40966
 20
75.50712
 11
6.257007
 21
75.50712
  0
POINT
  8
寸法
 62
     0
 10
6.257007
 20
75.50712
  0
TEXT
  7
TextStyle03
  8
寸法
  6
CONTINUOUS
 62
     0
 10
-9.5375
 20
75.875
  1
800
 40
3.0
 72
     5
 11
-4.6625
 21
75.875
  0
ENDBLK
  0
BLOCK
  2
*DIM_0013
 70
    65
 10
0.0
 20
0.0
  0
LINE
  8
寸法
  6
BYBLOCK
 62
     0
 10
32.923673
 20
46.399048
 11
32.923673
 21
75.50712
  0
LINE
  8
寸法
  6
BYBLOCK
 62
     0
 10
6.257007
 20
75.50712
 11
32.923673
 21
75.50712
  0
POINT
  8
寸法
 62
     0
 10
32.923673
 20
75.50712
  0
TEXT
  7
TextStyle03
  8
寸法
  6
CONTINUOUS
 62
     0
 10
17.1375
 20
75.875
  1
800
 40
3.0
 72
     5
 11
22.0125
 21
75.875
  0
ENDBLK
  0
BLOCK
  2
*DIM_0014
 70
    65
 10
0.0
 20
0.0
  0
LINE
  8
寸法
  6
BYBLOCK
 62
     0
 10
59.59034
 20
46.399048
 11
59.59034
 21
75.50712
  0
LINE
  8
寸法
  6
BYBLOCK
 62
     0
 10
32.923673
 20
75.50712
 11
59.59034
 21
75.50712
  0
POINT
  8
寸法
 62
     0
 10
59.59034
 20
75.50712
  0
TEXT
  7
TextStyle03
  8
寸法
  6
CONTINUOUS
 62
     0
 10
43.8125
 20
75.875
  1
800
 40
3.0
 72
     5
 11
48.6875
 21
75.875
  0
ENDBLK
  0
BLOCK
  2
*DIM_0015
 70
    65
 10
0.0
 20
0.0
  0
LINE
  8
寸法
  6
CONTINUOUS
 10
118.87362
 20
57.038307
 11
122.190287
 21
57.038307
  0
POINT
  8
寸法
 10
118.87362
 20
57.038307
  0
POINT
  8
寸法
 10
122.190287
 20
57.038307
  0
TEXT
  7
TextStyle03
  8
寸法
  6
CONTINUOUS
 10
117.04375
 20
57.225
  1
99.5
 40
3.0
 72
     5
 11
123.60625
 21
57.225
  0
ENDBLK
  0
BLOCK
  2
*DIM_0016
 70
    65
 10
0.0
 20
0.0
  0
LINE
  8
寸法
  6
CONTINUOUS
 10
84.896215
 20
-77.54646
 11
84.896215
 21
-80.86313
  0
POINT
  8
寸法
 10
84.896215
 20
-77.54646
  0
POINT
  8
寸法
 10
84.896215
 20
-80.86313
  0
TEXT
  7
TextStyle03
  8
寸法
  6
CONTINUOUS
 10
88.025
 20
-82.38125
  1
99.5
 40
3.0
 50
90.0
 72
     5
 11
88.025
 21
-75.81875
  0
ENDBLK
  0
BLOCK
  2
*DIM_0017
 70
    65
 10
0.0
 20
0.0
  0
LINE
  8
寸法
  6
CONTINUOUS
 10
166.343563
 20
-54.73316
 11
130.743563
 21
-54.73316
  0
POINT
  8
寸法
 10
166.343563
 20
-54.73316
  0
POINT
  8
寸法
 10
130.743563
 20
-54.73316
  0
TEXT
  7
TextStyle03
  8
寸法
  6
CONTINUOUS
 10
145.24375
 20
-54.375
  1
1068
 40
3.0
 72
     5
 11
151.80625
 21
-54.375
  0
ENDBLK
  0
ENDSEC
  0
SECTION
  2
ENTITIES
  0
POLYLINE
  8
通り芯
  6
CONTINUOUS
 66
     1
 70
     1
  0
VERTEX
  8
通り芯
 10
-210.0
 20
-148.5
  0
VERTEX
  8
通り芯
 10
210.0
 20
-148.5
  0
VERTEX
  8
通り芯
 10
210.0
 20
148.5
  0
VERTEX
  8
通り芯
 10
-210.0
 20
148.5
  0
SEQEND
  0
INSERT
  2
*GRP_0001
  8
型材断面
  6
CONTINUOUS
 10
0.0
 20
0.0
  0
LINE
  8
型材断面
  6
DASHDOT
 10
71.257007
 20
-87.251428
 11
71.257007
 21
43.399048
  0
LINE
  8
型材断面
  6
DASHDOT
 10
-20.40966
 20
-87.251428
 11
-20.40966
 21
43.399048
  0
LINE
  8
型材断面
  6
DASHDOT
 10
-112.076325
 20
-87.251428
 11
-112.076325
 21
43.399048
  0
LINE
  8
型材断面
  6
CONTINUOUS
 10
-95.409657
 20
46.029177
 11
-96.905288
 21
48.619685
  0
LINE
  8
型材断面
  6
CONTINUOUS
 10
-95.409657
 20
46.029177
 11
-93.914027
 21
48.619685
  0
LINE
  8
型材断面
  6
CONTINUOUS
 10
-93.914027
 20
48.619685
 11
-96.905288
 21
48.619685
  0
LINE
  8
型材断面
  6
CONTINUOUS
 10
-152.928532
 20
87.906395
 11
-154.424162
 21
85.315887
  0
LINE
  8
型材断面
  6
CONTINUOUS
 10
-152.928532
 20
87.906395
 11
-151.432903
 21
85.315887
  0
LINE
  8
型材断面
  6
CONTINUOUS
 10
-151.432903
 20
85.315887
 11
-154.424162
 21
85.315887
  0
LINE
  8
型材断面
  6
CONTINUOUS
 10
-158.95112
 20
84.377292
 11
-112.709343
 21
84.377292
  0
LINE
  8
型材断面
  6
CONTINUOUS
 10
-114.706455
 20
28.399048
 11
-117.296962
 21
29.894678
  0
LINE
  8
型材断面
  6
CONTINUOUS
 10
-114.706455
 20
28.399048
 11
-117.296962
 21
26.903418
  0
LINE
  8
型材断面
  6
CONTINUOUS
 10
-117.296962
 20
26.903418
 11
-117.296962
 21
29.894678
  0
LINE
  8
型材断面
  6
CONTINUOUS
 10
-95.409657
 20
10.768917
 11
-96.905288
 21
8.17841
  0
LINE
  8
型材断面
  6
CONTINUOUS
 10
-95.409657
 20
10.768917
 11
-93.914027
 21
8.17841
  0
LINE
  8
型材断面
  6
CONTINUOUS
 10
-93.914027
 20
8.17841
 11
-96.905288
 21
8.17841
  0
LINE
  8
型材断面
  6
CONTINUOUS
 10
54.590337
 20
46.029177
 11
56.085967
 21
48.619685
  0
LINE
  8
型材断面
  6
CONTINUOUS
 10
54.590337
 20
46.029177
 11
53.094708
 21
48.619685
  0
LINE
  8
型材断面
  6
CONTINUOUS
 10
53.094708
 20
48.619685
 11
56.085967
 21
48.619685
  0
LINE
  8
型材断面
  6
CONTINUOUS
 10
73.887135
 20
28.399048
 11
76.477643
 21
29.894678
  0
LINE
  8
型材断面
  6
CONTINUOUS
 10
73.887135
 20
28.399048
 11
76.477643
 21
26.903418
  0
LINE
  8
型材断面
  6
CONTINUOUS
 10
76.477643
 20
26.903418
 11
76.477643
 21
29.894678
  0
LINE
  8
型材断面
  6
CONTINUOUS
 10
54.590337
 20
10.768917
 11
56.085967
 21
8.17841
  0
LINE
  8
型材断面
  6
CONTINUOUS
 10
54.590337
 20
10.768917
 11
53.094708
 21
8.17841
  0
LINE
  8
型材断面
  6
CONTINUOUS
 10
53.094708
 20
8.17841
 11
56.085967
 21
8.17841
  0
LINE
  8
型材断面
  6
CONTINUOUS
 10
-20.40966
 20
46.029175
 11
-21.90529
 21
48.619683
  0
LINE
  8
型材断面
  6
CONTINUOUS
 10
-20.40966
 20
46.029175
 11
-18.91403
 21
48.619683
  0
LINE
  8
型材断面
  6
CONTINUOUS
 10
-18.91403
 20
48.619683
 11
-21.90529
 21
48.619683
  0
LINE
  8
型材断面
  6
CONTINUOUS
 10
-20.40966
 20
10.768915
 11
-21.90529
 21
8.178407
  0
LINE
  8
型材断面
  6
CONTINUOUS
 10
-20.40966
 20
10.768915
 11
-18.91403
 21
8.178407
  0
LINE
  8
型材断面
  6
CONTINUOUS
 10
-18.91403
 20
8.178407
 11
-21.90529
 21
8.178407
  0
LINE
  8
型材断面
  6
CONTINUOUS
 10
-158.95112
 20
77.575798
 11
-112.709343
 21
77.575798
  0
LINE
  8
型材断面
  6
CONTINUOUS
 10
-115.076372
 20
10.399005
 11
-20.40966
 21
10.399005
  0
LINE
  8
型材断面
  6
CONTINUOUS
 10
-115.076372
 20
46.39909
 11
-20.40966
 21
46.39909
  0
LINE
  8
型材断面
  6
CONTINUOUS
 10
74.257052
 20
46.39909
 11
-20.40966
 21
46.39909
  0
LINE
  8
型材断面
  6
CONTINUOUS
 10
74.257052
 20
10.399005
 11
-20.40966
 21
10.399005
  0
CIRCLE
  8
型材断面
  6
CONTINUOUS
 62
    47
 10
121.69029
 20
46.39909
 40
0.011113
  0
LINE
  8
型材断面
  6
CONTINUOUS
 62
    47
 10
122.190287
 20
45.8991
 11
122.190287
 21
46.39909
  0
LINE
  8
型材断面
  6
CONTINUOUS
 62
    47
 10
122.190287
 20
46.39909
 11
121.69029
 21
46.39909
  0
LINE
  8
型材断面
  6
CONTINUOUS
 62
    47
 10
121.69029
 20
46.39909
 11
121.19311
 21
43.46576
  0
LINE
  8
型材断面
  6
CONTINUOUS
 62
    47
 10
122.190287
 20
45.8991
 11
122.690287
 21
45.8991
  0
LINE
  8
型材断面
  6
CONTINUOUS
 62
    47
 10
121.19311
 20
43.46576
 11
120.540285
 21
43.46576
  0
CIRCLE
  8
型材断面
  6
CONTINUOUS
 62
    47
 10
121.69029
 20
10.399107
 40
0.011113
  0
LINE
  8
型材断面
  6
CONTINUOUS
 62
    47
 10
122.190287
 20
10.8991
 11
122.190287
 21
10.399107
  0
LINE
  8
型材断面
  6
CONTINUOUS
 62
    47
 10
122.190287
 20
10.399107
 11
121.69029
 21
10.399107
  0
LINE
  8
型材断面
  6
CONTINUOUS
 62
    47
 10
121.69029
 20
10.399107
 11
121.19311
 21
13.33244
  0
LINE
  8
型材断面
  6
CONTINUOUS
 62
    47
 10
122.190287
 20
10.8991
 11
122.690287
 21
10.8991
  0
LINE
  8
型材断面
  6
CONTINUOUS
 62
    47
 10
121.19311
 20
13.33244
 11
120.540285
 21
13.33244
  0
LINE
  8
型材断面
  6
CONTINUOUS
 62
    47
 10
119.040285
 20
45.04556
 11
119.040285
 21
28.3991
  0
LINE
  8
型材断面
  6
CONTINUOUS
 62
    47
 10
118.87362
 20
44.88904
 11
118.87362
 21
28.3991
  0
LINE
  8
型材断面
  6
CONTINUOUS
 62
    47
 10
120.540285
 20
44.88904
 11
120.540285
 21
28.3991
  0
LINE
  8
型材断面
  6
CONTINUOUS
 10
121.19311
 20
43.465812
 11
121.19311
 21
28.3991
  0
LINE
  8
型材断面
  6
CONTINUOUS
 10
121.69029
 20
46.399145
 11
121.69029
 21
28.3991
  0
LINE
  8
型材断面
  6
CONTINUOUS
 62
    47
 10
122.190287
 20
46.399145
 11
122.190287
 21
28.3991
  0
LINE
  8
型材断面
  6
CONTINUOUS
 10
122.690287
 20
45.899155
 11
122.690287
 21
28.3991
  0
LINE
  8
型材断面
  6
CONTINUOUS
 10
122.690287
 20
10.899045
 11
122.690287
 21
28.3991
  0
LINE
  8
型材断面
  6
CONTINUOUS
 10
121.69029
 20
10.399055
 11
121.69029
 21
28.3991
  0
LINE
  8
型材断面
  6
CONTINUOUS
 62
    47
 10
122.190287
 20
10.399055
 11
122.190287
 21
28.3991
  0
LINE
  8
型材断面
  6
CONTINUOUS
 10
121.19311
 20
13.332385
 11
121.19311
 21
28.3991
  0
LINE
  8
型材断面
  6
CONTINUOUS
 62
    47
 10
120.540285
 20
11.90916
 11
120.540285
 21
28.3991
  0
LINE
  8
型材断面
  6
CONTINUOUS
 62
    47
 10
119.040285
 20
11.752637
 11
119.040285
 21
28.3991
  0
LINE
  8
型材断面
  6
CONTINUOUS
 62
    47
 10
118.87362
 20
11.90916
 11
118.87362
 21
28.3991
  0
LINE
  8
型材断面
  6
DASHDOT
 10
-112.076325
 20
28.399048
 11
129.666297
 21
28.399048
  0
CIRCLE
  8
型材断面
  6
CONTINUOUS
 62
    47
 10
-115.076318
 20
-80.36313
 40
0.011113
  0
LINE
  8
型材断面
  6
CONTINUOUS
 62
    47
 10
-114.576325
 20
-80.86313
 11
-115.076318
 21
-80.86313
  0
LINE
  8
型材断面
  6
CONTINUOUS
 62
    47
 10
-115.076318
 20
-80.86313
 11
-115.076318
 21
-80.36313
  0
LINE
  8
型材断面
  6
CONTINUOUS
 62
    47
 10
-115.076318
 20
-80.36313
 11
-112.142985
 21
-79.86595
  0
LINE
  8
型材断面
  6
CONTINUOUS
 62
    47
 10
-114.576325
 20
-80.86313
 11
-114.576325
 21
-81.36313
  0
LINE
  8
型材断面
  6
CONTINUOUS
 62
    47
 10
-112.142985
 20
-79.86595
 11
-112.142985
 21
-79.213127
  0
CIRCLE
  8
型材断面
  6
CONTINUOUS
 62
    47
 10
74.257
 20
-80.36313
 40
0.011113
  0
LINE
  8
型材断面
  6
CONTINUOUS
 62
    47
 10
73.757007
 20
-80.86313
 11
74.257
 21
-80.86313
  0
LINE
  8
型材断面
  6
CONTINUOUS
 62
    47
 10
74.257
 20
-80.86313
 11
74.257
 21
-80.36313
  0
LINE
  8
型材断面
  6
CONTINUOUS
 62
    47
 10
74.257
 20
-80.36313
 11
71.323668
 21
-79.86595
  0
LINE
  8
型材断面
  6
CONTINUOUS
 62
    47
 10
73.757007
 20
-80.86313
 11
73.757007
 21
-81.36313
  0
LINE
  8
型材断面
  6
CONTINUOUS
 62
    47
 10
71.323668
 20
-79.86595
 11
71.323668
 21
-79.213127
  0
LINE
  8
型材断面
  6
CONTINUOUS
 10
-115.07637
 20
-80.363133
 11
-20.40966
 21
-80.363133
  0
LINE
  8
型材断面
  6
CONTINUOUS
 10
-112.14304
 20
-79.86595
 11
-20.40966
 21
-79.86595
  0
LINE
  8
型材断面
  6
CONTINUOUS
 62
    47
 10
-113.566265
 20
-77.54646
 11
-20.40966
 21
-77.54646
  0
LINE
  8
型材断面
  6
CONTINUOUS
 62
    47
 10
-113.722787
 20
-77.713127
 11
-20.40966
 21
-77.713127
  0
LINE
  8
型材断面
  6
CONTINUOUS
 62
    47
 10
-113.566265
 20
-79.213127
 11
-20.40966
 21
-79.213127
  0
LINE
  8
型材断面
  6
CONTINUOUS
 62
    47
 10
-115.07637
 20
-80.86313
 11
-20.40966
 21
-80.86313
  0
LINE
  8
型材断面
  6
CONTINUOUS
 10
-114.57638
 20
-81.36313
 11
-20.40966
 21
-81.36313
  0
LINE
  8
型材断面
  6
CONTINUOUS
 10
73.757063
 20
-81.36313
 11
-20.40966
 21
-81.36313
  0
LINE
  8
型材断面
  6
CONTINUOUS
 62
    47
 10
74.257052
 20
-80.86313
 11
-20.40966
 21
-80.86313
  0
LINE
  8
型材断面
  6
CONTINUOUS
 10
74.257052
 20
-80.363133
 11
-20.40966
 21
-80.363133
  0
LINE
  8
型材断面
  6
CONTINUOUS
 62
    47
 10
72.746947
 20
-79.213127
 11
-20.40966
 21
-79.213127
  0
LINE
  8
型材断面
  6
CONTINUOUS
 10
71.32372
 20
-79.86595
 11
-20.40966
 21
-79.86595
  0
LINE
  8
型材断面
  6
CONTINUOUS
 62
    47
 10
72.746947
 20
-77.54646
 11
-20.40966
 21
-77.54646
  0
LINE
  8
型材断面
  6
CONTINUOUS
 62
    47
 10
72.90347
 20
-77.713127
 11
-20.40966
 21
-77.713127
  0
LINE
  8
型材断面
  6
DASHDOT
 10
129.666297
 20
13.3991
 11
-112.076325
 21
13.3991
  0
LINE
  8
型材断面
  6
DASHDOT
 10
129.666297
 20
43.3991
 11
-112.076325
 21
43.3991
  0
LINE
  8
型材断面
  6
DASHDOT
 10
-75.559657
 20
13.399048
 11
-75.559657
 21
43.399048
  0
LINE
  8
型材断面
  6
DASHDOT
 10
-38.79299
 20
13.399048
 11
-38.79299
 21
43.399048
  0
LINE
  8
型材断面
  6
DASHDOT
 10
34.740337
 20
13.399048
 11
34.740337
 21
43.399048
  0
LINE
  8
型材断面
  6
DASHDOT
 10
-2.02633
 20
13.399048
 11
-2.02633
 21
43.399048
  0
LINE
  8
型材断面
  6
CONTINUOUS
 10
16.773673
 20
42.545457
 11
52.582005
 21
42.545457
  0
LINE
  8
型材断面
  6
CONTINUOUS
 10
16.773673
 20
14.252637
 11
52.582005
 21
14.252637
  0
LINE
  8
型材断面
  6
CONTINUOUS
 10
-19.992993
 20
14.252637
 11
15.940337
 21
14.252637
  0
LINE
  8
型材断面
  6
CONTINUOUS
 10
-19.992993
 20
42.545457
 11
15.940337
 21
42.545457
  0
LINE
  8
型材断面
  6
CONTINUOUS
 10
-56.759657
 20
42.545457
 11
-20.826328
 21
42.545457
  0
LINE
  8
型材断面
  6
CONTINUOUS
 10
-56.759657
 20
14.252637
 11
-20.826328
 21
14.252637
  0
LINE
  8
型材断面
  6
CONTINUOUS
 10
-93.401325
 20
14.252637
 11
-57.592993
 21
14.252637
  0
LINE
  8
型材断面
  6
CONTINUOUS
 10
-93.401325
 20
42.545457
 11
-57.592993
 21
42.545457
  0
LINE
  8
型材断面
  6
CONTINUOUS
 10
33.490337
 20
15.08597
 11
35.990337
 21
15.08597
  0
LINE
  8
型材断面
  6
CONTINUOUS
 10
33.490337
 20
41.712125
 11
35.990337
 21
41.712125
  0
LINE
  8
型材断面
  6
CONTINUOUS
 10
35.990337
 20
15.08597
 11
35.990337
 21
41.712125
  0
LINE
  8
型材断面
  6
CONTINUOUS
 10
33.490337
 20
15.08597
 11
33.490337
 21
41.712125
  0
LINE
  8
型材断面
  6
CONTINUOUS
 10
-3.27633
 20
15.08597
 11
-0.77633
 21
15.08597
  0
LINE
  8
型材断面
  6
CONTINUOUS
 10
-3.27633
 20
41.712125
 11
-0.77633
 21
41.712125
  0
LINE
  8
型材断面
  6
CONTINUOUS
 10
-0.77633
 20
15.08597
 11
-0.77633
 21
41.712125
  0
LINE
  8
型材断面
  6
CONTINUOUS
 10
-3.27633
 20
15.08597
 11
-3.27633
 21
41.712125
  0
LINE
  8
型材断面
  6
CONTINUOUS
 10
-74.309657
 20
15.08597
 11
-76.809657
 21
15.08597
  0
LINE
  8
型材断面
  6
CONTINUOUS
 10
-74.309657
 20
41.712125
 11
-76.809657
 21
41.712125
  0
LINE
  8
型材断面
  6
CONTINUOUS
 10
-76.809657
 20
15.08597
 11
-76.809657
 21
41.712125
  0
LINE
  8
型材断面
  6
CONTINUOUS
 10
-74.309657
 20
15.08597
 11
-74.309657
 21
41.712125
  0
LINE
  8
型材断面
  6
CONTINUOUS
 10
-37.54299
 20
15.08597
 11
-40.04299
 21
15.08597
  0
LINE
  8
型材断面
  6
CONTINUOUS
 10
-37.54299
 20
41.712125
 11
-40.04299
 21
41.712125
  0
LINE
  8
型材断面
  6
CONTINUOUS
 10
-40.04299
 20
15.08597
 11
-40.04299
 21
41.712125
  0
LINE
  8
型材断面
  6
CONTINUOUS
 10
-37.54299
 20
15.08597
 11
-37.54299
 21
41.712125
  0
LINE
  8
型材断面
  6
CONTINUOUS
 10
74.257055
 20
46.39909
 11
74.257055
 21
28.399045
  0
LINE
  8
型材断面
  6
CONTINUOUS
 10
74.257055
 20
10.399005
 11
74.257055
 21
28.39905
  0
LINE
  8
型材断面
  6
CONTINUOUS
 10
72.66777
 20
11.752535
 11
72.90347
 21
11.988235
  0
LINE
  8
型材断面
  6
CONTINUOUS
 10
74.257055
 20
10.399005
 11
72.785648
 21
11.870413
  0
LINE
  8
型材断面
  6
CONTINUOUS
 10
70.16777
 20
14.252535
 11
70.40347
 21
14.488235
  0
LINE
  8
型材断面
  6
CONTINUOUS
 10
70.40347
 20
14.488235
 11
72.903468
 21
11.988237
  0
LINE
  8
型材断面
  6
CONTINUOUS
 10
70.16777
 20
14.252535
 11
72.667668
 21
11.752637
  0
LINE
  8
型材断面
  6
CONTINUOUS
 10
70.403468
 20
27.98238
 11
70.403468
 21
14.488233
  0
LINE
  8
型材断面
  6
CONTINUOUS
 10
72.66777
 20
45.04556
 11
72.90347
 21
44.80986
  0
LINE
  8
型材断面
  6
CONTINUOUS
 10
74.257055
 20
46.39909
 11
72.785648
 21
44.927683
  0
LINE
  8
型材断面
  6
CONTINUOUS
 10
70.16777
 20
42.54556
 11
70.40347
 21
42.30986
  0
LINE
  8
型材断面
  6
CONTINUOUS
 10
70.40347
 20
42.30986
 11
72.903468
 21
44.809858
  0
LINE
  8
型材断面
  6
CONTINUOUS
 10
70.16777
 20
42.54556
 11
72.667668
 21
45.045457
  0
LINE
  8
型材断面
  6
CONTINUOUS
 10
70.403468
 20
28.815715
 11
70.403468
 21
42.309863
  0
LINE
  8
型材断面
  6
CONTINUOUS
 10
72.903468
 20
11.988237
 11
72.903468
 21
44.809858
  0
LINE
  8
型材断面
  6
CONTINUOUS
 10
53.41534
 20
42.545457
 11
70.167668
 21
42.545457
  0
LINE
  8
型材断面
  6
CONTINUOUS
 10
53.41534
 20
14.252637
 11
70.167668
 21
14.252637
  0
LINE
  8
型材断面
  6
CONTINUOUS
 10
-115.076375
 20
46.39909
 11
-115.076375
 21
28.399045
  0
LINE
  8
型材断面
  6
CONTINUOUS
 10
-115.076375
 20
10.399005
 11
-115.076375
 21
28.39905
  0
LINE
  8
型材断面
  6
CONTINUOUS
 10
-113.48709
 20
11.752535
 11
-113.72279
 21
11.988235
  0
LINE
  8
型材断面
  6
CONTINUOUS
 10
-115.076375
 20
10.399005
 11
-113.604968
 21
11.870413
  0
LINE
  8
型材断面
  6
CONTINUOUS
 10
-110.98709
 20
14.252535
 11
-111.22279
 21
14.488235
  0
LINE
  8
型材断面
  6
CONTINUOUS
 10
-111.22279
 20
14.488235
 11
-113.722787
 21
11.988237
  0
LINE
  8
型材断面
  6
CONTINUOUS
 10
-110.98709
 20
14.252535
 11
-113.486988
 21
11.752637
  0
LINE
  8
型材断面
  6
CONTINUOUS
 10
-111.222787
 20
27.98238
 11
-111.222787
 21
14.488233
  0
LINE
  8
型材断面
  6
CONTINUOUS
 10
-113.48709
 20
45.04556
 11
-113.72279
 21
44.80986
  0
LINE
  8
型材断面
  6
CONTINUOUS
 10
-115.076375
 20
46.39909
 11
-113.604968
 21
44.927683
  0
LINE
  8
型材断面
  6
CONTINUOUS
 10
-110.98709
 20
42.54556
 11
-111.22279
 21
42.30986
  0
LINE
  8
型材断面
  6
CONTINUOUS
 10
-111.22279
 20
42.30986
 11
-113.722787
 21
44.809858
  0
LINE
  8
型材断面
  6
CONTINUOUS
 10
-110.98709
 20
42.54556
 11
-113.486988
 21
45.045457
  0
LINE
  8
型材断面
  6
CONTINUOUS
 10
-111.222787
 20
28.815715
 11
-111.222787
 21
42.309863
  0
LINE
  8
型材断面
  6
CONTINUOUS
 10
-113.722787
 20
11.988237
 11
-113.722787
 21
44.809858
  0
LINE
  8
型材断面
  6
CONTINUOUS
 10
-94.23466
 20
14.252637
 11
-110.986988
 21
14.252637
  0
LINE
  8
型材断面
  6
CONTINUOUS
 10
72.667668
 20
11.752637
 11
-113.486988
 21
11.752637
  0
LINE
  8
型材断面
  6
CONTINUOUS
 10
-94.23466
 20
42.545457
 11
-110.986988
 21
42.545457
  0
LINE
  8
型材断面
  6
CONTINUOUS
 10
72.667668
 20
45.045457
 11
-113.486988
 21
45.045457
  0
TEXT
  7
TextStyle03
  8
文字
  6
CONTINUOUS
 10
-150.125
 20
85.525
  1
は排水穴位置を示す
 40
3.0
 72
     5
 11
-120.125
 21
85.525
  0
TEXT
  7
TextStyle03
  8
文字
  6
CONTINUOUS
 10
61.275
 20
104.525
  1
ＮＳコード：ＮＳＦＫＺ
 40
5.0
 72
     5
 11
122.525
 21
104.525
  0
TEXT
  7
TextStyle03
  8
文字
  6
CONTINUOUS
 10
147.775
 20
-86.1
  1
網入り6.8t
 40
3.0
 72
     5
 11
164.4625
 21
-86.1
  0
TEXT
  7
TextStyle03
  8
文字
  6
CONTINUOUS
 10
154.45
 20
-90.775
  1
×５枚
 40
3.0
 72
     5
 11
164.2
 21
-90.775
  0
TEXT
  7
TextStyle03
  8
文字
  6
CONTINUOUS
 10
-133.05
 20
6.875
  1
アンカーピッチ
 40
3.0
 50
90.0
 72
     5
 11
-133.05
 21
30.125
  0
TEXT
  7
TextStyle03
  8
文字
  6
CONTINUOUS
 10
-98.025
 20
79.8
  1
アンカーピッチ
 40
3.0
 72
     5
 11
-74.775
 21
79.8
  0
TEXT
  7
TextStyle03
  8
文字
  6
CONTINUOUS
 10
-153.85
 20
78.5
  1
アンカー数量　１８ヶ所
 40
3.0
 72
     5
 11
-117.1
 21
78.5
  0
LINE
  8
文字
  6
CONTINUOUS
 10
118.87362
 20
57.038307
 11
118.87362
 21
47.68515
  0
LINE
  8
文字
  6
CONTINUOUS
 10
122.190287
 20
57.038307
 11
122.190287
 21
47.750505
  0
LINE
  8
文字
  6
CONTINUOUS
 10
84.896215
 20
-77.54646
 11
75.54306
 21
-77.54646
  0
LINE
  8
文字
  6
CONTINUOUS
 10
84.896215
 20
-80.86313
 11
75.608412
 21
-80.86313
  0
LINE
  8
文字
  6
CONTINUOUS
 10
166.343563
 20
-54.73316
 11
166.343563
 21
-61.641103
  0
LINE
  8
文字
  6
CONTINUOUS
 10
130.743563
 20
-54.73316
 11
130.743563
 21
-61.641103
  0
TEXT
  7
TextStyle03
  8
文字
  6
CONTINUOUS
 10
61.125
 20
125.25
  1
シリーズ：ＴＦ２ＦＫＬ
 40
5.0
 72
     5
 11
122.375
 21
125.25
  0
TEXT
  7
TextStyle03
  8
文字
  6
CONTINUOUS
 10
61.125
 20
119.625
  1
　　　　　（固定）900×5500タイプ
 40
5.0
 72
     5
 11
153.3125
 21
119.625
  0
TEXT
  7
TextStyle03
  8
文字
  6
CONTINUOUS
 10
61.125
 20
114.0
  1
図面名　：外観姿図
 40
5.0
 72
     5
 11
111.125
 21
114.0
  0
TEXT
  7
TextStyle03
  8
文字
  6
CONTINUOUS
 10
61.125
 20
108.375
  1
　　　　　　
 40
5.0
 72
     5
 11
94.25
 21
108.375
  0
LINE
  8
文字
  6
CONTINUOUS
 10
53.41534
 20
14.252637
 11
53.41534
 21
11.752637
  0
LINE
  8
文字
  6
CONTINUOUS
 10
52.582005
 20
14.252637
 11
52.582005
 21
11.752637
  0
LINE
  8
文字
  6
CONTINUOUS
 10
16.773673
 20
14.252637
 11
16.773673
 21
11.752637
  0
LINE
  8
文字
  6
CONTINUOUS
 10
15.940337
 20
14.252637
 11
15.940337
 21
11.752637
  0
LINE
  8
文字
  6
CONTINUOUS
 10
-19.992993
 20
14.252637
 11
-19.992993
 21
11.752637
  0
LINE
  8
文字
  6
CONTINUOUS
 10
-20.826328
 20
14.252637
 11
-20.826328
 21
11.752637
  0
LINE
  8
文字
  6
CONTINUOUS
 10
-94.23466
 20
14.252637
 11
-94.23466
 21
11.752637
  0
LINE
  8
文字
  6
CONTINUOUS
 10
-93.401325
 20
14.252637
 11
-93.401325
 21
11.752637
  0
LINE
  8
文字
  6
CONTINUOUS
 10
-57.592993
 20
14.252637
 11
-57.592993
 21
11.752637
  0
LINE
  8
文字
  6
CONTINUOUS
 10
-56.759657
 20
14.252637
 11
-56.759657
 21
11.752637
  0
LINE
  8
文字
  6
CONTINUOUS
 10
53.41534
 20
42.545457
 11
53.41534
 21
45.045457
  0
LINE
  8
文字
  6
CONTINUOUS
 10
52.582005
 20
42.545457
 11
52.582005
 21
45.045457
  0
LINE
  8
文字
  6
CONTINUOUS
 10
16.773673
 20
42.545457
 11
16.773673
 21
45.045457
  0
LINE
  8
文字
  6
CONTINUOUS
 10
15.940337
 20
42.545457
 11
15.940337
 21
45.045457
  0
LINE
  8
文字
  6
CONTINUOUS
 10
-19.992993
 20
42.545457
 11
-19.992993
 21
45.045457
  0
LINE
  8
文字
  6
CONTINUOUS
 10
-20.826328
 20
42.545457
 11
-20.826328
 21
45.045457
  0
LINE
  8
文字
  6
CONTINUOUS
 10
-94.23466
 20
42.545457
 11
-94.23466
 21
45.045457
  0
LINE
  8
文字
  6
CONTINUOUS
 10
-93.401325
 20
42.545457
 11
-93.401325
 21
45.045457
  0
LINE
  8
文字
  6
CONTINUOUS
 10
-57.592993
 20
42.545457
 11
-57.592993
 21
45.045457
  0
LINE
  8
文字
  6
CONTINUOUS
 10
-56.759657
 20
42.545457
 11
-56.759657
 21
45.045457
  0
LINE
  8
文字
  6
CONTINUOUS
 10
72.903468
 20
27.98238
 11
70.403468
 21
27.98238
  0
LINE
  8
文字
  6
CONTINUOUS
 10
72.903468
 20
28.815715
 11
70.403468
 21
28.815715
  0
LINE
  8
文字
  6
CONTINUOUS
 10
-113.722787
 20
27.98238
 11
-111.222787
 21
27.98238
  0
LINE
  8
文字
  6
CONTINUOUS
 10
-113.722787
 20
28.815715
 11
-111.222787
 21
28.815715
  0
INSERT
  2
*DIM_0002
  8
寸法
  6
CONTINUOUS
 10
0.0
 20
0.0
  0
INSERT
  2
*DIM_0003
  8
寸法
  6
CONTINUOUS
 10
0.0
 20
0.0
  0
INSERT
  2
*DIM_0004
  8
寸法
  6
CONTINUOUS
 10
0.0
 20
0.0
  0
INSERT
  2
*DIM_0005
  8
寸法
  6
CONTINUOUS
 10
0.0
 20
0.0
  0
INSERT
  2
*DIM_0006
  8
寸法
  6
CONTINUOUS
 10
0.0
 20
0.0
  0
INSERT
  2
*DIM_0007
  8
寸法
  6
CONTINUOUS
 10
0.0
 20
0.0
  0
INSERT
  2
*DIM_0008
  8
寸法
  6
CONTINUOUS
 10
0.0
 20
0.0
  0
INSERT
  2
*DIM_0009
  8
寸法
  6
CONTINUOUS
 10
0.0
 20
0.0
  0
INSERT
  2
*DIM_0010
  8
寸法
  6
CONTINUOUS
 10
0.0
 20
0.0
  0
INSERT
  2
*DIM_0011
  8
寸法
  6
CONTINUOUS
 10
0.0
 20
0.0
  0
INSERT
  2
*DIM_0012
  8
寸法
  6
CONTINUOUS
 10
0.0
 20
0.0
  0
INSERT
  2
*DIM_0013
  8
寸法
  6
CONTINUOUS
 10
0.0
 20
0.0
  0
INSERT
  2
*DIM_0014
  8
寸法
  6
CONTINUOUS
 10
0.0
 20
0.0
  0
INSERT
  2
*DIM_0015
  8
寸法
  6
CONTINUOUS
 10
0.0
 20
0.0
  0
INSERT
  2
*DIM_0016
  8
寸法
  6
CONTINUOUS
 10
0.0
 20
0.0
  0
INSERT
  2
*DIM_0017
  8
寸法
  6
CONTINUOUS
 10
0.0
 20
0.0
  0
LINE
  8
別途部材
  6
CONTINUOUS
 62
    47
 10
118.97362
 20
45.04556
 11
119.040285
 21
45.04556
  0
ARC
  8
別途部材
  6
CONTINUOUS
 62
    47
 10
118.973617
 20
44.945561
 40
0.1
 50
90.0
 51
180.0
  0
LINE
  8
別途部材
  6
CONTINUOUS
 62
    47
 10
118.87362
 20
44.94556
 11
118.87362
 21
44.88904
  0
LINE
  8
別途部材
  6
CONTINUOUS
 62
    47
 10
120.540285
 20
44.88904
 11
119.040285
 21
44.88904
  0
LINE
  8
別途部材
  6
CONTINUOUS
 62
    47
 10
118.97362
 20
11.752637
 11
119.040285
 21
11.752637
  0
ARC
  8
別途部材
  6
CONTINUOUS
 62
    47
 10
118.973617
 20
11.852637
 40
0.1
 50
180.0
 51
270.0
  0
LINE
  8
別途部材
  6
CONTINUOUS
 62
    47
 10
118.87362
 20
11.852637
 11
118.87362
 21
11.90916
  0
LINE
  8
別途部材
  6
CONTINUOUS
 62
    47
 10
120.540285
 20
11.90916
 11
119.040285
 21
11.90916
  0
LINE
  8
別途部材
  6
CONTINUOUS
 62
    47
 10
-113.722787
 20
-77.64646
 11
-113.722787
 21
-77.713127
  0
ARC
  8
別途部材
  6
CONTINUOUS
 62
    47
 10
-113.62279
 20
-77.646457
 40
0.1
 50
90.0
 51
180.0
  0
LINE
  8
別途部材
  6
CONTINUOUS
 62
    47
 10
-113.622787
 20
-77.54646
 11
-113.566265
 21
-77.54646
  0
LINE
  8
別途部材
  6
CONTINUOUS
 62
    47
 10
-113.566265
 20
-79.213127
 11
-113.566265
 21
-77.713127
  0
LINE
  8
別途部材
  6
CONTINUOUS
 62
    47
 10
72.90347
 20
-77.64646
 11
72.90347
 21
-77.713127
  0
ARC
  8
別途部材
  6
CONTINUOUS
 62
    47
 10
72.803468
 20
-77.646457
 40
0.1
 50
0.0
 51
90.0
  0
LINE
  8
別途部材
  6
CONTINUOUS
 62
    47
 10
72.80347
 20
-77.54646
 11
72.746947
 21
-77.54646
  0
LINE
  8
別途部材
  6
CONTINUOUS
 62
    47
 10
72.746947
 20
-79.213127
 11
72.746947
 21
-77.713127
  0
LINE
  8
曲げ物
  6
CONTINUOUS
 10
55.982738
 20
30.278377
 11
52.287425
 21
26.583065
  0
LINE
  8
曲げ物
  6
CONTINUOUS
 10
55.279268
 20
28.742267
 11
53.823538
 21
27.286537
  0
LINE
  8
曲げ物
  6
CONTINUOUS
 10
54.446628
 20
29.574907
 11
52.990898
 21
28.119177
  0
LINE
  8
曲げ物
  6
CONTINUOUS
 10
17.60514
 20
30.278377
 11
13.909828
 21
26.583065
  0
LINE
  8
曲げ物
  6
CONTINUOUS
 10
16.90167
 20
28.742267
 11
15.44594
 21
27.286537
  0
LINE
  8
曲げ物
  6
CONTINUOUS
 10
16.06903
 20
29.574907
 11
14.6133
 21
28.119177
  0
LINE
  8
曲げ物
  6
CONTINUOUS
 10
-18.822117
 20
30.278377
 11
-22.51743
 21
26.583065
  0
LINE
  8
曲げ物
  6
CONTINUOUS
 10
-19.525587
 20
28.742267
 11
-20.981318
 21
27.286537
  0
LINE
  8
曲げ物
  6
CONTINUOUS
 10
-20.358227
 20
29.574907
 11
-21.813958
 21
28.119177
  0
LINE
  8
曲げ物
  6
CONTINUOUS
 10
-55.09672
 20
30.278377
 11
-58.792033
 21
26.583065
  0
LINE
  8
曲げ物
  6
CONTINUOUS
 10
-55.80019
 20
28.742267
 11
-57.25592
 21
27.286537
  0
LINE
  8
曲げ物
  6
CONTINUOUS
 10
-56.63283
 20
29.574907
 11
-58.08856
 21
28.119177
  0
LINE
  8
曲げ物
  6
CONTINUOUS
 10
-91.20532
 20
30.278377
 11
-94.900633
 21
26.583065
  0
LINE
  8
曲げ物
  6
CONTINUOUS
 10
-91.90879
 20
28.742267
 11
-93.36452
 21
27.286537
  0
LINE
  8
曲げ物
  6
CONTINUOUS
 10
-92.74143
 20
29.574907
 11
-94.19716
 21
28.119177
  0
LINE
  8
曲げ物
  6
CONTINUOUS
 10
166.343563
 20
-92.533713
 11
166.343563
 21
-63.20038
  0
LINE
  8
曲げ物
  6
CONTINUOUS
 10
130.743563
 20
-92.533713
 11
130.743563
 21
-63.20038
  0
LINE
  8
曲げ物
  6
CONTINUOUS
 10
166.343563
 20
-63.20038
 11
130.743563
 21
-63.20038
  0
LINE
  8
曲げ物
  6
CONTINUOUS
 10
166.343563
 20
-92.533713
 11
130.743563
 21
-92.533713
  0
CIRCLE
  8
LAYER010
  6
CONTINUOUS
 62
    47
 10
121.69029
 20
46.39909
 40
0.011113
  0
CIRCLE
  8
LAYER010
  6
CONTINUOUS
 62
    47
 10
121.69029
 20
10.399107
 40
0.011113
  0
CIRCLE
  8
LAYER010
  6
CONTINUOUS
 62
    47
 10
-115.076318
 20
-80.36313
 40
0.011113
  0
CIRCLE
  8
LAYER010
  6
CONTINUOUS
 62
    47
 10
74.257
 20
-80.36313
 40
0.011113
  0
ENDSEC
  0
EOF
