  0
SECTION
  2
HEADER
  9
$EXTMIN
 10
-210.0
 20
-148.5
  9
$EXTMAX
 10
210.0
 20
148.5
  9
$PDMODE
 70
    32
  9
$PDSIZE
 40
1.5
  9
$LTSCALE
 40
10.0
  0
ENDSEC
  0
SECTION
  2
TABLES
  0
TABLE
  2
LTYPE
 70
    15
  0
LTYPE
  2
CONTINUOUS
 70
    64
  3
実線
 72
    65
 73
     0
 40
0.0
  0
LTYPE
  2
DASHED
 70
    64
  3
破線A
 72
    65
 73
     2
 40
0.6
 49
0.4
 49
-0.2
  0
LTYPE
  2
DASHEDX2
 70
    64
  3
破線B
 72
    65
 73
     2
 40
1.3
 49
0.9
 49
-0.4
  0
LTYPE
  2
DASHDOT
 70
    64
  3
１点鎖線A
 72
    65
 73
     4
 40
0.5375
 49
0.375
 49
-0.05
 49
0.0625
 49
-0.05
  0
LTYPE
  2
DASHDOTX2
 70
    64
  3
１点鎖線B
 72
    65
 73
     4
 40
1.075
 49
0.75
 49
-0.1
 49
0.125
 49
-0.1
  0
LTYPE
  2
DIVIDE2
 70
    64
  3
２点鎖線A
 72
    65
 73
     6
 40
0.5125
 49
0.3
 49
-0.0375
 49
0.05
 49
-0.0375
 49
0.05
 49
-0.0375
  0
LTYPE
  2
DIVIDE
 70
    64
  3
２点鎖線B
 72
    65
 73
     6
 40
1.05
 49
0.55
 49
-0.1
 49
0.1
 49
-0.1
 49
0.1
 49
-0.1
  0
LTYPE
  2
DOT
 70
    64
  3
点線A
 72
    65
 73
     2
 40
0.1125
 49
0.0625
 49
-0.05
  0
LTYPE
  2
DOTX2
 70
    64
  3
点線B
 72
    65
 73
     2
 40
0.275
 49
0.15
 49
-0.125
  0
LTYPE
  2
CONTINUOUS
 70
    64
  3
実線
 72
    65
 73
     0
 40
0.0
  0
LTYPE
  2
CONTINUOUS
 70
    64
  3
実線
 72
    65
 73
     0
 40
0.0
  0
LTYPE
  2
CONTINUOUS
 70
    64
  3
実線
 72
    65
 73
     0
 40
0.0
  0
LTYPE
  2
CONTINUOUS
 70
    64
  3
実線
 72
    65
 73
     0
 40
0.0
  0
LTYPE
  2
CONTINUOUS
 70
    64
  3
実線
 72
    65
 73
     0
 40
0.0
  0
LTYPE
  2
CONTINUOUS
 70
    64
  3
実線
 72
    65
 73
     0
 40
0.0
  0
ENDTAB
  0
TABLE
  2
LAYER
 70
    35
  0
LAYER
  2
通り芯
 70
     0
 62
    15
  6
CONTINUOUS
  0
LAYER
  2
補助線
 70
     0
 62
    16
  6
DOT
  0
LAYER
  2
躯体
 70
     0
 62
    31
  6
CONTINUOUS
  0
LAYER
  2
型材
 70
     0
 62
    32
  6
CONTINUOUS
  0
LAYER
  2
型材断面
 70
     0
 62
    47
  6
CONTINUOUS
  0
LAYER
  2
ガラス
 70
     0
 62
    48
  6
CONTINUOUS
  0
LAYER
  2
ゴム等
 70
     0
 62
    63
  6
CONTINUOUS
  0
LAYER
  2
ボルト／ビス
 70
     0
 62
    64
  6
CONTINUOUS
  0
LAYER
  2
文字
 70
     0
 62
    79
  6
CONTINUOUS
  0
LAYER
  2
寸法
 70
     0
 62
    80
  6
CONTINUOUS
  0
LAYER
  2
ﾊｯﾁﾝｸﾞ
 70
     0
 62
    95
  6
CONTINUOUS
  0
LAYER
  2
別途部材
 70
     0
 62
    96
  6
CONTINUOUS
  0
LAYER
  2
曲げ物
 70
     0
 62
   111
  6
CONTINUOUS
  0
LAYER
  2
鉄骨等
 70
     0
 62
   112
  6
CONTINUOUS
  0
LAYER
  2
St
 70
     0
 62
   127
  6
CONTINUOUS
  0
LAYER
  2
その他部品等
 70
     0
 62
   128
  6
CONTINUOUS
  0
LAYER
  2
ｶﾞｽｹｯﾄ
 70
     0
 62
   143
  6
CONTINUOUS
  0
LAYER
  2
ｽｹｯﾁ
 70
     0
 62
    14
  6
CONTINUOUS
  0
LAYER
  2
0
 70
     0
 62
    17
  6
CONTINUOUS
  0
LAYER
  2
1
 70
     0
 62
    30
  6
CONTINUOUS
  0
LAYER
  2
4
 70
     0
 62
    33
  6
CONTINUOUS
  0
LAYER
  2
ﾚｲﾔ3
 70
     0
 62
    46
  6
CONTINUOUS
  0
LAYER
  2
外形線
 70
     0
 62
    49
  6
CONTINUOUS
  0
LAYER
  2
部品
 70
     0
 62
    14
  6
CONTINUOUS
  0
LAYER
  2
サッシ芯
 70
     0
 62
    17
  6
DASHDOTX2
  0
LAYER
  2
寸法線
 70
     0
 62
    62
  6
CONTINUOUS
  0
LAYER
  2
姿図外形線
 70
     0
 62
    65
  6
CONTINUOUS
  0
LAYER
  2
姿補助線
 70
     0
 62
    30
  6
CONTINUOUS
  0
LAYER
  2
透視線
 70
     0
 62
    78
  6
DOT
  0
LAYER
  2
用紙
 70
     0
 62
    81
  6
CONTINUOUS
  0
LAYER
  2
実線図枠
 70
     0
 62
    94
  6
CONTINUOUS
  0
LAYER
  2
補助図枠
 70
     0
 62
    97
  6
CONTINUOUS
  0
LAYER
  2
建具記号
 70
     0
 62
   110
  6
CONTINUOUS
  0
LAYER
  2
補助文字
 70
     0
 62
   113
  6
CONTINUOUS
  0
LAYER
  2
LAYER010
 70
     0
 62
    11
  6
CONTINUOUS
  0
ENDTAB
  0
TABLE
  2
STYLE
 70
    10
  0
STYLE
  2
STANDARD
 70
     0
 40
1.0
 41
1.0
 42
1.0
 50
0.0
 71
     0
  3
TXT
  4
BIGFONT
  0
STYLE
  2
TATE
 70
     4
 40
1.0
 41
1.0
 42
1.0
 50
0.0
 71
     0
  3
TXT
  4
BIGFONT
  0
STYLE
  2
TextStyle03
 70
     0
 40
1.0
 41
1.0
 42
1.0
 50
0.0
 71
     0
  3
MONOTXT
  4
BIGFONT
  0
STYLE
  2
TextStyle04
 70
     0
 40
1.0
 41
1.0
 42
1.0
 50
0.0
 71
     0
  3
MONOTXT
  4
BIGFONT
  0
STYLE
  2
TextStyle05
 70
     0
 40
1.0
 41
1.0
 42
1.0
 50
0.0
 71
     0
  3
MONOTXT
  4
BIGFONT
  0
STYLE
  2
TextStyle06
 70
     0
 40
1.0
 41
1.0
 42
1.0
 50
0.0
 71
     0
  3
MONOTXT
  4
BIGFONT
  0
STYLE
  2
TextStyle07
 70
     0
 40
1.0
 41
1.0
 42
1.0
 50
0.0
 71
     0
  3
MONOTXT
  4
BIGFONT
  0
STYLE
  2
TextStyle08
 70
     0
 40
1.0
 41
1.0
 42
1.0
 50
0.0
 71
     0
  3
MONOTXT
  4
BIGFONT
  0
STYLE
  2
TextStyle09
 70
     0
 40
1.0
 41
1.0
 42
1.0
 50
0.0
 71
     0
  3
MONOTXT
  4
BIGFONT
  0
STYLE
  2
TextStyle10
 70
     0
 40
1.0
 41
1.0
 42
1.0
 50
0.0
 71
     0
  3
MONOTXT
  4
BIGFONT
  0
ENDTAB
  0
ENDSEC
  0
SECTION
  2
BLOCKS
  0
BLOCK
  2
*GRP_0001
 70
    65
 10
0.0
 20
0.0
  0
LINE
  8
型材断面
  6
CONTINUOUS
 10
195.0
 20
133.5
 11
195.0
 21
-133.5
  0
LINE
  8
型材断面
  6
CONTINUOUS
 10
195.0
 20
-133.5
 11
-185.0
 21
-133.5
  0
LINE
  8
型材断面
  6
CONTINUOUS
 10
-185.0
 20
-133.5
 11
-185.0
 21
133.5
  0
LINE
  8
型材断面
  6
CONTINUOUS
 10
195.0
 20
133.5
 11
-185.0
 21
133.5
  0
LINE
  8
型材断面
  6
CONTINUOUS
 10
145.0
 20
-133.5
 11
145.0
 21
-118.5
  0
LINE
  8
型材断面
  6
CONTINUOUS
 10
195.0
 20
-118.5
 11
145.0
 21
-118.5
  0
ENDBLK
  0
BLOCK
  2
*DIM_0002
 70
    65
 10
0.0
 20
0.0
  0
LINE
  8
寸法
  6
BYBLOCK
 62
     0
 10
-128.742993
 20
-22.207025
 11
-128.742993
 21
-22.536362
  0
LINE
  8
寸法
  6
BYBLOCK
 62
     0
 10
71.257007
 20
-22.207025
 11
71.257007
 21
-22.536362
  0
LINE
  8
寸法
  6
BYBLOCK
 62
     0
 10
-128.742993
 20
-22.536362
 11
71.257007
 21
-22.536362
  0
POINT
  8
寸法
 62
     0
 10
-128.742993
 20
-22.536362
  0
POINT
  8
寸法
 62
     0
 10
71.257007
 20
-22.536362
  0
TEXT
  7
TextStyle03
  8
寸法
  6
CONTINUOUS
 62
     0
 10
-40.46875
 20
-22.175
  1
呼称寸法　6000
 40
3.0
 72
     5
 11
-17.03125
 21
-22.175
  0
ENDBLK
  0
BLOCK
  2
*DIM_0003
 70
    65
 10
0.0
 20
0.0
  0
LINE
  8
寸法
  6
BYBLOCK
 62
     0
 10
-112.076325
 20
9.768917
 11
-112.076325
 21
4.76842
  0
LINE
  8
寸法
  6
BYBLOCK
 62
     0
 10
-28.742993
 20
9.76892
 11
-28.742993
 21
4.76842
  0
LINE
  8
寸法
  6
BYBLOCK
 62
     0
 10
-112.076325
 20
4.76842
 11
-28.742993
 21
4.76842
  0
POINT
  8
寸法
 62
     0
 10
-112.076325
 20
4.76842
  0
POINT
  8
寸法
 62
     0
 10
-28.742993
 20
4.76842
  0
TEXT
  7
TextStyle03
  8
寸法
  6
CONTINUOUS
 62
     0
 10
-73.70625
 20
5.125
  1
2500
 40
3.0
 72
     5
 11
-67.14375
 21
5.125
  0
ENDBLK
  0
BLOCK
  2
*DIM_0004
 70
    65
 10
0.0
 20
0.0
  0
LINE
  8
寸法
  6
BYBLOCK
 62
     0
 10
54.59034
 20
9.768917
 11
54.59034
 21
4.76842
  0
LINE
  8
寸法
  6
BYBLOCK
 62
     0
 10
-28.742993
 20
4.76842
 11
54.59034
 21
4.76842
  0
POINT
  8
寸法
 62
     0
 10
54.59034
 20
4.76842
  0
TEXT
  7
TextStyle03
  8
寸法
  6
CONTINUOUS
 62
     0
 10
9.61875
 20
5.125
  1
2500
 40
3.0
 72
     5
 11
16.18125
 21
5.125
  0
ENDBLK
  0
BLOCK
  2
*DIM_0005
 70
    65
 10
0.0
 20
0.0
  0
LINE
  8
寸法
  6
BYBLOCK
 62
     0
 10
74.257052
 20
-78.991382
 11
74.257052
 21
-22.536362
  0
LINE
  8
寸法
  6
BYBLOCK
 62
     0
 10
71.257007
 20
-22.536362
 11
74.257052
 21
-22.536362
  0
POINT
  8
寸法
 62
     0
 10
71.257007
 20
-22.536362
  0
POINT
  8
寸法
 62
     0
 10
74.257052
 20
-22.536362
  0
TEXT
  7
TextStyle03
  8
寸法
  6
CONTINUOUS
 62
     0
 10
71.13125
 20
-22.15
  1
90
 40
3.0
 72
     5
 11
74.31875
 21
-22.15
  0
ENDBLK
  0
BLOCK
  2
*DIM_0006
 70
    65
 10
0.0
 20
0.0
  0
LINE
  8
寸法
  6
BYBLOCK
 62
     0
 10
-131.743037
 20
-78.991382
 11
-131.743037
 21
-22.536362
  0
LINE
  8
寸法
  6
BYBLOCK
 62
     0
 10
-128.742993
 20
-22.536362
 11
-131.743037
 21
-22.536362
  0
POINT
  8
寸法
 62
     0
 10
-128.742993
 20
-22.536362
  0
POINT
  8
寸法
 62
     0
 10
-131.743037
 20
-22.536362
  0
TEXT
  7
TextStyle03
  8
寸法
  6
CONTINUOUS
 62
     0
 10
-131.84375
 20
-22.175
  1
90
 40
3.0
 72
     5
 11
-128.65625
 21
-22.175
  0
ENDBLK
  0
BLOCK
  2
*DIM_0007
 70
    65
 10
0.0
 20
0.0
  0
LINE
  8
寸法
  6
BYBLOCK
 62
     0
 10
167.343563
 20
-63.20038
 11
175.401852
 21
-63.20038
  0
LINE
  8
寸法
  6
BYBLOCK
 62
     0
 10
167.343563
 20
-92.533713
 11
175.401852
 21
-92.533713
  0
LINE
  8
寸法
  6
BYBLOCK
 62
     0
 10
175.401852
 20
-63.20038
 11
175.401852
 21
-92.533713
  0
POINT
  8
寸法
 62
     0
 10
175.401852
 20
-63.20038
  0
POINT
  8
寸法
 62
     0
 10
175.401852
 20
-92.533713
  0
TEXT
  7
TextStyle03
  8
寸法
  6
CONTINUOUS
 62
     0
 10
175.025
 20
-80.3125
  1
880
 40
3.0
 50
90.0
 72
     5
 11
175.025
 21
-75.4375
  0
ENDBLK
  0
BLOCK
  2
*DIM_0008
 70
    65
 10
0.0
 20
0.0
  0
LINE
  8
寸法
  6
BYBLOCK
 62
     0
 10
-131.742993
 20
38.399048
 11
-145.03583
 21
38.399048
  0
LINE
  8
寸法
  6
BYBLOCK
 62
     0
 10
-131.742993
 20
18.399048
 11
-145.03583
 21
18.399048
  0
LINE
  8
寸法
  6
BYBLOCK
 62
     0
 10
-145.03583
 20
38.399048
 11
-145.03583
 21
18.399048
  0
POINT
  8
寸法
 62
     0
 10
-145.03583
 20
38.399048
  0
POINT
  8
寸法
 62
     0
 10
-145.03583
 20
18.399048
  0
TEXT
  7
TextStyle03
  8
寸法
  6
CONTINUOUS
 62
     0
 10
-145.375
 20
25.9625
  1
600
 40
3.0
 50
90.0
 72
     5
 11
-145.375
 21
30.8375
  0
ENDBLK
  0
BLOCK
  2
*DIM_0009
 70
    65
 10
0.0
 20
0.0
  0
LINE
  8
寸法
  6
BYBLOCK
 62
     0
 10
-122.076325
 20
46.399048
 11
-122.076325
 21
75.50712
  0
LINE
  8
寸法
  6
BYBLOCK
 62
     0
 10
-98.742993
 20
46.399048
 11
-98.742993
 21
75.50712
  0
LINE
  8
寸法
  6
BYBLOCK
 62
     0
 10
-122.076325
 20
75.50712
 11
-98.742993
 21
75.50712
  0
POINT
  8
寸法
 62
     0
 10
-122.076325
 20
75.50712
  0
POINT
  8
寸法
 62
     0
 10
-98.742993
 20
75.50712
  0
TEXT
  7
TextStyle03
  8
寸法
  6
CONTINUOUS
 62
     0
 10
-112.8625
 20
75.875
  1
700
 40
3.0
 72
     5
 11
-107.9875
 21
75.875
  0
ENDBLK
  0
BLOCK
  2
*DIM_0010
 70
    65
 10
0.0
 20
0.0
  0
LINE
  8
寸法
  6
BYBLOCK
 62
     0
 10
-75.40966
 20
46.399048
 11
-75.40966
 21
75.50712
  0
LINE
  8
寸法
  6
BYBLOCK
 62
     0
 10
-98.742993
 20
75.50712
 11
-75.40966
 21
75.50712
  0
POINT
  8
寸法
 62
     0
 10
-75.40966
 20
75.50712
  0
TEXT
  7
TextStyle03
  8
寸法
  6
CONTINUOUS
 62
     0
 10
-89.5375
 20
75.875
  1
700
 40
3.0
 72
     5
 11
-84.6625
 21
75.875
  0
ENDBLK
  0
BLOCK
  2
*DIM_0011
 70
    65
 10
0.0
 20
0.0
  0
LINE
  8
寸法
  6
BYBLOCK
 62
     0
 10
-52.076325
 20
46.399048
 11
-52.076325
 21
75.50712
  0
LINE
  8
寸法
  6
BYBLOCK
 62
     0
 10
-75.40966
 20
75.50712
 11
-52.076325
 21
75.50712
  0
POINT
  8
寸法
 62
     0
 10
-52.076325
 20
75.50712
  0
TEXT
  7
TextStyle03
  8
寸法
  6
CONTINUOUS
 62
     0
 10
-66.1875
 20
75.875
  1
700
 40
3.0
 72
     5
 11
-61.3125
 21
75.875
  0
ENDBLK
  0
BLOCK
  2
*DIM_0012
 70
    65
 10
0.0
 20
0.0
  0
LINE
  8
寸法
  6
BYBLOCK
 62
     0
 10
-28.742993
 20
46.399048
 11
-28.742993
 21
75.50712
  0
LINE
  8
寸法
  6
BYBLOCK
 62
     0
 10
-52.076325
 20
75.50712
 11
-28.742993
 21
75.50712
  0
POINT
  8
寸法
 62
     0
 10
-28.742993
 20
75.50712
  0
TEXT
  7
TextStyle03
  8
寸法
  6
CONTINUOUS
 62
     0
 10
-42.8625
 20
75.875
  1
700
 40
3.0
 72
     5
 11
-37.9875
 21
75.875
  0
ENDBLK
  0
BLOCK
  2
*DIM_0013
 70
    65
 10
0.0
 20
0.0
  0
LINE
  8
寸法
  6
BYBLOCK
 62
     0
 10
-5.40966
 20
46.399048
 11
-5.40966
 21
75.50712
  0
LINE
  8
寸法
  6
BYBLOCK
 62
     0
 10
-28.742993
 20
75.50712
 11
-5.40966
 21
75.50712
  0
POINT
  8
寸法
 62
     0
 10
-5.40966
 20
75.50712
  0
TEXT
  7
TextStyle03
  8
寸法
  6
CONTINUOUS
 62
     0
 10
-19.5375
 20
75.875
  1
700
 40
3.0
 72
     5
 11
-14.6625
 21
75.875
  0
ENDBLK
  0
BLOCK
  2
*DIM_0014
 70
    65
 10
0.0
 20
0.0
  0
LINE
  8
寸法
  6
BYBLOCK
 62
     0
 10
17.923675
 20
46.399048
 11
17.923675
 21
75.50712
  0
LINE
  8
寸法
  6
BYBLOCK
 62
     0
 10
-5.40966
 20
75.50712
 11
17.923675
 21
75.50712
  0
POINT
  8
寸法
 62
     0
 10
17.923675
 20
75.50712
  0
TEXT
  7
TextStyle03
  8
寸法
  6
CONTINUOUS
 62
     0
 10
3.8125
 20
75.875
  1
700
 40
3.0
 72
     5
 11
8.6875
 21
75.875
  0
ENDBLK
  0
BLOCK
  2
*DIM_0015
 70
    65
 10
0.0
 20
0.0
  0
LINE
  8
寸法
  6
BYBLOCK
 62
     0
 10
41.257007
 20
46.399048
 11
41.257007
 21
75.50712
  0
LINE
  8
寸法
  6
BYBLOCK
 62
     0
 10
17.923675
 20
75.50712
 11
41.257007
 21
75.50712
  0
POINT
  8
寸法
 62
     0
 10
41.257007
 20
75.50712
  0
TEXT
  7
TextStyle03
  8
寸法
  6
CONTINUOUS
 62
     0
 10
27.1375
 20
75.875
  1
700
 40
3.0
 72
     5
 11
32.0125
 21
75.875
  0
ENDBLK
  0
BLOCK
  2
*DIM_0016
 70
    65
 10
0.0
 20
0.0
  0
LINE
  8
寸法
  6
BYBLOCK
 62
     0
 10
64.59034
 20
46.399048
 11
64.59034
 21
75.50712
  0
LINE
  8
寸法
  6
BYBLOCK
 62
     0
 10
41.257007
 20
75.50712
 11
64.59034
 21
75.50712
  0
POINT
  8
寸法
 62
     0
 10
64.59034
 20
75.50712
  0
TEXT
  7
TextStyle03
  8
寸法
  6
CONTINUOUS
 62
     0
 10
50.4625
 20
75.875
  1
700
 40
3.0
 72
     5
 11
55.3375
 21
75.875
  0
ENDBLK
  0
BLOCK
  2
*DIM_0017
 70
    65
 10
0.0
 20
0.0
  0
LINE
  8
寸法
  6
CONTINUOUS
 10
118.30323
 20
57.038307
 11
121.619897
 21
57.038307
  0
POINT
  8
寸法
 10
118.30323
 20
57.038307
  0
POINT
  8
寸法
 10
121.619897
 20
57.038307
  0
TEXT
  7
TextStyle03
  8
寸法
  6
CONTINUOUS
 10
116.49375
 20
57.225
  1
99.5
 40
3.0
 72
     5
 11
123.05625
 21
57.225
  0
ENDBLK
  0
BLOCK
  2
*DIM_0018
 70
    65
 10
0.0
 20
0.0
  0
LINE
  8
寸法
  6
CONTINUOUS
 10
84.896218
 20
-78.101962
 11
84.896218
 21
-81.41863
  0
POINT
  8
寸法
 10
84.896218
 20
-78.101962
  0
POINT
  8
寸法
 10
84.896218
 20
-81.41863
  0
TEXT
  7
TextStyle03
  8
寸法
  6
CONTINUOUS
 10
88.05
 20
-83.00625
  1
99.5
 40
3.0
 50
90.0
 72
     5
 11
88.05
 21
-76.44375
  0
ENDBLK
  0
BLOCK
  2
*DIM_0019
 70
    65
 10
0.0
 20
0.0
  0
LINE
  8
寸法
  6
CONTINUOUS
 10
166.343563
 20
-54.216277
 11
134.093563
 21
-54.216277
  0
POINT
  8
寸法
 10
166.343563
 20
-54.216277
  0
POINT
  8
寸法
 10
134.093563
 20
-54.216277
  0
TEXT
  7
TextStyle03
  8
寸法
  6
CONTINUOUS
 10
146.075
 20
-53.85
  1
967.5
 40
3.0
 72
     5
 11
154.325
 21
-53.85
  0
ENDBLK
  0
ENDSEC
  0
SECTION
  2
ENTITIES
  0
POLYLINE
  8
通り芯
  6
CONTINUOUS
 66
     1
 70
     1
  0
VERTEX
  8
通り芯
 10
-210.0
 20
-148.5
  0
VERTEX
  8
通り芯
 10
210.0
 20
-148.5
  0
VERTEX
  8
通り芯
 10
210.0
 20
148.5
  0
VERTEX
  8
通り芯
 10
-210.0
 20
148.5
  0
SEQEND
  0
INSERT
  2
*GRP_0001
  8
型材断面
  6
CONTINUOUS
 10
0.0
 20
0.0
  0
LINE
  8
型材断面
  6
DASHDOT
 10
-128.742993
 20
-87.251428
 11
-128.742993
 21
43.399048
  0
LINE
  8
型材断面
  6
DASHDOT
 10
-28.742993
 20
-87.251428
 11
-28.742993
 21
43.399048
  0
LINE
  8
型材断面
  6
DASHDOT
 10
71.257007
 20
-87.251428
 11
71.257007
 21
43.399048
  0
LINE
  8
型材断面
  6
CONTINUOUS
 10
-112.076325
 20
46.029177
 11
-113.571955
 21
48.619685
  0
LINE
  8
型材断面
  6
CONTINUOUS
 10
-112.076325
 20
46.029177
 11
-110.580695
 21
48.619685
  0
LINE
  8
型材断面
  6
CONTINUOUS
 10
-110.580695
 20
48.619685
 11
-113.571955
 21
48.619685
  0
LINE
  8
型材断面
  6
CONTINUOUS
 10
-169.5952
 20
87.906395
 11
-171.09083
 21
85.315887
  0
LINE
  8
型材断面
  6
CONTINUOUS
 10
-169.5952
 20
87.906395
 11
-168.09957
 21
85.315887
  0
LINE
  8
型材断面
  6
CONTINUOUS
 10
-168.09957
 20
85.315887
 11
-171.09083
 21
85.315887
  0
LINE
  8
型材断面
  6
CONTINUOUS
 10
-175.617788
 20
84.377292
 11
-129.37601
 21
84.377292
  0
LINE
  8
型材断面
  6
CONTINUOUS
 10
-131.373123
 20
28.399048
 11
-133.96363
 21
29.894678
  0
LINE
  8
型材断面
  6
CONTINUOUS
 10
-131.373123
 20
28.399048
 11
-133.96363
 21
26.903418
  0
LINE
  8
型材断面
  6
CONTINUOUS
 10
-133.96363
 20
26.903418
 11
-133.96363
 21
29.894678
  0
LINE
  8
型材断面
  6
CONTINUOUS
 10
-112.076325
 20
10.768917
 11
-113.571955
 21
8.17841
  0
LINE
  8
型材断面
  6
CONTINUOUS
 10
-112.076325
 20
10.768917
 11
-110.580695
 21
8.17841
  0
LINE
  8
型材断面
  6
CONTINUOUS
 10
-110.580695
 20
8.17841
 11
-113.571955
 21
8.17841
  0
LINE
  8
型材断面
  6
CONTINUOUS
 10
54.59034
 20
46.029177
 11
56.08597
 21
48.619685
  0
LINE
  8
型材断面
  6
CONTINUOUS
 10
54.59034
 20
46.029177
 11
53.09471
 21
48.619685
  0
LINE
  8
型材断面
  6
CONTINUOUS
 10
53.09471
 20
48.619685
 11
56.08597
 21
48.619685
  0
LINE
  8
型材断面
  6
CONTINUOUS
 10
54.59034
 20
10.768917
 11
56.08597
 21
8.17841
  0
LINE
  8
型材断面
  6
CONTINUOUS
 10
54.59034
 20
10.768917
 11
53.09471
 21
8.17841
  0
LINE
  8
型材断面
  6
CONTINUOUS
 10
53.09471
 20
8.17841
 11
56.08597
 21
8.17841
  0
LINE
  8
型材断面
  6
CONTINUOUS
 10
-28.742993
 20
46.029175
 11
-27.247362
 21
48.619683
  0
LINE
  8
型材断面
  6
CONTINUOUS
 10
-28.742993
 20
46.029175
 11
-30.238623
 21
48.619683
  0
LINE
  8
型材断面
  6
CONTINUOUS
 10
-30.238623
 20
48.619683
 11
-27.247362
 21
48.619683
  0
LINE
  8
型材断面
  6
CONTINUOUS
 10
-28.742993
 20
10.768915
 11
-27.247362
 21
8.178407
  0
LINE
  8
型材断面
  6
CONTINUOUS
 10
-28.742993
 20
10.768915
 11
-30.238623
 21
8.178407
  0
LINE
  8
型材断面
  6
CONTINUOUS
 10
-30.238623
 20
8.178407
 11
-27.247362
 21
8.178407
  0
LINE
  8
型材断面
  6
CONTINUOUS
 10
73.887138
 20
28.399048
 11
76.477645
 21
29.894678
  0
LINE
  8
型材断面
  6
CONTINUOUS
 10
73.887138
 20
28.399048
 11
76.477645
 21
26.903418
  0
LINE
  8
型材断面
  6
CONTINUOUS
 10
76.477645
 20
26.903418
 11
76.477645
 21
29.894678
  0
LINE
  8
型材断面
  6
CONTINUOUS
 10
-175.617788
 20
77.575798
 11
-129.37601
 21
77.575798
  0
LINE
  8
型材断面
  6
DASHDOT
 10
-128.742993
 20
28.399048
 11
71.257007
 21
28.399048
  0
LINE
  8
型材断面
  6
CONTINUOUS
 10
-131.74304
 20
10.399005
 11
-28.742993
 21
10.399005
  0
LINE
  8
型材断面
  6
CONTINUOUS
 10
-131.74304
 20
46.39909
 11
-28.742993
 21
46.39909
  0
LINE
  8
型材断面
  6
CONTINUOUS
 10
74.257055
 20
46.39909
 11
74.257055
 21
28.399045
  0
LINE
  8
型材断面
  6
CONTINUOUS
 10
74.257055
 20
46.39909
 11
-28.742993
 21
46.39909
  0
LINE
  8
型材断面
  6
CONTINUOUS
 10
74.257055
 20
10.399005
 11
74.257055
 21
28.39905
  0
LINE
  8
型材断面
  6
CONTINUOUS
 10
74.257055
 20
10.399005
 11
-28.742993
 21
10.399005
  0
CIRCLE
  8
型材断面
  6
CONTINUOUS
 62
    47
 10
121.1199
 20
46.39909
 40
0.011113
  0
LINE
  8
型材断面
  6
CONTINUOUS
 62
    47
 10
121.619897
 20
45.8991
 11
121.619897
 21
46.39909
  0
LINE
  8
型材断面
  6
CONTINUOUS
 62
    47
 10
121.619897
 20
46.39909
 11
121.1199
 21
46.39909
  0
LINE
  8
型材断面
  6
CONTINUOUS
 62
    47
 10
121.1199
 20
46.39909
 11
120.62272
 21
43.46576
  0
LINE
  8
型材断面
  6
CONTINUOUS
 62
    47
 10
121.619897
 20
45.8991
 11
122.119897
 21
45.8991
  0
LINE
  8
型材断面
  6
CONTINUOUS
 62
    47
 10
120.62272
 20
43.46576
 11
119.969895
 21
43.46576
  0
CIRCLE
  8
型材断面
  6
CONTINUOUS
 62
    47
 10
121.1199
 20
10.399107
 40
0.011113
  0
LINE
  8
型材断面
  6
CONTINUOUS
 62
    47
 10
121.619897
 20
10.8991
 11
121.619897
 21
10.399107
  0
LINE
  8
型材断面
  6
CONTINUOUS
 62
    47
 10
121.619897
 20
10.399107
 11
121.1199
 21
10.399107
  0
LINE
  8
型材断面
  6
CONTINUOUS
 62
    47
 10
121.1199
 20
10.399107
 11
120.62272
 21
13.33244
  0
LINE
  8
型材断面
  6
CONTINUOUS
 62
    47
 10
121.619897
 20
10.8991
 11
122.119897
 21
10.8991
  0
LINE
  8
型材断面
  6
CONTINUOUS
 62
    47
 10
120.62272
 20
13.33244
 11
119.969895
 21
13.33244
  0
LINE
  8
型材断面
  6
DOT
 10
129.095908
 20
28.3991
 11
118.30323
 21
28.3991
  0
LINE
  8
型材断面
  6
CONTINUOUS
 62
    47
 10
118.469895
 20
45.04556
 11
118.469895
 21
28.3991
  0
LINE
  8
型材断面
  6
CONTINUOUS
 62
    47
 10
118.30323
 20
44.88904
 11
118.30323
 21
28.3991
  0
LINE
  8
型材断面
  6
CONTINUOUS
 62
    47
 10
119.969895
 20
44.88904
 11
119.969895
 21
28.3991
  0
LINE
  8
型材断面
  6
CONTINUOUS
 10
120.62272
 20
43.465812
 11
120.62272
 21
28.3991
  0
LINE
  8
型材断面
  6
CONTINUOUS
 10
121.1199
 20
46.399145
 11
121.1199
 21
28.3991
  0
LINE
  8
型材断面
  6
CONTINUOUS
 62
    47
 10
121.619897
 20
46.399145
 11
121.619897
 21
28.3991
  0
LINE
  8
型材断面
  6
CONTINUOUS
 10
122.119897
 20
45.899155
 11
122.119897
 21
28.3991
  0
LINE
  8
型材断面
  6
CONTINUOUS
 10
122.119897
 20
10.899045
 11
122.119897
 21
28.3991
  0
LINE
  8
型材断面
  6
CONTINUOUS
 10
121.1199
 20
10.399055
 11
121.1199
 21
28.3991
  0
LINE
  8
型材断面
  6
CONTINUOUS
 62
    47
 10
121.619897
 20
10.399055
 11
121.619897
 21
28.3991
  0
LINE
  8
型材断面
  6
CONTINUOUS
 10
120.62272
 20
13.332385
 11
120.62272
 21
28.3991
  0
LINE
  8
型材断面
  6
CONTINUOUS
 62
    47
 10
119.969895
 20
11.90916
 11
119.969895
 21
28.3991
  0
LINE
  8
型材断面
  6
CONTINUOUS
 62
    47
 10
118.469895
 20
11.752637
 11
118.469895
 21
28.3991
  0
LINE
  8
型材断面
  6
CONTINUOUS
 62
    47
 10
118.30323
 20
11.90916
 11
118.30323
 21
28.3991
  0
CIRCLE
  8
型材断面
  6
CONTINUOUS
 62
    47
 10
-131.742983
 20
-80.918632
 40
0.011113
  0
LINE
  8
型材断面
  6
CONTINUOUS
 62
    47
 10
-131.242993
 20
-81.41863
 11
-131.742983
 21
-81.41863
  0
LINE
  8
型材断面
  6
CONTINUOUS
 62
    47
 10
-131.742983
 20
-81.41863
 11
-131.742983
 21
-80.918632
  0
LINE
  8
型材断面
  6
CONTINUOUS
 62
    47
 10
-131.742983
 20
-80.918632
 11
-128.809653
 21
-80.421453
  0
LINE
  8
型材断面
  6
CONTINUOUS
 62
    47
 10
-131.242993
 20
-81.41863
 11
-131.242993
 21
-81.91863
  0
LINE
  8
型材断面
  6
CONTINUOUS
 62
    47
 10
-128.809653
 20
-80.421453
 11
-128.809653
 21
-79.768628
  0
CIRCLE
  8
型材断面
  6
CONTINUOUS
 62
    47
 10
74.257
 20
-80.918632
 40
0.011113
  0
LINE
  8
型材断面
  6
CONTINUOUS
 62
    47
 10
73.757007
 20
-81.41863
 11
74.257
 21
-81.41863
  0
LINE
  8
型材断面
  6
CONTINUOUS
 62
    47
 10
74.257
 20
-81.41863
 11
74.257
 21
-80.918632
  0
LINE
  8
型材断面
  6
CONTINUOUS
 62
    47
 10
74.257
 20
-80.918632
 11
71.323668
 21
-80.421453
  0
LINE
  8
型材断面
  6
CONTINUOUS
 62
    47
 10
73.757007
 20
-81.41863
 11
73.757007
 21
-81.91863
  0
LINE
  8
型材断面
  6
CONTINUOUS
 62
    47
 10
71.323668
 20
-80.421453
 11
71.323668
 21
-79.768628
  0
LINE
  8
型材断面
  6
CONTINUOUS
 10
-128.809705
 20
-80.421453
 11
-28.742993
 21
-80.421453
  0
LINE
  8
型材断面
  6
CONTINUOUS
 62
    47
 10
-130.232932
 20
-78.101962
 11
-28.742993
 21
-78.101962
  0
LINE
  8
型材断面
  6
CONTINUOUS
 62
    47
 10
-130.389452
 20
-78.268628
 11
-28.742993
 21
-78.268628
  0
LINE
  8
型材断面
  6
CONTINUOUS
 62
    47
 10
-130.232932
 20
-79.768628
 11
-28.742993
 21
-79.768628
  0
LINE
  8
型材断面
  6
CONTINUOUS
 10
-131.243048
 20
-81.91863
 11
-28.742993
 21
-81.91863
  0
LINE
  8
型材断面
  6
CONTINUOUS
 10
-131.743037
 20
-80.918632
 11
-28.742993
 21
-80.918632
  0
LINE
  8
型材断面
  6
CONTINUOUS
 62
    47
 10
-131.743037
 20
-81.41863
 11
-28.742993
 21
-81.41863
  0
LINE
  8
型材断面
  6
CONTINUOUS
 62
    47
 10
72.746947
 20
-79.768628
 11
-28.742993
 21
-79.768628
  0
LINE
  8
型材断面
  6
CONTINUOUS
 62
    47
 10
72.746947
 20
-78.101962
 11
-28.742993
 21
-78.101962
  0
LINE
  8
型材断面
  6
CONTINUOUS
 62
    47
 10
72.90347
 20
-78.268628
 11
-28.742993
 21
-78.268628
  0
LINE
  8
型材断面
  6
CONTINUOUS
 10
71.323723
 20
-80.421453
 11
-28.742993
 21
-80.421453
  0
LINE
  8
型材断面
  6
CONTINUOUS
 10
74.257052
 20
-80.918632
 11
-28.742993
 21
-80.918632
  0
LINE
  8
型材断面
  6
CONTINUOUS
 10
73.757063
 20
-81.91863
 11
-28.742993
 21
-81.91863
  0
LINE
  8
型材断面
  6
CONTINUOUS
 62
    47
 10
74.257052
 20
-81.41863
 11
-28.742993
 21
-81.41863
  0
LINE
  8
型材断面
  6
DASHDOT
 10
129.095908
 20
13.3991
 11
-128.742993
 21
13.3991
  0
LINE
  8
型材断面
  6
DASHDOT
 10
129.095908
 20
43.3991
 11
-128.742993
 21
43.3991
  0
LINE
  8
型材断面
  6
DASHDOT
 10
-95.576325
 20
13.399048
 11
-95.576325
 21
43.399048
  0
LINE
  8
型材断面
  6
DASHDOT
 10
-62.159657
 20
13.399048
 11
-62.159657
 21
43.399048
  0
LINE
  8
型材断面
  6
DASHDOT
 10
38.09034
 20
13.399048
 11
38.09034
 21
43.399048
  0
LINE
  8
型材断面
  6
DASHDOT
 10
4.673673
 20
13.399048
 11
4.673673
 21
43.399048
  0
LINE
  8
型材断面
  6
CONTINUOUS
 10
21.798673
 20
42.545457
 11
54.257007
 21
42.545457
  0
LINE
  8
型材断面
  6
CONTINUOUS
 10
21.798673
 20
14.252637
 11
54.257007
 21
14.252637
  0
LINE
  8
型材断面
  6
CONTINUOUS
 10
-11.617995
 20
14.252637
 11
20.965337
 21
14.252637
  0
LINE
  8
型材断面
  6
CONTINUOUS
 10
-11.617995
 20
42.545457
 11
20.965337
 21
42.545457
  0
LINE
  8
型材断面
  6
CONTINUOUS
 10
-45.034655
 20
42.545457
 11
-12.45133
 21
42.545457
  0
LINE
  8
型材断面
  6
CONTINUOUS
 10
-45.034655
 20
14.252637
 11
-12.45133
 21
14.252637
  0
LINE
  8
型材断面
  6
CONTINUOUS
 10
-78.451322
 20
42.545457
 11
-45.86799
 21
42.545457
  0
LINE
  8
型材断面
  6
CONTINUOUS
 10
-78.451322
 20
14.252637
 11
-45.86799
 21
14.252637
  0
LINE
  8
型材断面
  6
CONTINUOUS
 10
-111.742993
 20
14.252637
 11
-79.284657
 21
14.252637
  0
LINE
  8
型材断面
  6
CONTINUOUS
 10
-111.742993
 20
42.545457
 11
-79.284657
 21
42.545457
  0
LINE
  8
型材断面
  6
CONTINUOUS
 10
72.66777
 20
11.752535
 11
72.90347
 21
11.988235
  0
LINE
  8
型材断面
  6
CONTINUOUS
 10
74.257055
 20
10.399005
 11
72.785648
 21
11.870413
  0
LINE
  8
型材断面
  6
CONTINUOUS
 10
70.16777
 20
14.252535
 11
70.40347
 21
14.488235
  0
LINE
  8
型材断面
  6
CONTINUOUS
 10
39.34034
 20
15.085867
 11
36.84034
 21
15.085867
  0
LINE
  8
型材断面
  6
CONTINUOUS
 10
70.40347
 20
14.488235
 11
72.903468
 21
11.988237
  0
LINE
  8
型材断面
  6
CONTINUOUS
 10
70.16777
 20
14.252535
 11
72.667668
 21
11.752637
  0
LINE
  8
型材断面
  6
CONTINUOUS
 10
70.403468
 20
27.98238
 11
70.403468
 21
14.488233
  0
LINE
  8
型材断面
  6
CONTINUOUS
 10
55.090343
 20
14.252637
 11
70.167872
 21
14.252637
  0
LINE
  8
型材断面
  6
CONTINUOUS
 10
39.34034
 20
41.712227
 11
36.84034
 21
41.712227
  0
LINE
  8
型材断面
  6
CONTINUOUS
 10
39.34034
 20
15.085867
 11
39.34034
 21
41.712227
  0
LINE
  8
型材断面
  6
CONTINUOUS
 10
36.84034
 20
15.085867
 11
36.84034
 21
41.712227
  0
LINE
  8
型材断面
  6
CONTINUOUS
 10
72.66777
 20
45.04556
 11
72.90347
 21
44.80986
  0
LINE
  8
型材断面
  6
CONTINUOUS
 10
74.257055
 20
46.39909
 11
72.785648
 21
44.927683
  0
LINE
  8
型材断面
  6
CONTINUOUS
 10
70.16777
 20
42.54556
 11
70.40347
 21
42.30986
  0
LINE
  8
型材断面
  6
CONTINUOUS
 10
70.40347
 20
42.30986
 11
72.903468
 21
44.809858
  0
LINE
  8
型材断面
  6
CONTINUOUS
 10
70.16777
 20
42.54556
 11
72.667668
 21
45.045457
  0
LINE
  8
型材断面
  6
CONTINUOUS
 10
55.090343
 20
42.545457
 11
70.167872
 21
42.545457
  0
LINE
  8
型材断面
  6
CONTINUOUS
 10
70.403468
 20
28.815715
 11
70.403468
 21
42.309863
  0
LINE
  8
型材断面
  6
CONTINUOUS
 10
72.903468
 20
11.988237
 11
72.903468
 21
44.809858
  0
LINE
  8
型材断面
  6
CONTINUOUS
 10
-131.74304
 20
46.39909
 11
-131.74304
 21
28.399045
  0
LINE
  8
型材断面
  6
CONTINUOUS
 10
-131.74304
 20
10.399005
 11
-131.74304
 21
28.39905
  0
LINE
  8
型材断面
  6
CONTINUOUS
 10
-130.153755
 20
11.752535
 11
-130.389455
 21
11.988235
  0
LINE
  8
型材断面
  6
CONTINUOUS
 10
-131.74304
 20
10.399005
 11
-130.271633
 21
11.870413
  0
LINE
  8
型材断面
  6
CONTINUOUS
 10
-127.653755
 20
14.252535
 11
-127.889455
 21
14.488235
  0
LINE
  8
型材断面
  6
CONTINUOUS
 10
-127.889455
 20
14.488235
 11
-130.389452
 21
11.988237
  0
LINE
  8
型材断面
  6
CONTINUOUS
 10
-127.653755
 20
14.252535
 11
-130.153653
 21
11.752637
  0
LINE
  8
型材断面
  6
CONTINUOUS
 10
-127.889452
 20
27.98238
 11
-127.889452
 21
14.488233
  0
LINE
  8
型材断面
  6
CONTINUOUS
 10
-130.153755
 20
45.04556
 11
-130.389455
 21
44.80986
  0
LINE
  8
型材断面
  6
CONTINUOUS
 10
-131.74304
 20
46.39909
 11
-130.271633
 21
44.927683
  0
LINE
  8
型材断面
  6
CONTINUOUS
 10
-127.653755
 20
42.54556
 11
-127.889455
 21
42.30986
  0
LINE
  8
型材断面
  6
CONTINUOUS
 10
-127.889455
 20
42.30986
 11
-130.389452
 21
44.809858
  0
LINE
  8
型材断面
  6
CONTINUOUS
 10
-127.653755
 20
42.54556
 11
-130.153653
 21
45.045457
  0
LINE
  8
型材断面
  6
CONTINUOUS
 10
-127.889452
 20
28.815715
 11
-127.889452
 21
42.309863
  0
LINE
  8
型材断面
  6
CONTINUOUS
 10
-130.389452
 20
11.988237
 11
-130.389452
 21
44.809858
  0
LINE
  8
型材断面
  6
CONTINUOUS
 10
72.667668
 20
45.045457
 11
-130.153653
 21
45.045457
  0
LINE
  8
型材断面
  6
CONTINUOUS
 10
-112.576328
 20
42.545457
 11
-127.653653
 21
42.545457
  0
LINE
  8
型材断面
  6
CONTINUOUS
 10
-112.576328
 20
14.252637
 11
-127.653653
 21
14.252637
  0
LINE
  8
型材断面
  6
CONTINUOUS
 10
72.667668
 20
11.752637
 11
-130.153653
 21
11.752637
  0
LINE
  8
型材断面
  6
CONTINUOUS
 10
5.923673
 20
15.085867
 11
3.423673
 21
15.085867
  0
LINE
  8
型材断面
  6
CONTINUOUS
 10
5.923673
 20
41.712227
 11
3.423673
 21
41.712227
  0
LINE
  8
型材断面
  6
CONTINUOUS
 10
5.923673
 20
15.085867
 11
5.923673
 21
41.712227
  0
LINE
  8
型材断面
  6
CONTINUOUS
 10
3.423673
 20
15.085867
 11
3.423673
 21
41.712227
  0
LINE
  8
型材断面
  6
CONTINUOUS
 10
-27.492993
 20
15.085867
 11
-29.992993
 21
15.085867
  0
LINE
  8
型材断面
  6
CONTINUOUS
 10
-27.492993
 20
41.712227
 11
-29.992993
 21
41.712227
  0
LINE
  8
型材断面
  6
CONTINUOUS
 10
-27.492993
 20
15.085867
 11
-27.492993
 21
41.712227
  0
LINE
  8
型材断面
  6
CONTINUOUS
 10
-29.992993
 20
15.085867
 11
-29.992993
 21
41.712227
  0
LINE
  8
型材断面
  6
CONTINUOUS
 10
-96.826325
 20
15.085867
 11
-94.326325
 21
15.085867
  0
LINE
  8
型材断面
  6
CONTINUOUS
 10
-96.826325
 20
41.712227
 11
-94.326325
 21
41.712227
  0
LINE
  8
型材断面
  6
CONTINUOUS
 10
-96.826325
 20
15.085867
 11
-96.826325
 21
41.712227
  0
LINE
  8
型材断面
  6
CONTINUOUS
 10
-94.326325
 20
15.085867
 11
-94.326325
 21
41.712227
  0
LINE
  8
型材断面
  6
CONTINUOUS
 10
-63.409657
 20
15.085867
 11
-60.909657
 21
15.085867
  0
LINE
  8
型材断面
  6
CONTINUOUS
 10
-63.409657
 20
41.712227
 11
-60.909657
 21
41.712227
  0
LINE
  8
型材断面
  6
CONTINUOUS
 10
-63.409657
 20
15.085867
 11
-63.409657
 21
41.712227
  0
LINE
  8
型材断面
  6
CONTINUOUS
 10
-60.909657
 20
15.085867
 11
-60.909657
 21
41.712227
  0
TEXT
  7
TextStyle03
  8
文字
  6
CONTINUOUS
 10
-166.775
 20
85.525
  1
は排水穴位置を示す
 40
3.0
 72
     5
 11
-136.775
 21
85.525
  0
TEXT
  7
TextStyle03
  8
文字
  6
CONTINUOUS
 10
61.0
 20
104.525
  1
ＮＳコード：ＮＳＦＫＺ
 40
5.0
 72
     5
 11
122.25
 21
104.525
  0
TEXT
  7
TextStyle03
  8
文字
  6
CONTINUOUS
 10
147.775
 20
-86.1
  1
網入り6.8t
 40
3.0
 72
     5
 11
164.4625
 21
-86.1
  0
TEXT
  7
TextStyle03
  8
文字
  6
CONTINUOUS
 10
154.45
 20
-90.775
  1
×６枚
 40
3.0
 72
     5
 11
164.2
 21
-90.775
  0
TEXT
  7
TextStyle03
  8
文字
  6
CONTINUOUS
 10
-149.7
 20
6.875
  1
アンカーピッチ
 40
3.0
 50
90.0
 72
     5
 11
-149.7
 21
30.125
  0
TEXT
  7
TextStyle03
  8
文字
  6
CONTINUOUS
 10
-115.3
 20
80.55
  1
アンカーピッチ
 40
3.0
 72
     5
 11
-92.05
 21
80.55
  0
TEXT
  7
TextStyle03
  8
文字
  6
CONTINUOUS
 10
-170.5
 20
78.5
  1
アンカー数量　２２ヶ所
 40
3.0
 72
     5
 11
-133.75
 21
78.5
  0
LINE
  8
文字
  6
CONTINUOUS
 10
118.30323
 20
57.038307
 11
118.30323
 21
47.68515
  0
LINE
  8
文字
  6
CONTINUOUS
 10
121.619897
 20
57.038307
 11
121.619897
 21
47.750505
  0
LINE
  8
文字
  6
CONTINUOUS
 10
84.896218
 20
-78.101962
 11
75.54306
 21
-78.101962
  0
LINE
  8
文字
  6
CONTINUOUS
 10
84.896218
 20
-81.41863
 11
75.608412
 21
-81.41863
  0
LINE
  8
文字
  6
CONTINUOUS
 10
166.343563
 20
-54.216277
 11
166.343563
 21
-61.627113
  0
LINE
  8
文字
  6
CONTINUOUS
 10
134.093563
 20
-54.216277
 11
134.093563
 21
-61.627113
  0
TEXT
  7
TextStyle03
  8
文字
  6
CONTINUOUS
 10
60.85
 20
125.25
  1
シリーズ：ＴＦ２ＦＫＬ
 40
5.0
 72
     5
 11
122.1
 21
125.25
  0
TEXT
  7
TextStyle03
  8
文字
  6
CONTINUOUS
 10
60.85
 20
119.625
  1
　　　　　（固定）900×6000タイプ
 40
5.0
 72
     5
 11
153.0375
 21
119.625
  0
TEXT
  7
TextStyle03
  8
文字
  6
CONTINUOUS
 10
60.85
 20
114.0
  1
図面名　：外観姿図
 40
5.0
 72
     5
 11
110.85
 21
114.0
  0
TEXT
  7
TextStyle03
  8
文字
  6
CONTINUOUS
 10
60.85
 20
108.375
  1
　　　　　　
 40
5.0
 72
     5
 11
93.975
 21
108.375
  0
LINE
  8
文字
  6
CONTINUOUS
 10
55.090343
 20
14.252637
 11
55.090343
 21
11.752637
  0
LINE
  8
文字
  6
CONTINUOUS
 10
54.257007
 20
14.252637
 11
54.257007
 21
11.752637
  0
LINE
  8
文字
  6
CONTINUOUS
 10
21.798673
 20
14.252637
 11
21.798673
 21
11.752637
  0
LINE
  8
文字
  6
CONTINUOUS
 10
20.965337
 20
14.252637
 11
20.965337
 21
11.752637
  0
LINE
  8
文字
  6
CONTINUOUS
 10
-11.617995
 20
14.252637
 11
-11.617995
 21
11.752637
  0
LINE
  8
文字
  6
CONTINUOUS
 10
-12.45133
 20
14.252637
 11
-12.45133
 21
11.752637
  0
LINE
  8
文字
  6
CONTINUOUS
 10
-112.576328
 20
14.252637
 11
-112.576328
 21
11.752637
  0
LINE
  8
文字
  6
CONTINUOUS
 10
-111.742993
 20
14.252637
 11
-111.742993
 21
11.752637
  0
LINE
  8
文字
  6
CONTINUOUS
 10
-79.284657
 20
14.252637
 11
-79.284657
 21
11.752637
  0
LINE
  8
文字
  6
CONTINUOUS
 10
-78.451322
 20
14.252637
 11
-78.451322
 21
11.752637
  0
LINE
  8
文字
  6
CONTINUOUS
 10
-45.86799
 20
14.252637
 11
-45.86799
 21
11.752637
  0
LINE
  8
文字
  6
CONTINUOUS
 10
-45.034655
 20
14.252637
 11
-45.034655
 21
11.752637
  0
LINE
  8
文字
  6
CONTINUOUS
 10
55.090343
 20
42.545457
 11
55.090343
 21
45.045457
  0
LINE
  8
文字
  6
CONTINUOUS
 10
54.257007
 20
42.545457
 11
54.257007
 21
45.045457
  0
LINE
  8
文字
  6
CONTINUOUS
 10
21.798673
 20
42.545457
 11
21.798673
 21
45.045457
  0
LINE
  8
文字
  6
CONTINUOUS
 10
20.965337
 20
42.545457
 11
20.965337
 21
45.045457
  0
LINE
  8
文字
  6
CONTINUOUS
 10
-11.617995
 20
42.545457
 11
-11.617995
 21
45.045457
  0
LINE
  8
文字
  6
CONTINUOUS
 10
-12.45133
 20
42.545457
 11
-12.45133
 21
45.045457
  0
LINE
  8
文字
  6
CONTINUOUS
 10
-112.576328
 20
42.545457
 11
-112.576328
 21
45.045457
  0
LINE
  8
文字
  6
CONTINUOUS
 10
-111.742993
 20
42.545457
 11
-111.742993
 21
45.045457
  0
LINE
  8
文字
  6
CONTINUOUS
 10
-79.284657
 20
42.545457
 11
-79.284657
 21
45.045457
  0
LINE
  8
文字
  6
CONTINUOUS
 10
-78.451322
 20
42.545457
 11
-78.451322
 21
45.045457
  0
LINE
  8
文字
  6
CONTINUOUS
 10
-45.86799
 20
42.545457
 11
-45.86799
 21
45.045457
  0
LINE
  8
文字
  6
CONTINUOUS
 10
-45.034655
 20
42.545457
 11
-45.034655
 21
45.045457
  0
LINE
  8
文字
  6
CONTINUOUS
 10
72.903468
 20
27.98238
 11
70.403468
 21
27.98238
  0
LINE
  8
文字
  6
CONTINUOUS
 10
72.903468
 20
28.815715
 11
70.403468
 21
28.815715
  0
LINE
  8
文字
  6
CONTINUOUS
 10
-130.389452
 20
27.98238
 11
-127.889452
 21
27.98238
  0
LINE
  8
文字
  6
CONTINUOUS
 10
-130.389452
 20
28.815715
 11
-127.889452
 21
28.815715
  0
INSERT
  2
*DIM_0002
  8
寸法
  6
CONTINUOUS
 10
0.0
 20
0.0
  0
INSERT
  2
*DIM_0003
  8
寸法
  6
CONTINUOUS
 10
0.0
 20
0.0
  0
INSERT
  2
*DIM_0004
  8
寸法
  6
CONTINUOUS
 10
0.0
 20
0.0
  0
INSERT
  2
*DIM_0005
  8
寸法
  6
CONTINUOUS
 10
0.0
 20
0.0
  0
INSERT
  2
*DIM_0006
  8
寸法
  6
CONTINUOUS
 10
0.0
 20
0.0
  0
INSERT
  2
*DIM_0007
  8
寸法
  6
CONTINUOUS
 10
0.0
 20
0.0
  0
INSERT
  2
*DIM_0008
  8
寸法
  6
CONTINUOUS
 10
0.0
 20
0.0
  0
INSERT
  2
*DIM_0009
  8
寸法
  6
CONTINUOUS
 10
0.0
 20
0.0
  0
INSERT
  2
*DIM_0010
  8
寸法
  6
CONTINUOUS
 10
0.0
 20
0.0
  0
INSERT
  2
*DIM_0011
  8
寸法
  6
CONTINUOUS
 10
0.0
 20
0.0
  0
INSERT
  2
*DIM_0012
  8
寸法
  6
CONTINUOUS
 10
0.0
 20
0.0
  0
INSERT
  2
*DIM_0013
  8
寸法
  6
CONTINUOUS
 10
0.0
 20
0.0
  0
INSERT
  2
*DIM_0014
  8
寸法
  6
CONTINUOUS
 10
0.0
 20
0.0
  0
INSERT
  2
*DIM_0015
  8
寸法
  6
CONTINUOUS
 10
0.0
 20
0.0
  0
INSERT
  2
*DIM_0016
  8
寸法
  6
CONTINUOUS
 10
0.0
 20
0.0
  0
INSERT
  2
*DIM_0017
  8
寸法
  6
CONTINUOUS
 10
0.0
 20
0.0
  0
INSERT
  2
*DIM_0018
  8
寸法
  6
CONTINUOUS
 10
0.0
 20
0.0
  0
INSERT
  2
*DIM_0019
  8
寸法
  6
CONTINUOUS
 10
0.0
 20
0.0
  0
LINE
  8
別途部材
  6
CONTINUOUS
 62
    47
 10
118.40323
 20
45.04556
 11
118.469895
 21
45.04556
  0
ARC
  8
別途部材
  6
CONTINUOUS
 62
    47
 10
118.403227
 20
44.945561
 40
0.1
 50
90.0
 51
180.0
  0
LINE
  8
別途部材
  6
CONTINUOUS
 62
    47
 10
118.30323
 20
44.94556
 11
118.30323
 21
44.88904
  0
LINE
  8
別途部材
  6
CONTINUOUS
 62
    47
 10
119.969895
 20
44.88904
 11
118.469895
 21
44.88904
  0
LINE
  8
別途部材
  6
CONTINUOUS
 62
    47
 10
118.40323
 20
11.752637
 11
118.469895
 21
11.752637
  0
ARC
  8
別途部材
  6
CONTINUOUS
 62
    47
 10
118.403227
 20
11.852637
 40
0.1
 50
180.0
 51
270.0
  0
LINE
  8
別途部材
  6
CONTINUOUS
 62
    47
 10
118.30323
 20
11.852637
 11
118.30323
 21
11.90916
  0
LINE
  8
別途部材
  6
CONTINUOUS
 62
    47
 10
119.969895
 20
11.90916
 11
118.469895
 21
11.90916
  0
LINE
  8
別途部材
  6
CONTINUOUS
 62
    47
 10
-130.389452
 20
-78.201962
 11
-130.389452
 21
-78.268628
  0
ARC
  8
別途部材
  6
CONTINUOUS
 62
    47
 10
-130.289455
 20
-78.201959
 40
0.1
 50
90.0
 51
180.0
  0
LINE
  8
別途部材
  6
CONTINUOUS
 62
    47
 10
-130.289452
 20
-78.101962
 11
-130.232932
 21
-78.101962
  0
LINE
  8
別途部材
  6
CONTINUOUS
 62
    47
 10
-130.232932
 20
-79.768628
 11
-130.232932
 21
-78.268628
  0
LINE
  8
別途部材
  6
CONTINUOUS
 62
    47
 10
72.90347
 20
-78.201962
 11
72.90347
 21
-78.268628
  0
ARC
  8
別途部材
  6
CONTINUOUS
 62
    47
 10
72.803469
 20
-78.201959
 40
0.1
 50
0.0
 51
90.0
  0
LINE
  8
別途部材
  6
CONTINUOUS
 62
    47
 10
72.80347
 20
-78.101962
 11
72.746947
 21
-78.101962
  0
LINE
  8
別途部材
  6
CONTINUOUS
 62
    47
 10
72.746947
 20
-79.768628
 11
72.746947
 21
-78.268628
  0
LINE
  8
曲げ物
  6
CONTINUOUS
 10
55.982738
 20
30.602695
 11
52.287425
 21
26.907382
  0
LINE
  8
曲げ物
  6
CONTINUOUS
 10
55.279268
 20
29.066585
 11
53.823538
 21
27.610855
  0
LINE
  8
曲げ物
  6
CONTINUOUS
 10
54.446628
 20
29.899225
 11
52.990898
 21
28.443495
  0
LINE
  8
曲げ物
  6
CONTINUOUS
 10
23.355437
 20
30.602695
 11
19.660125
 21
26.907382
  0
LINE
  8
曲げ物
  6
CONTINUOUS
 10
22.651967
 20
29.066585
 11
21.196237
 21
27.610855
  0
LINE
  8
曲げ物
  6
CONTINUOUS
 10
21.819327
 20
29.899225
 11
20.363597
 21
28.443495
  0
LINE
  8
曲げ物
  6
CONTINUOUS
 10
-9.597012
 20
30.602695
 11
-13.292325
 21
26.907382
  0
LINE
  8
曲げ物
  6
CONTINUOUS
 10
-10.300482
 20
29.066585
 11
-11.756213
 21
27.610855
  0
LINE
  8
曲げ物
  6
CONTINUOUS
 10
-11.133122
 20
29.899225
 11
-12.588853
 21
28.443495
  0
LINE
  8
曲げ物
  6
CONTINUOUS
 10
-42.977415
 20
30.602695
 11
-46.672728
 21
26.907382
  0
LINE
  8
曲げ物
  6
CONTINUOUS
 10
-43.680885
 20
29.066585
 11
-45.136615
 21
27.610855
  0
LINE
  8
曲げ物
  6
CONTINUOUS
 10
-44.513525
 20
29.899225
 11
-45.969255
 21
28.443495
  0
LINE
  8
曲げ物
  6
CONTINUOUS
 10
-75.930945
 20
30.602695
 11
-79.626257
 21
26.907382
  0
LINE
  8
曲げ物
  6
CONTINUOUS
 10
-76.634415
 20
29.066585
 11
-78.090145
 21
27.610855
  0
LINE
  8
曲げ物
  6
CONTINUOUS
 10
-77.467055
 20
29.899225
 11
-78.922785
 21
28.443495
  0
LINE
  8
曲げ物
  6
CONTINUOUS
 10
-109.596652
 20
30.602695
 11
-113.291965
 21
26.907382
  0
LINE
  8
曲げ物
  6
CONTINUOUS
 10
-110.300123
 20
29.066585
 11
-111.755853
 21
27.610855
  0
LINE
  8
曲げ物
  6
CONTINUOUS
 10
-111.132762
 20
29.899225
 11
-112.588493
 21
28.443495
  0
LINE
  8
曲げ物
  6
CONTINUOUS
 10
166.343563
 20
-92.533713
 11
166.343563
 21
-63.20038
  0
LINE
  8
曲げ物
  6
CONTINUOUS
 10
134.093563
 20
-92.533713
 11
134.093563
 21
-63.20038
  0
LINE
  8
曲げ物
  6
CONTINUOUS
 10
166.343563
 20
-63.20038
 11
134.093563
 21
-63.20038
  0
LINE
  8
曲げ物
  6
CONTINUOUS
 10
166.343563
 20
-92.533713
 11
134.093563
 21
-92.533713
  0
CIRCLE
  8
LAYER010
  6
CONTINUOUS
 62
    47
 10
121.1199
 20
46.39909
 40
0.011113
  0
CIRCLE
  8
LAYER010
  6
CONTINUOUS
 62
    47
 10
121.1199
 20
10.399107
 40
0.011113
  0
CIRCLE
  8
LAYER010
  6
CONTINUOUS
 62
    47
 10
-131.742983
 20
-80.918632
 40
0.011113
  0
CIRCLE
  8
LAYER010
  6
CONTINUOUS
 62
    47
 10
74.257
 20
-80.918632
 40
0.011113
  0
ENDSEC
  0
EOF
