  0
SECTION
  2
HEADER
  9
$EXTMIN
 10
-210.0
 20
-148.5
  9
$EXTMAX
 10
210.0
 20
148.5
  9
$PDMODE
 70
    32
  9
$PDSIZE
 40
1.5
  9
$LTSCALE
 40
10.0
  0
ENDSEC
  0
SECTION
  2
TABLES
  0
TABLE
  2
LTYPE
 70
    15
  0
LTYPE
  2
CONTINUOUS
 70
    64
  3
実線
 72
    65
 73
     0
 40
0.0
  0
LTYPE
  2
DASHED
 70
    64
  3
破線A
 72
    65
 73
     2
 40
0.6
 49
0.4
 49
-0.2
  0
LTYPE
  2
DASHEDX2
 70
    64
  3
破線B
 72
    65
 73
     2
 40
1.3
 49
0.9
 49
-0.4
  0
LTYPE
  2
DASHDOT
 70
    64
  3
１点鎖線A
 72
    65
 73
     4
 40
0.5375
 49
0.375
 49
-0.05
 49
0.0625
 49
-0.05
  0
LTYPE
  2
DASHDOTX2
 70
    64
  3
１点鎖線B
 72
    65
 73
     4
 40
1.075
 49
0.75
 49
-0.1
 49
0.125
 49
-0.1
  0
LTYPE
  2
DIVIDE2
 70
    64
  3
２点鎖線A
 72
    65
 73
     6
 40
0.5125
 49
0.3
 49
-0.0375
 49
0.05
 49
-0.0375
 49
0.05
 49
-0.0375
  0
LTYPE
  2
DIVIDE
 70
    64
  3
２点鎖線B
 72
    65
 73
     6
 40
1.05
 49
0.55
 49
-0.1
 49
0.1
 49
-0.1
 49
0.1
 49
-0.1
  0
LTYPE
  2
DOT
 70
    64
  3
点線A
 72
    65
 73
     2
 40
0.1125
 49
0.0625
 49
-0.05
  0
LTYPE
  2
DOTX2
 70
    64
  3
点線B
 72
    65
 73
     2
 40
0.275
 49
0.15
 49
-0.125
  0
LTYPE
  2
CONTINUOUS
 70
    64
  3
実線
 72
    65
 73
     0
 40
0.0
  0
LTYPE
  2
CONTINUOUS
 70
    64
  3
実線
 72
    65
 73
     0
 40
0.0
  0
LTYPE
  2
CONTINUOUS
 70
    64
  3
実線
 72
    65
 73
     0
 40
0.0
  0
LTYPE
  2
CONTINUOUS
 70
    64
  3
実線
 72
    65
 73
     0
 40
0.0
  0
LTYPE
  2
CONTINUOUS
 70
    64
  3
実線
 72
    65
 73
     0
 40
0.0
  0
LTYPE
  2
CONTINUOUS
 70
    64
  3
実線
 72
    65
 73
     0
 40
0.0
  0
ENDTAB
  0
TABLE
  2
LAYER
 70
    35
  0
LAYER
  2
通り芯
 70
     0
 62
    15
  6
CONTINUOUS
  0
LAYER
  2
補助線
 70
     0
 62
    16
  6
DOT
  0
LAYER
  2
躯体
 70
     0
 62
    31
  6
CONTINUOUS
  0
LAYER
  2
型材
 70
     0
 62
    32
  6
CONTINUOUS
  0
LAYER
  2
型材断面
 70
     0
 62
    47
  6
CONTINUOUS
  0
LAYER
  2
ガラス
 70
     0
 62
    48
  6
CONTINUOUS
  0
LAYER
  2
ゴム等
 70
     0
 62
    63
  6
CONTINUOUS
  0
LAYER
  2
ボルト／ビス
 70
     0
 62
    64
  6
CONTINUOUS
  0
LAYER
  2
文字
 70
     0
 62
    79
  6
CONTINUOUS
  0
LAYER
  2
寸法
 70
     0
 62
    80
  6
CONTINUOUS
  0
LAYER
  2
ﾊｯﾁﾝｸﾞ
 70
     0
 62
    95
  6
CONTINUOUS
  0
LAYER
  2
別途部材
 70
     0
 62
    96
  6
CONTINUOUS
  0
LAYER
  2
曲げ物
 70
     0
 62
   111
  6
CONTINUOUS
  0
LAYER
  2
鉄骨等
 70
     0
 62
   112
  6
CONTINUOUS
  0
LAYER
  2
St
 70
     0
 62
   127
  6
CONTINUOUS
  0
LAYER
  2
その他部品等
 70
     0
 62
   128
  6
CONTINUOUS
  0
LAYER
  2
ｶﾞｽｹｯﾄ
 70
     0
 62
   143
  6
CONTINUOUS
  0
LAYER
  2
ｽｹｯﾁ
 70
     0
 62
    14
  6
CONTINUOUS
  0
LAYER
  2
0
 70
     0
 62
    17
  6
CONTINUOUS
  0
LAYER
  2
1
 70
     0
 62
    30
  6
CONTINUOUS
  0
LAYER
  2
4
 70
     0
 62
    33
  6
CONTINUOUS
  0
LAYER
  2
ﾚｲﾔ3
 70
     0
 62
    46
  6
CONTINUOUS
  0
LAYER
  2
外形線
 70
     0
 62
    49
  6
CONTINUOUS
  0
LAYER
  2
部品
 70
     0
 62
    14
  6
CONTINUOUS
  0
LAYER
  2
サッシ芯
 70
     0
 62
    17
  6
DASHDOTX2
  0
LAYER
  2
寸法線
 70
     0
 62
    62
  6
CONTINUOUS
  0
LAYER
  2
姿図外形線
 70
     0
 62
    65
  6
CONTINUOUS
  0
LAYER
  2
姿補助線
 70
     0
 62
    30
  6
CONTINUOUS
  0
LAYER
  2
透視線
 70
     0
 62
    78
  6
DOT
  0
LAYER
  2
用紙
 70
     0
 62
    81
  6
CONTINUOUS
  0
LAYER
  2
実線図枠
 70
     0
 62
    94
  6
CONTINUOUS
  0
LAYER
  2
補助図枠
 70
     0
 62
    97
  6
CONTINUOUS
  0
LAYER
  2
建具記号
 70
     0
 62
   110
  6
CONTINUOUS
  0
LAYER
  2
補助文字
 70
     0
 62
   113
  6
CONTINUOUS
  0
LAYER
  2
01
 70
     0
 62
     1
  6
CONTINUOUS
  0
ENDTAB
  0
TABLE
  2
STYLE
 70
    10
  0
STYLE
  2
STANDARD
 70
     0
 40
1.0
 41
1.0
 42
1.0
 50
0.0
 71
     0
  3
TXT
  4
BIGFONT
  0
STYLE
  2
TATE
 70
     4
 40
1.0
 41
1.0
 42
1.0
 50
0.0
 71
     0
  3
TXT
  4
BIGFONT
  0
STYLE
  2
TextStyle03
 70
     0
 40
1.0
 41
1.0
 42
1.0
 50
0.0
 71
     0
  3
MONOTXT
  4
BIGFONT
  0
STYLE
  2
TextStyle04
 70
     0
 40
1.0
 41
1.0
 42
1.0
 50
0.0
 71
     0
  3
MONOTXT
  4
BIGFONT
  0
STYLE
  2
TextStyle05
 70
     0
 40
1.0
 41
1.0
 42
1.0
 50
0.0
 71
     0
  3
MONOTXT
  4
BIGFONT
  0
STYLE
  2
TextStyle06
 70
     0
 40
1.0
 41
1.0
 42
1.0
 50
0.0
 71
     0
  3
MONOTXT
  4
BIGFONT
  0
STYLE
  2
TextStyle07
 70
     0
 40
1.0
 41
1.0
 42
1.0
 50
0.0
 71
     0
  3
MONOTXT
  4
BIGFONT
  0
STYLE
  2
TextStyle08
 70
     0
 40
1.0
 41
1.0
 42
1.0
 50
0.0
 71
     0
  3
MONOTXT
  4
BIGFONT
  0
STYLE
  2
TextStyle09
 70
     0
 40
1.0
 41
1.0
 42
1.0
 50
0.0
 71
     0
  3
MONOTXT
  4
BIGFONT
  0
STYLE
  2
TextStyle10
 70
     0
 40
1.0
 41
1.0
 42
1.0
 50
0.0
 71
     0
  3
MONOTXT
  4
BIGFONT
  0
ENDTAB
  0
ENDSEC
  0
SECTION
  2
BLOCKS
  0
BLOCK
  2
*GRP_0001
 70
    65
 10
0.0
 20
0.0
  0
LINE
  8
型材断面
  6
CONTINUOUS
 10
195.0
 20
133.5
 11
195.0
 21
-133.5
  0
LINE
  8
型材断面
  6
CONTINUOUS
 10
195.0
 20
-133.5
 11
-185.0
 21
-133.5
  0
LINE
  8
型材断面
  6
CONTINUOUS
 10
-185.0
 20
-133.5
 11
-185.0
 21
133.5
  0
LINE
  8
型材断面
  6
CONTINUOUS
 10
195.0
 20
133.5
 11
-185.0
 21
133.5
  0
LINE
  8
型材断面
  6
CONTINUOUS
 10
145.0
 20
-133.5
 11
145.0
 21
-118.5
  0
LINE
  8
型材断面
  6
CONTINUOUS
 10
195.0
 20
-118.5
 11
145.0
 21
-118.5
  0
ENDBLK
  0
BLOCK
  2
*DIM_0002
 70
    65
 10
0.0
 20
0.0
  0
LINE
  8
寸法
  6
BYBLOCK
 62
     0
 10
-74.223978
 20
-53.13842
 11
-74.223978
 21
-36.798775
  0
LINE
  8
寸法
  6
BYBLOCK
 62
     0
 10
-63.973973
 20
-53.13842
 11
-63.973973
 21
-36.798775
  0
LINE
  8
寸法
  6
BYBLOCK
 62
     0
 10
-74.223978
 20
-36.798775
 11
-63.973973
 21
-36.798775
  0
POINT
  8
寸法
 62
     0
 10
-74.223978
 20
-36.798775
  0
POINT
  8
寸法
 62
     0
 10
-63.973973
 20
-36.798775
  0
TEXT
  7
TextStyle03
  8
寸法
  6
CONTINUOUS
 62
     0
 10
-71.5625
 20
-36.425
  1
205
 40
3.0
 72
     5
 11
-66.6875
 21
-36.425
  0
ENDBLK
  0
BLOCK
  2
*DIM_0003
 70
    65
 10
0.0
 20
0.0
  0
LINE
  8
寸法
  6
CONTINUOUS
 10
-62.973973
 20
-54.56342
 11
-53.04724
 21
-54.56342
  0
LINE
  8
寸法
  6
CONTINUOUS
 10
-53.04724
 20
-49.438422
 11
-53.04724
 21
-54.56342
  0
POINT
  8
寸法
 10
-53.04724
 20
-49.438422
  0
POINT
  8
寸法
 10
-53.04724
 20
-54.56342
  0
TEXT
  7
TextStyle03
  8
寸法
  6
CONTINUOUS
 10
-50.05
 20
-56.125
  1
102.5
 40
3.0
 50
90.0
 72
     5
 11
-50.05
 21
-47.875
  0
ENDBLK
  0
BLOCK
  2
*DIM_0004
 70
    65
 10
0.0
 20
0.0
  0
LINE
  8
寸法
  6
CONTINUOUS
 10
-15.898755
 20
-101.430062
 11
-5.938862
 21
-101.430062
  0
LINE
  8
寸法
  6
CONTINUOUS
 10
-15.898755
 20
-97.780062
 11
-5.938862
 21
-97.780062
  0
LINE
  8
寸法
  6
CONTINUOUS
 10
-5.938862
 20
-101.430062
 11
-5.938862
 21
-97.780062
  0
POINT
  8
寸法
 10
-5.938862
 20
-101.430062
  0
POINT
  8
寸法
 10
-5.938862
 20
-97.780062
  0
TEXT
  7
TextStyle03
  8
寸法
  6
CONTINUOUS
 10
-6.325
 20
-101.21875
  1
73
 40
3.0
 50
90.0
 72
     5
 11
-6.325
 21
-98.03125
  0
ENDBLK
  0
BLOCK
  2
*DIM_0005
 70
    65
 10
0.0
 20
0.0
  0
LINE
  8
寸法
  6
CONTINUOUS
 10
-20.898755
 20
-92.780062
 11
-20.898755
 21
-20.125953
  0
LINE
  8
寸法
  6
CONTINUOUS
 10
-24.098975
 20
-20.125953
 11
-20.898755
 21
-20.125953
  0
POINT
  8
寸法
 10
-24.098975
 20
-20.125953
  0
POINT
  8
寸法
 10
-20.898755
 20
-20.125953
  0
TEXT
  7
TextStyle03
  8
寸法
  6
CONTINUOUS
 10
-24.09375
 20
-19.775
  1
64
 40
3.0
 72
     5
 11
-20.90625
 21
-19.775
  0
ENDBLK
  0
BLOCK
  2
*DIM_0006
 70
    65
 10
0.0
 20
0.0
  0
LINE
  8
寸法
  6
CONTINUOUS
 10
-117.299195
 20
-92.780062
 11
-117.299195
 21
-20.125953
  0
LINE
  8
寸法
  6
CONTINUOUS
 10
-114.098975
 20
-20.125953
 11
-117.299195
 21
-20.125953
  0
POINT
  8
寸法
 10
-114.098975
 20
-20.125953
  0
POINT
  8
寸法
 10
-117.299195
 20
-20.125953
  0
TEXT
  7
TextStyle03
  8
寸法
  6
CONTINUOUS
 10
-117.29375
 20
-19.775
  1
64
 40
3.0
 72
     5
 11
-114.10625
 21
-19.775
  0
ENDBLK
  0
BLOCK
  2
*DIM_0007
 70
    65
 10
0.0
 20
0.0
  0
LINE
  8
寸法
  6
CONTINUOUS
 10
-114.098975
 20
-20.125953
 11
-24.098975
 21
-20.125953
  0
POINT
  8
寸法
 10
-114.098975
 20
-20.125953
  0
POINT
  8
寸法
 10
-24.098975
 20
-20.125953
  0
TEXT
  7
TextStyle03
  8
寸法
  6
CONTINUOUS
 10
-80.81875
 20
-19.775
  1
呼称寸法　1800
 40
3.0
 72
     5
 11
-57.38125
 21
-19.775
  0
ENDBLK
  0
BLOCK
  2
*DIM_0008
 70
    65
 10
0.0
 20
0.0
  0
LINE
  8
寸法
  6
CONTINUOUS
 10
-104.098975
 20
103.07553
 11
-104.098975
 21
114.006285
  0
LINE
  8
寸法
  6
CONTINUOUS
 10
-69.098975
 20
103.07553
 11
-69.098975
 21
114.006285
  0
LINE
  8
寸法
  6
CONTINUOUS
 10
-104.098975
 20
114.006285
 11
-69.098975
 21
114.006285
  0
POINT
  8
寸法
 10
-104.098975
 20
114.006285
  0
POINT
  8
寸法
 10
-69.098975
 20
114.006285
  0
TEXT
  7
TextStyle03
  8
寸法
  6
CONTINUOUS
 10
-89.0625
 20
114.375
  1
700
 40
3.0
 72
     5
 11
-84.1875
 21
114.375
  0
ENDBLK
  0
BLOCK
  2
*DIM_0009
 70
    65
 10
0.0
 20
0.0
  0
LINE
  8
寸法
  6
CONTINUOUS
 10
-69.098975
 20
103.07553
 11
-69.098975
 21
114.006285
  0
LINE
  8
寸法
  6
CONTINUOUS
 10
-34.098975
 20
103.07553
 11
-34.098975
 21
114.006285
  0
LINE
  8
寸法
  6
CONTINUOUS
 10
-69.098975
 20
114.006285
 11
-34.098975
 21
114.006285
  0
POINT
  8
寸法
 10
-34.098975
 20
114.006285
  0
TEXT
  7
TextStyle03
  8
寸法
  6
CONTINUOUS
 10
-54.0625
 20
114.375
  1
700
 40
3.0
 72
     5
 11
-49.1875
 21
114.375
  0
ENDBLK
  0
BLOCK
  2
*DIM_0010
 70
    65
 10
0.0
 20
0.0
  0
LINE
  8
寸法
  6
CONTINUOUS
 10
-126.575673
 20
81.38519
 11
-137.506427
 21
81.38519
  0
LINE
  8
寸法
  6
CONTINUOUS
 10
-126.575675
 20
46.38519
 11
-137.50643
 21
46.38519
  0
LINE
  8
寸法
  6
CONTINUOUS
 10
-137.506427
 20
81.38519
 11
-137.50643
 21
46.38519
  0
POINT
  8
寸法
 10
-137.506427
 20
81.38519
  0
POINT
  8
寸法
 10
-137.50643
 20
46.38519
  0
TEXT
  7
TextStyle03
  8
寸法
  6
CONTINUOUS
 10
-137.9
 20
61.4125
  1
700
 40
3.0
 50
90.0
 72
     5
 11
-137.9
 21
66.2875
  0
ENDBLK
  0
BLOCK
  2
*DIM_0011
 70
    65
 10
0.0
 20
0.0
  0
LINE
  8
寸法
  6
CONTINUOUS
 10
-126.575675
 20
46.38519
 11
-137.50643
 21
46.38519
  0
LINE
  8
寸法
  6
CONTINUOUS
 10
-126.575677
 20
11.38519
 11
-137.506433
 21
11.38519
  0
LINE
  8
寸法
  6
CONTINUOUS
 10
-137.50643
 20
46.38519
 11
-137.506433
 21
11.38519
  0
POINT
  8
寸法
 10
-137.506433
 20
11.38519
  0
TEXT
  7
TextStyle03
  8
寸法
  6
CONTINUOUS
 10
-137.9
 20
26.4125
  1
700
 40
3.0
 50
90.0
 72
     5
 11
-137.9
 21
31.2875
  0
ENDBLK
  0
BLOCK
  2
*DIM_0012
 70
    65
 10
0.0
 20
0.0
  0
LINE
  8
寸法
  6
BYBLOCK
 62
     0
 10
-66.098975
 20
-49.438422
 11
-5.938862
 21
-49.438422
  0
LINE
  8
寸法
  6
BYBLOCK
 62
     0
 10
-5.938862
 20
-97.780062
 11
-5.938862
 21
-49.438422
  0
POINT
  8
寸法
 62
     0
 10
-5.938862
 20
-97.780062
  0
POINT
  8
寸法
 62
     0
 10
-5.938862
 20
-49.438422
  0
TEXT
  7
TextStyle03
  8
寸法
  6
CONTINUOUS
 62
     0
 10
-6.325
 20
-77.75
  1
966.8
 40
3.0
 50
90.0
 72
     5
 11
-6.325
 21
-69.5
  0
ENDBLK
  0
BLOCK
  2
*DIM_0013
 70
    65
 10
0.0
 20
0.0
  0
LINE
  8
寸法
  6
BYBLOCK
 62
     0
 10
113.042893
 20
-82.548498
 11
113.042893
 21
-92.484403
  0
LINE
  8
寸法
  6
BYBLOCK
 62
     0
 10
157.21524
 20
-82.548498
 11
157.21524
 21
-92.484403
  0
LINE
  8
寸法
  6
BYBLOCK
 62
     0
 10
113.042893
 20
-92.484403
 11
157.21524
 21
-92.484403
  0
POINT
  8
寸法
 62
     0
 10
113.042893
 20
-92.484403
  0
POINT
  8
寸法
 62
     0
 10
157.21524
 20
-92.484403
  0
TEXT
  7
TextStyle03
  8
寸法
  6
CONTINUOUS
 62
     0
 10
131.0
 20
-92.125
  1
883.4
 40
3.0
 72
     5
 11
139.25
 21
-92.125
  0
ENDBLK
  0
BLOCK
  2
*DIM_0014
 70
    65
 10
0.0
 20
0.0
  0
LINE
  8
寸法
  6
BYBLOCK
 62
     0
 10
160.21524
 20
-79.548498
 11
168.646012
 21
-79.548498
  0
LINE
  8
寸法
  6
BYBLOCK
 62
     0
 10
116.042893
 20
-17.079365
 11
168.646012
 21
-17.079365
  0
LINE
  8
寸法
  6
BYBLOCK
 62
     0
 10
168.646012
 20
-79.548498
 11
168.646012
 21
-17.079365
  0
POINT
  8
寸法
 62
     0
 10
168.646012
 20
-79.548498
  0
POINT
  8
寸法
 62
     0
 10
168.646012
 20
-17.079365
  0
TEXT
  7
TextStyle03
  8
寸法
  6
CONTINUOUS
 62
     0
 10
168.25
 20
-53.29375
  1
1249.4
 40
3.0
 50
90.0
 72
     5
 11
168.25
 21
-43.35625
  0
ENDBLK
  0
ENDSEC
  0
SECTION
  2
ENTITIES
  0
POLYLINE
  8
通り芯
  6
CONTINUOUS
 66
     1
 70
     1
  0
VERTEX
  8
通り芯
 10
-210.0
 20
-148.5
  0
VERTEX
  8
通り芯
 10
210.0
 20
-148.5
  0
VERTEX
  8
通り芯
 10
210.0
 20
148.5
  0
VERTEX
  8
通り芯
 10
-210.0
 20
148.5
  0
SEQEND
  0
INSERT
  2
*GRP_0001
  8
型材断面
  6
CONTINUOUS
 10
0.0
 20
0.0
  0
LINE
  8
型材断面
  6
CONTINUOUS
 10
-63.973973
 20
41.26019
 11
-69.098973
 21
41.26019
  0
LINE
  8
型材断面
  6
CONTINUOUS
 10
-63.973973
 20
41.26019
 11
-63.973973
 21
46.38519
  0
LINE
  8
型材断面
  6
CONTINUOUS
 10
-63.973973
 20
51.51019
 11
-69.098973
 21
51.51019
  0
LINE
  8
型材断面
  6
CONTINUOUS
 10
-63.973973
 20
51.51019
 11
-63.973973
 21
46.38519
  0
LINE
  8
型材断面
  6
CONTINUOUS
 10
-74.223978
 20
51.51019
 11
-69.098978
 21
51.51019
  0
LINE
  8
型材断面
  6
CONTINUOUS
 10
-74.223978
 20
51.51019
 11
-74.223978
 21
46.38519
  0
LINE
  8
型材断面
  6
CONTINUOUS
 10
-74.223978
 20
41.26019
 11
-69.098978
 21
41.26019
  0
LINE
  8
型材断面
  6
CONTINUOUS
 10
-74.223978
 20
41.26019
 11
-74.223978
 21
46.38519
  0
LINE
  8
型材断面
  6
CONTINUOUS
 10
-74.223978
 20
-54.56342
 11
-74.153265
 21
-54.634133
  0
LINE
  8
型材断面
  6
CONTINUOUS
 10
-74.223978
 20
-54.56342
 11
-69.098978
 21
-54.56342
  0
LINE
  8
型材断面
  6
CONTINUOUS
 10
-74.153265
 20
-54.634133
 11
-69.098978
 21
-54.634133
  0
LINE
  8
型材断面
  6
CONTINUOUS
 10
-74.223978
 20
-54.56342
 11
-69.098975
 21
-49.438422
  0
LINE
  8
型材断面
  6
CONTINUOUS
 10
-63.973973
 20
-54.56342
 11
-64.044685
 21
-54.634133
  0
LINE
  8
型材断面
  6
CONTINUOUS
 10
-63.973973
 20
-54.56342
 11
-69.098973
 21
-54.56342
  0
LINE
  8
型材断面
  6
CONTINUOUS
 10
-64.044685
 20
-54.634133
 11
-69.098973
 21
-54.634133
  0
LINE
  8
型材断面
  6
CONTINUOUS
 10
-63.973973
 20
-54.56342
 11
-69.098975
 21
-49.438422
  0
LINE
  8
型材断面
  6
DASHDOT
 10
-114.098975
 20
46.38519
 11
-24.098975
 21
46.38519
  0
LINE
  8
型材断面
  6
CONTINUOUS
 10
-69.098975
 20
46.38519
 11
-20.898752
 21
94.585412
  0
LINE
  8
型材断面
  6
CONTINUOUS
 10
-20.898752
 20
94.585412
 11
-69.098975
 21
94.585412
  0
LINE
  8
型材断面
  6
CONTINUOUS
 10
-21.994735
 20
93.48943
 11
-69.098975
 21
93.48943
  0
LINE
  8
型材断面
  6
CONTINUOUS
 10
-20.898752
 20
94.585412
 11
-20.898752
 21
46.38519
  0
LINE
  8
型材断面
  6
CONTINUOUS
 10
-21.994735
 20
93.48943
 11
-21.994735
 21
46.38519
  0
LINE
  8
型材断面
  6
CONTINUOUS
 10
-69.098975
 20
46.38519
 11
-117.299197
 21
94.585412
  0
LINE
  8
型材断面
  6
CONTINUOUS
 10
-117.299197
 20
94.585412
 11
-69.098975
 21
94.585412
  0
LINE
  8
型材断面
  6
CONTINUOUS
 10
-116.203215
 20
93.48943
 11
-69.098975
 21
93.48943
  0
LINE
  8
型材断面
  6
CONTINUOUS
 10
-117.299197
 20
94.585412
 11
-117.299197
 21
46.38519
  0
LINE
  8
型材断面
  6
CONTINUOUS
 10
-116.203215
 20
93.48943
 11
-116.203215
 21
46.38519
  0
LINE
  8
型材断面
  6
DASHDOT
 10
-114.098975
 20
91.38519
 11
-24.098975
 21
91.38519
  0
LINE
  8
型材断面
  6
CONTINUOUS
 10
-69.098975
 20
46.38519
 11
-20.898752
 21
-1.815032
  0
LINE
  8
型材断面
  6
CONTINUOUS
 10
-20.898752
 20
-1.815032
 11
-69.098975
 21
-1.815032
  0
LINE
  8
型材断面
  6
CONTINUOUS
 10
-21.994735
 20
-0.71905
 11
-69.098975
 21
-0.71905
  0
LINE
  8
型材断面
  6
CONTINUOUS
 10
-20.898752
 20
-1.815032
 11
-20.898752
 21
46.38519
  0
LINE
  8
型材断面
  6
CONTINUOUS
 10
-21.994735
 20
-0.71905
 11
-21.994735
 21
46.38519
  0
LINE
  8
型材断面
  6
CONTINUOUS
 10
-69.098975
 20
46.38519
 11
-117.299197
 21
-1.815032
  0
LINE
  8
型材断面
  6
CONTINUOUS
 10
-117.299197
 20
-1.815032
 11
-69.098975
 21
-1.815032
  0
LINE
  8
型材断面
  6
CONTINUOUS
 10
-116.203215
 20
-0.71905
 11
-69.098975
 21
-0.71905
  0
LINE
  8
型材断面
  6
CONTINUOUS
 10
-117.299197
 20
-1.815032
 11
-117.299197
 21
46.38519
  0
LINE
  8
型材断面
  6
CONTINUOUS
 10
-116.203215
 20
-0.71905
 11
-116.203215
 21
46.38519
  0
LINE
  8
型材断面
  6
DASHDOT
 10
-114.098975
 20
1.38519
 11
-24.098975
 21
1.38519
  0
LINE
  8
型材断面
  6
CONTINUOUS
 10
-20.898755
 20
-97.780062
 11
-64.044685
 21
-54.634133
  0
LINE
  8
型材断面
  6
CONTINUOUS
 10
-21.994705
 20
-96.684112
 11
-69.098975
 21
-96.684112
  0
LINE
  8
型材断面
  6
CONTINUOUS
 10
-69.098975
 20
-98.480062
 11
-20.898752
 21
-98.480062
  0
LINE
  8
型材断面
  6
CONTINUOUS
 10
-69.098975
 20
-97.780062
 11
-20.898752
 21
-97.780062
  0
LINE
  8
型材断面
  6
CONTINUOUS
 10
-69.098975
 20
-101.430062
 11
-20.898755
 21
-101.430062
  0
LINE
  8
型材断面
  6
CONTINUOUS
 10
-20.898755
 20
-97.780062
 11
-20.898755
 21
-101.430062
  0
LINE
  8
型材断面
  6
CONTINUOUS
 10
-69.098975
 20
-102.130062
 11
-21.748752
 21
-102.130062
  0
LINE
  8
型材断面
  6
CONTINUOUS
 10
-21.748752
 20
-101.430062
 11
-21.748752
 21
-102.130062
  0
LINE
  8
型材断面
  6
CONTINUOUS
 10
-67.860343
 20
-54.634133
 11
-26.163918
 21
-96.330558
  0
LINE
  8
型材断面
  6
CONTINUOUS
 10
-67.71892
 20
-54.634133
 11
-26.022495
 21
-96.330558
  0
LINE
  8
型材断面
  6
CONTINUOUS
 10
-22.34826
 20
-96.330558
 11
-26.163918
 21
-96.330558
  0
LINE
  8
型材断面
  6
DASHDOT
 10
-24.098975
 20
-102.130062
 11
-24.098975
 21
-72.079842
  0
LINE
  8
型材断面
  6
CONTINUOUS
 10
-117.299195
 20
-97.780062
 11
-74.153265
 21
-54.634133
  0
LINE
  8
型材断面
  6
CONTINUOUS
 10
-116.203245
 20
-96.684112
 11
-69.098975
 21
-96.684112
  0
LINE
  8
型材断面
  6
CONTINUOUS
 10
-69.098975
 20
-98.480062
 11
-117.299197
 21
-98.480062
  0
LINE
  8
型材断面
  6
CONTINUOUS
 10
-69.098975
 20
-97.780062
 11
-117.299197
 21
-97.780062
  0
LINE
  8
型材断面
  6
CONTINUOUS
 10
-69.098975
 20
-101.430062
 11
-117.299195
 21
-101.430062
  0
LINE
  8
型材断面
  6
CONTINUOUS
 10
-117.299195
 20
-97.780062
 11
-117.299195
 21
-101.430062
  0
LINE
  8
型材断面
  6
CONTINUOUS
 10
-69.098975
 20
-102.130062
 11
-116.449198
 21
-102.130062
  0
LINE
  8
型材断面
  6
CONTINUOUS
 10
-116.449198
 20
-101.430062
 11
-116.449198
 21
-102.130062
  0
LINE
  8
型材断面
  6
CONTINUOUS
 10
-70.337608
 20
-54.634133
 11
-112.034033
 21
-96.330558
  0
LINE
  8
型材断面
  6
CONTINUOUS
 10
-70.47903
 20
-54.634133
 11
-112.175455
 21
-96.330558
  0
LINE
  8
型材断面
  6
CONTINUOUS
 10
-115.84969
 20
-96.330558
 11
-112.034033
 21
-96.330558
  0
LINE
  8
型材断面
  6
DASHDOT
 10
-114.098975
 20
-102.130062
 11
-114.098975
 21
-72.079842
  0
LINE
  8
型材断面
  6
DASHDOT
 10
-69.098975
 20
-102.130062
 11
-69.098975
 21
91.38519
  0
LINE
  8
型材断面
  6
DASHDOT
 10
-24.098975
 20
-102.130062
 11
-24.098975
 21
91.38519
  0
LINE
  8
型材断面
  6
DASHDOT
 10
-114.098975
 20
-102.130062
 11
-114.098975
 21
91.38519
  0
LINE
  8
型材断面
  6
CONTINUOUS
 10
-67.348975
 20
-96.330558
 11
-70.848975
 21
-96.330558
  0
LINE
  8
型材断面
  6
CONTINUOUS
 10
-67.348975
 20
-0.365528
 11
-70.848975
 21
-0.365528
  0
LINE
  8
型材断面
  6
CONTINUOUS
 10
-67.348975
 20
-96.330558
 11
-67.348975
 21
-55.1455
  0
LINE
  8
型材断面
  6
CONTINUOUS
 10
-70.848975
 20
-96.330558
 11
-70.848975
 21
-55.1455
  0
LINE
  8
型材断面
  6
CONTINUOUS
 10
-22.348257
 20
44.63519
 11
-22.348257
 21
48.13519
  0
LINE
  8
型材断面
  6
CONTINUOUS
 10
-70.848975
 20
93.135908
 11
-67.348975
 21
93.135908
  0
LINE
  8
型材断面
  6
CONTINUOUS
 10
-115.849693
 20
48.13519
 11
-115.849693
 21
44.63519
  0
LINE
  8
型材断面
  6
CONTINUOUS
 10
-18.827347
 20
46.38519
 11
-14.941587
 21
44.141745
  0
LINE
  8
型材断面
  6
CONTINUOUS
 10
-18.827347
 20
46.38519
 11
-14.941587
 21
48.628635
  0
LINE
  8
型材断面
  6
CONTINUOUS
 10
-14.941587
 20
48.628635
 11
-14.941587
 21
44.141745
  0
LINE
  8
型材断面
  6
CONTINUOUS
 10
-69.098975
 20
96.722345
 11
-71.34242
 21
100.608105
  0
LINE
  8
型材断面
  6
CONTINUOUS
 10
-69.098975
 20
96.722345
 11
-66.85553
 21
100.608105
  0
LINE
  8
型材断面
  6
CONTINUOUS
 10
-66.85553
 20
100.608105
 11
-71.34242
 21
100.608105
  0
LINE
  8
型材断面
  6
CONTINUOUS
 10
-119.370603
 20
46.38519
 11
-123.256362
 21
44.141745
  0
LINE
  8
型材断面
  6
CONTINUOUS
 10
-119.370603
 20
46.38519
 11
-123.256362
 21
48.628635
  0
LINE
  8
型材断面
  6
CONTINUOUS
 10
-123.256362
 20
48.628635
 11
-123.256362
 21
44.141745
  0
LINE
  8
型材断面
  6
CONTINUOUS
 10
-69.098975
 20
-3.951965
 11
-71.34242
 21
-7.837725
  0
LINE
  8
型材断面
  6
CONTINUOUS
 10
-69.098975
 20
-3.951965
 11
-66.85553
 21
-7.837725
  0
LINE
  8
型材断面
  6
CONTINUOUS
 10
-66.85553
 20
-7.837725
 11
-71.34242
 21
-7.837725
  0
LINE
  8
型材断面
  6
CONTINUOUS
 10
6.835045
 20
11.665827
 11
4.5916
 21
7.780068
  0
LINE
  8
型材断面
  6
CONTINUOUS
 10
6.835045
 20
11.665827
 11
9.07849
 21
7.780068
  0
LINE
  8
型材断面
  6
CONTINUOUS
 10
9.07849
 20
7.780068
 11
4.5916
 21
7.780068
  0
LINE
  8
型材断面
  6
CONTINUOUS
 10
-2.198835
 20
6.372175
 11
50.457845
 21
6.372175
  0
LINE
  8
型材断面
  6
CONTINUOUS
 10
-2.198835
 20
-0.683612
 11
50.457845
 21
-0.683612
  0
LINE
  8
型材断面
  6
CONTINUOUS
 10
-115.849693
 20
-0.365528
 11
-115.849693
 21
3.282438
  0
LINE
  8
型材断面
  6
CONTINUOUS
 10
-115.849693
 20
-0.365528
 11
-112.201728
 21
-0.365528
  0
LINE
  8
型材断面
  6
CONTINUOUS
 10
-112.201728
 20
-0.365528
 11
-70.57601
 21
41.26019
  0
LINE
  8
型材断面
  6
CONTINUOUS
 10
-115.849693
 20
3.282438
 11
-74.223978
 21
44.908152
  0
LINE
  8
型材断面
  6
CONTINUOUS
 10
-70.848975
 20
-0.365528
 11
-70.848975
 21
40.987225
  0
LINE
  8
型材断面
  6
CONTINUOUS
 10
-69.868905
 20
41.26019
 11
-70.848975
 21
40.28012
  0
LINE
  8
型材断面
  6
CONTINUOUS
 10
-115.849693
 20
44.63519
 11
-74.49694
 21
44.63519
  0
LINE
  8
型材断面
  6
CONTINUOUS
 10
-74.223978
 20
45.615258
 11
-75.204045
 21
44.63519
  0
LINE
  8
型材断面
  6
CONTINUOUS
 10
-22.348257
 20
-0.365528
 11
-22.348257
 21
3.282438
  0
LINE
  8
型材断面
  6
CONTINUOUS
 10
-22.348257
 20
-0.365528
 11
-25.996223
 21
-0.365528
  0
LINE
  8
型材断面
  6
CONTINUOUS
 10
-25.996223
 20
-0.365528
 11
-67.62194
 21
41.26019
  0
LINE
  8
型材断面
  6
CONTINUOUS
 10
-22.348257
 20
3.282438
 11
-63.973973
 21
44.908152
  0
LINE
  8
型材断面
  6
CONTINUOUS
 10
-68.329045
 20
41.26019
 11
-67.348975
 21
40.28012
  0
LINE
  8
型材断面
  6
CONTINUOUS
 10
-63.973973
 20
45.615258
 11
-62.993905
 21
44.63519
  0
LINE
  8
型材断面
  6
CONTINUOUS
 10
-22.348257
 20
93.135908
 11
-22.348257
 21
89.487942
  0
LINE
  8
型材断面
  6
CONTINUOUS
 10
-22.348257
 20
93.135908
 11
-25.996223
 21
93.135908
  0
LINE
  8
型材断面
  6
CONTINUOUS
 10
-25.996223
 20
93.135908
 11
-67.62194
 21
51.51019
  0
LINE
  8
型材断面
  6
CONTINUOUS
 10
-22.348257
 20
89.487942
 11
-63.973973
 21
47.862227
  0
LINE
  8
型材断面
  6
CONTINUOUS
 10
-68.329045
 20
51.51019
 11
-67.348975
 21
52.49026
  0
LINE
  8
型材断面
  6
CONTINUOUS
 10
-63.973973
 20
47.155122
 11
-62.993905
 21
48.13519
  0
LINE
  8
型材断面
  6
CONTINUOUS
 10
-115.849693
 20
93.135908
 11
-115.849693
 21
89.487942
  0
LINE
  8
型材断面
  6
CONTINUOUS
 10
-115.849693
 20
93.135908
 11
-112.201728
 21
93.135908
  0
LINE
  8
型材断面
  6
CONTINUOUS
 10
-112.201728
 20
93.135908
 11
-70.57601
 21
51.51019
  0
LINE
  8
型材断面
  6
CONTINUOUS
 10
-115.849693
 20
89.487942
 11
-74.223978
 21
47.862227
  0
LINE
  8
型材断面
  6
CONTINUOUS
 10
-69.868905
 20
51.51019
 11
-70.848975
 21
52.49026
  0
LINE
  8
型材断面
  6
CONTINUOUS
 10
-74.223978
 20
47.155122
 11
-75.204045
 21
48.13519
  0
LINE
  8
型材断面
  6
CONTINUOUS
 10
-67.348975
 20
-0.365528
 11
-67.348975
 21
40.987225
  0
LINE
  8
型材断面
  6
CONTINUOUS
 10
-22.348257
 20
44.63519
 11
-63.70101
 21
44.63519
  0
LINE
  8
型材断面
  6
CONTINUOUS
 10
-22.348257
 20
48.13519
 11
-63.70101
 21
48.13519
  0
LINE
  8
型材断面
  6
CONTINUOUS
 10
-67.348975
 20
93.135908
 11
-67.348975
 21
51.783155
  0
LINE
  8
型材断面
  6
CONTINUOUS
 10
-70.848975
 20
93.135908
 11
-70.848975
 21
51.783155
  0
LINE
  8
型材断面
  6
CONTINUOUS
 10
-115.849693
 20
48.13519
 11
-74.49694
 21
48.13519
  0
LINE
  8
型材断面
  6
CONTINUOUS
 10
-69.868905
 20
-54.634133
 11
-70.848975
 21
-55.614203
  0
LINE
  8
型材断面
  6
CONTINUOUS
 10
-68.329045
 20
-54.634133
 11
-67.348975
 21
-55.614203
  0
LINE
  8
型材断面
  6
CONTINUOUS
 10
79.586817
 20
-21.678417
 11
103.51844
 21
-21.678417
  0
LINE
  8
ガラス
  6
CONTINUOUS
 10
-78.02368
 20
21.576765
 11
-81.896315
 21
17.70413
  0
LINE
  8
ガラス
  6
CONTINUOUS
 10
-78.904003
 20
19.978407
 11
-80.297958
 21
18.584453
  0
LINE
  8
ガラス
  6
CONTINUOUS
 10
-79.622037
 20
20.696443
 11
-81.015992
 21
19.302487
  0
LINE
  8
ガラス
  6
CONTINUOUS
 10
-56.792037
 20
21.576765
 11
-60.664672
 21
17.70413
  0
LINE
  8
ガラス
  6
CONTINUOUS
 10
-57.67236
 20
19.978407
 11
-59.066315
 21
18.584453
  0
LINE
  8
ガラス
  6
CONTINUOUS
 10
-58.390395
 20
20.696443
 11
-59.78435
 21
19.302487
  0
LINE
  8
ガラス
  6
CONTINUOUS
 10
-78.35133
 20
-78.67912
 11
-82.223965
 21
-82.551755
  0
LINE
  8
ガラス
  6
CONTINUOUS
 10
-79.231653
 20
-80.277477
 11
-80.625608
 21
-81.671432
  0
LINE
  8
ガラス
  6
CONTINUOUS
 10
-79.949687
 20
-79.559443
 11
-81.343642
 21
-80.953398
  0
LINE
  8
ガラス
  6
CONTINUOUS
 10
-56.9231
 20
-78.67912
 11
-60.795735
 21
-82.551755
  0
LINE
  8
ガラス
  6
CONTINUOUS
 10
-57.803423
 20
-80.277477
 11
-59.197378
 21
-81.671432
  0
LINE
  8
ガラス
  6
CONTINUOUS
 10
-58.521457
 20
-79.559443
 11
-59.915413
 21
-80.953398
  0
LINE
  8
ガラス
  6
CONTINUOUS
 10
-40.580462
 20
38.57675
 11
-44.453097
 21
34.704115
  0
LINE
  8
ガラス
  6
CONTINUOUS
 10
-41.460785
 20
36.978392
 11
-42.85474
 21
35.584438
  0
LINE
  8
ガラス
  6
CONTINUOUS
 10
-42.17882
 20
37.696428
 11
-43.572775
 21
36.302472
  0
LINE
  8
ガラス
  6
CONTINUOUS
 10
-40.580462
 20
58.124827
 11
-44.453097
 21
54.252192
  0
LINE
  8
ガラス
  6
CONTINUOUS
 10
-41.460785
 20
56.52647
 11
-42.85474
 21
55.132515
  0
LINE
  8
ガラス
  6
CONTINUOUS
 10
-42.17882
 20
57.244505
 11
-43.572775
 21
55.85055
  0
LINE
  8
ガラス
  6
CONTINUOUS
 10
-56.20227
 20
73.718863
 11
-60.074905
 21
69.846227
  0
LINE
  8
ガラス
  6
CONTINUOUS
 10
-57.082593
 20
72.120505
 11
-58.476548
 21
70.72655
  0
LINE
  8
ガラス
  6
CONTINUOUS
 10
-57.800627
 20
72.83854
 11
-59.194582
 21
71.444585
  0
LINE
  8
ガラス
  6
CONTINUOUS
 10
-77.171792
 20
73.718863
 11
-81.044427
 21
69.846227
  0
LINE
  8
ガラス
  6
CONTINUOUS
 10
-78.052115
 20
72.120505
 11
-79.44607
 21
70.72655
  0
LINE
  8
ガラス
  6
CONTINUOUS
 10
-78.77015
 20
72.83854
 11
-80.164105
 21
71.444585
  0
LINE
  8
ガラス
  6
CONTINUOUS
 10
-92.90793
 20
58.563328
 11
-96.780565
 21
54.690692
  0
LINE
  8
ガラス
  6
CONTINUOUS
 10
-93.788252
 20
56.96497
 11
-95.182208
 21
55.571015
  0
LINE
  8
ガラス
  6
CONTINUOUS
 10
-94.506287
 20
57.683005
 11
-95.900242
 21
56.28905
  0
LINE
  8
ガラス
  6
CONTINUOUS
 10
-92.90793
 20
37.593805
 11
-96.780565
 21
33.72117
  0
LINE
  8
ガラス
  6
CONTINUOUS
 10
-93.788252
 20
35.995448
 11
-95.182208
 21
34.601492
  0
LINE
  8
ガラス
  6
CONTINUOUS
 10
-94.506287
 20
36.713482
 11
-95.900242
 21
35.319528
  0
TEXT
  7
TextStyle03
  8
文字
  6
CONTINUOUS
 10
66.95
 20
89.45
  1
ＮＳコード：ＮＳ４ＣＫ
 40
5.0
 72
     5
 11
128.2
 21
89.45
  0
TEXT
  7
TextStyle03
  8
文字
  6
CONTINUOUS
 10
66.775
 20
111.925
  1
シリーズ：ＴＦ４Ｋ
 40
5.0
 72
     5
 11
116.775
 21
111.925
  0
TEXT
  7
TextStyle03
  8
文字
  6
CONTINUOUS
 10
66.775
 20
106.3
  1
　　　　　四角錘（固定）1800×1800タイプ
 40
5.0
 72
     5
 11
178.65
 21
106.3
  0
TEXT
  7
TextStyle03
  8
文字
  6
CONTINUOUS
 10
66.775
 20
100.675
  1
図面名　：外観姿図
 40
5.0
 72
     5
 11
116.775
 21
100.675
  0
TEXT
  7
TextStyle03
  8
文字
  6
CONTINUOUS
 10
66.775
 20
95.05
  1
　　　　　　
 40
5.0
 72
     5
 11
99.9
 21
95.05
  0
TEXT
  7
TextStyle03
  8
文字
  6
CONTINUOUS
 10
-131.35
 20
109.575
  1
アンカーピッチ
 40
3.0
 72
     5
 11
-108.1
 21
109.575
  0
TEXT
  7
TextStyle03
  8
文字
  6
CONTINUOUS
 10
-134.3
 20
-13.375
  1
アンカーピッチ
 40
3.0
 50
90.0
 72
     5
 11
-134.3
 21
9.875
  0
TEXT
  7
TextStyle03
  8
文字
  6
CONTINUOUS
 10
11.15
 20
8.125
  1
は排水穴位置を示す
 40
3.0
 72
     5
 11
41.15
 21
8.125
  0
TEXT
  7
TextStyle03
  8
文字
  6
CONTINUOUS
 10
5.55
 20
0.725
  1
アンカー数量　１２ヶ所
 40
3.0
 72
     5
 11
42.3
 21
0.725
  0
TEXT
  7
TextStyle03
  8
文字
  6
CONTINUOUS
 10
131.825
 20
-74.675
  1
本図×４枚
 40
3.0
 72
     5
 11
148.325
 21
-74.675
  0
TEXT
  7
TextStyle03
  8
文字
  6
CONTINUOUS
 10
131.825
 20
-78.05
  1
逆図×４枚
 40
3.0
 72
     5
 11
148.325
 21
-78.05
  0
TEXT
  7
TextStyle03
  8
文字
  6
CONTINUOUS
 10
83.25
 20
-20.475
  1
ガラス寸法
 40
3.0
 72
     5
 11
99.75
 21
-20.475
  0
INSERT
  2
*DIM_0002
  8
寸法
  6
CONTINUOUS
 10
0.0
 20
0.0
  0
INSERT
  2
*DIM_0003
  8
寸法
  6
CONTINUOUS
 10
0.0
 20
0.0
  0
INSERT
  2
*DIM_0004
  8
寸法
  6
CONTINUOUS
 10
0.0
 20
0.0
  0
INSERT
  2
*DIM_0005
  8
寸法
  6
CONTINUOUS
 10
0.0
 20
0.0
  0
INSERT
  2
*DIM_0006
  8
寸法
  6
CONTINUOUS
 10
0.0
 20
0.0
  0
INSERT
  2
*DIM_0007
  8
寸法
  6
CONTINUOUS
 10
0.0
 20
0.0
  0
INSERT
  2
*DIM_0008
  8
寸法
  6
CONTINUOUS
 10
0.0
 20
0.0
  0
INSERT
  2
*DIM_0009
  8
寸法
  6
CONTINUOUS
 10
0.0
 20
0.0
  0
INSERT
  2
*DIM_0010
  8
寸法
  6
CONTINUOUS
 10
0.0
 20
0.0
  0
INSERT
  2
*DIM_0011
  8
寸法
  6
CONTINUOUS
 10
0.0
 20
0.0
  0
INSERT
  2
*DIM_0012
  8
寸法
  6
CONTINUOUS
 10
0.0
 20
0.0
  0
INSERT
  2
*DIM_0013
  8
寸法
  6
CONTINUOUS
 10
0.0
 20
0.0
  0
INSERT
  2
*DIM_0014
  8
寸法
  6
CONTINUOUS
 10
0.0
 20
0.0
  0
LINE
  8
曲げ物
  6
CONTINUOUS
 10
157.21524
 20
-79.548498
 11
113.042893
 21
-17.079365
  0
LINE
  8
曲げ物
  6
CONTINUOUS
 10
113.042893
 20
-17.079365
 11
113.042893
 21
-79.548498
  0
LINE
  8
曲げ物
  6
CONTINUOUS
 10
157.21524
 20
-79.548498
 11
113.042893
 21
-79.548498
  0
ENDSEC
  0
EOF
