  0
SECTION
  2
HEADER
  9
$EXTMIN
 10
-210.0
 20
-148.5
  9
$EXTMAX
 10
210.0
 20
148.5
  9
$PDMODE
 70
    32
  9
$PDSIZE
 40
1.5
  9
$LTSCALE
 40
10.0
  0
ENDSEC
  0
SECTION
  2
TABLES
  0
TABLE
  2
LTYPE
 70
    15
  0
LTYPE
  2
CONTINUOUS
 70
    64
  3
実線
 72
    65
 73
     0
 40
0.0
  0
LTYPE
  2
DASHED
 70
    64
  3
破線A
 72
    65
 73
     2
 40
0.6
 49
0.4
 49
-0.2
  0
LTYPE
  2
DASHEDX2
 70
    64
  3
破線B
 72
    65
 73
     2
 40
1.3
 49
0.9
 49
-0.4
  0
LTYPE
  2
DASHDOT
 70
    64
  3
１点鎖線A
 72
    65
 73
     4
 40
0.5375
 49
0.375
 49
-0.05
 49
0.0625
 49
-0.05
  0
LTYPE
  2
DASHDOTX2
 70
    64
  3
１点鎖線B
 72
    65
 73
     4
 40
1.075
 49
0.75
 49
-0.1
 49
0.125
 49
-0.1
  0
LTYPE
  2
DIVIDE2
 70
    64
  3
２点鎖線A
 72
    65
 73
     6
 40
0.5125
 49
0.3
 49
-0.0375
 49
0.05
 49
-0.0375
 49
0.05
 49
-0.0375
  0
LTYPE
  2
DIVIDE
 70
    64
  3
２点鎖線B
 72
    65
 73
     6
 40
1.05
 49
0.55
 49
-0.1
 49
0.1
 49
-0.1
 49
0.1
 49
-0.1
  0
LTYPE
  2
DOT
 70
    64
  3
点線A
 72
    65
 73
     2
 40
0.1125
 49
0.0625
 49
-0.05
  0
LTYPE
  2
DOTX2
 70
    64
  3
点線B
 72
    65
 73
     2
 40
0.275
 49
0.15
 49
-0.125
  0
LTYPE
  2
CONTINUOUS
 70
    64
  3
実線
 72
    65
 73
     0
 40
0.0
  0
LTYPE
  2
CONTINUOUS
 70
    64
  3
実線
 72
    65
 73
     0
 40
0.0
  0
LTYPE
  2
CONTINUOUS
 70
    64
  3
実線
 72
    65
 73
     0
 40
0.0
  0
LTYPE
  2
CONTINUOUS
 70
    64
  3
実線
 72
    65
 73
     0
 40
0.0
  0
LTYPE
  2
CONTINUOUS
 70
    64
  3
実線
 72
    65
 73
     0
 40
0.0
  0
LTYPE
  2
CONTINUOUS
 70
    64
  3
実線
 72
    65
 73
     0
 40
0.0
  0
ENDTAB
  0
TABLE
  2
LAYER
 70
    35
  0
LAYER
  2
通り芯
 70
     0
 62
    15
  6
CONTINUOUS
  0
LAYER
  2
補助線
 70
     0
 62
    16
  6
DOT
  0
LAYER
  2
躯体
 70
     0
 62
    31
  6
CONTINUOUS
  0
LAYER
  2
型材
 70
     0
 62
    32
  6
CONTINUOUS
  0
LAYER
  2
型材断面
 70
     0
 62
    47
  6
CONTINUOUS
  0
LAYER
  2
ガラス
 70
     0
 62
    48
  6
CONTINUOUS
  0
LAYER
  2
ゴム等
 70
     0
 62
    63
  6
CONTINUOUS
  0
LAYER
  2
ボルト／ビス
 70
     0
 62
    64
  6
CONTINUOUS
  0
LAYER
  2
文字
 70
     0
 62
    79
  6
CONTINUOUS
  0
LAYER
  2
寸法
 70
     0
 62
    80
  6
CONTINUOUS
  0
LAYER
  2
ﾊｯﾁﾝｸﾞ
 70
     0
 62
    95
  6
CONTINUOUS
  0
LAYER
  2
別途部材
 70
     0
 62
    96
  6
CONTINUOUS
  0
LAYER
  2
曲げ物
 70
     0
 62
   111
  6
CONTINUOUS
  0
LAYER
  2
鉄骨等
 70
     0
 62
   112
  6
CONTINUOUS
  0
LAYER
  2
St
 70
     0
 62
   127
  6
CONTINUOUS
  0
LAYER
  2
その他部品等
 70
     0
 62
   128
  6
CONTINUOUS
  0
LAYER
  2
ｶﾞｽｹｯﾄ
 70
     0
 62
   143
  6
CONTINUOUS
  0
LAYER
  2
ｽｹｯﾁ
 70
     0
 62
    14
  6
CONTINUOUS
  0
LAYER
  2
0
 70
     0
 62
    17
  6
CONTINUOUS
  0
LAYER
  2
1
 70
     0
 62
    30
  6
CONTINUOUS
  0
LAYER
  2
4
 70
     0
 62
    33
  6
CONTINUOUS
  0
LAYER
  2
ﾚｲﾔ3
 70
     0
 62
    46
  6
CONTINUOUS
  0
LAYER
  2
外形線
 70
     0
 62
    49
  6
CONTINUOUS
  0
LAYER
  2
部品
 70
     0
 62
    14
  6
CONTINUOUS
  0
LAYER
  2
サッシ芯
 70
     0
 62
    17
  6
DASHDOTX2
  0
LAYER
  2
寸法線
 70
     0
 62
    62
  6
CONTINUOUS
  0
LAYER
  2
姿図外形線
 70
     0
 62
    65
  6
CONTINUOUS
  0
LAYER
  2
姿補助線
 70
     0
 62
    30
  6
CONTINUOUS
  0
LAYER
  2
透視線
 70
     0
 62
    78
  6
DOT
  0
LAYER
  2
用紙
 70
     0
 62
    81
  6
CONTINUOUS
  0
LAYER
  2
実線図枠
 70
     0
 62
    94
  6
CONTINUOUS
  0
LAYER
  2
補助図枠
 70
     0
 62
    97
  6
CONTINUOUS
  0
LAYER
  2
建具記号
 70
     0
 62
   110
  6
CONTINUOUS
  0
LAYER
  2
補助文字
 70
     0
 62
   113
  6
CONTINUOUS
  0
LAYER
  2
01
 70
     0
 62
     1
  6
CONTINUOUS
  0
ENDTAB
  0
TABLE
  2
STYLE
 70
    10
  0
STYLE
  2
STANDARD
 70
     0
 40
1.0
 41
1.0
 42
1.0
 50
0.0
 71
     0
  3
TXT
  4
BIGFONT
  0
STYLE
  2
TATE
 70
     4
 40
1.0
 41
1.0
 42
1.0
 50
0.0
 71
     0
  3
TXT
  4
BIGFONT
  0
STYLE
  2
TextStyle03
 70
     0
 40
1.0
 41
1.0
 42
1.0
 50
0.0
 71
     0
  3
MONOTXT
  4
BIGFONT
  0
STYLE
  2
TextStyle04
 70
     0
 40
1.0
 41
1.0
 42
1.0
 50
0.0
 71
     0
  3
MONOTXT
  4
BIGFONT
  0
STYLE
  2
TextStyle05
 70
     0
 40
1.0
 41
1.0
 42
1.0
 50
0.0
 71
     0
  3
MONOTXT
  4
BIGFONT
  0
STYLE
  2
TextStyle06
 70
     0
 40
1.0
 41
1.0
 42
1.0
 50
0.0
 71
     0
  3
MONOTXT
  4
BIGFONT
  0
STYLE
  2
TextStyle07
 70
     0
 40
1.0
 41
1.0
 42
1.0
 50
0.0
 71
     0
  3
MONOTXT
  4
BIGFONT
  0
STYLE
  2
TextStyle08
 70
     0
 40
1.0
 41
1.0
 42
1.0
 50
0.0
 71
     0
  3
MONOTXT
  4
BIGFONT
  0
STYLE
  2
TextStyle09
 70
     0
 40
1.0
 41
1.0
 42
1.0
 50
0.0
 71
     0
  3
MONOTXT
  4
BIGFONT
  0
STYLE
  2
TextStyle10
 70
     0
 40
1.0
 41
1.0
 42
1.0
 50
0.0
 71
     0
  3
MONOTXT
  4
BIGFONT
  0
ENDTAB
  0
ENDSEC
  0
SECTION
  2
BLOCKS
  0
BLOCK
  2
*GRP_0001
 70
    65
 10
0.0
 20
0.0
  0
LINE
  8
型材断面
  6
CONTINUOUS
 10
195.0
 20
133.5
 11
195.0
 21
-133.5
  0
LINE
  8
型材断面
  6
CONTINUOUS
 10
195.0
 20
-133.5
 11
-185.0
 21
-133.5
  0
LINE
  8
型材断面
  6
CONTINUOUS
 10
-185.0
 20
-133.5
 11
-185.0
 21
133.5
  0
LINE
  8
型材断面
  6
CONTINUOUS
 10
195.0
 20
133.5
 11
-185.0
 21
133.5
  0
LINE
  8
型材断面
  6
CONTINUOUS
 10
145.0
 20
-133.5
 11
145.0
 21
-118.5
  0
LINE
  8
型材断面
  6
CONTINUOUS
 10
195.0
 20
-118.5
 11
145.0
 21
-118.5
  0
ENDBLK
  0
BLOCK
  2
*DIM_0002
 70
    65
 10
0.0
 20
0.0
  0
LINE
  8
寸法
  6
BYBLOCK
 62
     0
 10
-97.669092
 20
-60.58216
 11
-97.669092
 21
-44.242515
  0
LINE
  8
寸法
  6
BYBLOCK
 62
     0
 10
-87.419088
 20
-60.58216
 11
-87.419088
 21
-44.242515
  0
LINE
  8
寸法
  6
BYBLOCK
 62
     0
 10
-97.669092
 20
-44.242515
 11
-87.419088
 21
-44.242515
  0
POINT
  8
寸法
 62
     0
 10
-97.669092
 20
-44.242515
  0
POINT
  8
寸法
 62
     0
 10
-87.419088
 20
-44.242515
  0
TEXT
  7
TextStyle03
  8
寸法
  6
CONTINUOUS
 62
     0
 10
-95.0125
 20
-43.875
  1
205
 40
3.0
 72
     5
 11
-90.1375
 21
-43.875
  0
ENDBLK
  0
BLOCK
  2
*DIM_0003
 70
    65
 10
0.0
 20
0.0
  0
LINE
  8
寸法
  6
CONTINUOUS
 10
-86.419088
 20
-62.00716
 11
-76.492355
 21
-62.00716
  0
LINE
  8
寸法
  6
CONTINUOUS
 10
-76.492355
 20
-56.882162
 11
-76.492355
 21
-62.00716
  0
POINT
  8
寸法
 10
-76.492355
 20
-56.882162
  0
POINT
  8
寸法
 10
-76.492355
 20
-62.00716
  0
TEXT
  7
TextStyle03
  8
寸法
  6
CONTINUOUS
 10
-73.5
 20
-63.575
  1
102.5
 40
3.0
 50
90.0
 72
     5
 11
-73.5
 21
-55.325
  0
ENDBLK
  0
BLOCK
  2
*DIM_0004
 70
    65
 10
0.0
 20
0.0
  0
LINE
  8
寸法
  6
CONTINUOUS
 10
-61.84387
 20
-86.373802
 11
-51.883978
 21
-86.373802
  0
LINE
  8
寸法
  6
CONTINUOUS
 10
-61.84387
 20
-82.723802
 11
-51.883978
 21
-82.723802
  0
LINE
  8
寸法
  6
CONTINUOUS
 10
-51.883978
 20
-86.373802
 11
-51.883978
 21
-82.723802
  0
POINT
  8
寸法
 10
-51.883978
 20
-86.373802
  0
POINT
  8
寸法
 10
-51.883978
 20
-82.723802
  0
TEXT
  7
TextStyle03
  8
寸法
  6
CONTINUOUS
 10
-52.275
 20
-86.14375
  1
73
 40
3.0
 50
90.0
 72
     5
 11
-52.275
 21
-82.95625
  0
ENDBLK
  0
BLOCK
  2
*DIM_0005
 70
    65
 10
0.0
 20
0.0
  0
LINE
  8
寸法
  6
CONTINUOUS
 10
-66.84387
 20
-77.723802
 11
-66.84387
 21
-27.569693
  0
LINE
  8
寸法
  6
CONTINUOUS
 10
-70.04409
 20
-27.569693
 11
-66.84387
 21
-27.569693
  0
POINT
  8
寸法
 10
-70.04409
 20
-27.569693
  0
POINT
  8
寸法
 10
-66.84387
 20
-27.569693
  0
TEXT
  7
TextStyle03
  8
寸法
  6
CONTINUOUS
 10
-70.04375
 20
-27.2
  1
64
 40
3.0
 72
     5
 11
-66.85625
 21
-27.2
  0
ENDBLK
  0
BLOCK
  2
*DIM_0006
 70
    65
 10
0.0
 20
0.0
  0
LINE
  8
寸法
  6
CONTINUOUS
 10
-118.24431
 20
-77.723802
 11
-118.24431
 21
-27.569693
  0
LINE
  8
寸法
  6
CONTINUOUS
 10
-115.04409
 20
-27.569693
 11
-118.24431
 21
-27.569693
  0
POINT
  8
寸法
 10
-115.04409
 20
-27.569693
  0
POINT
  8
寸法
 10
-118.24431
 20
-27.569693
  0
TEXT
  7
TextStyle03
  8
寸法
  6
CONTINUOUS
 10
-118.24375
 20
-27.2
  1
64
 40
3.0
 72
     5
 11
-115.05625
 21
-27.2
  0
ENDBLK
  0
BLOCK
  2
*DIM_0007
 70
    65
 10
0.0
 20
0.0
  0
LINE
  8
寸法
  6
CONTINUOUS
 10
-115.04409
 20
-27.569693
 11
-70.04409
 21
-27.569693
  0
POINT
  8
寸法
 10
-115.04409
 20
-27.569693
  0
POINT
  8
寸法
 10
-70.04409
 20
-27.569693
  0
TEXT
  7
TextStyle03
  8
寸法
  6
CONTINUOUS
 10
-103.425
 20
-27.2
  1
呼称寸法　900
 40
3.0
 72
     5
 11
-81.675
 21
-27.2
  0
ENDBLK
  0
BLOCK
  2
*DIM_0008
 70
    65
 10
0.0
 20
0.0
  0
LINE
  8
寸法
  6
BYBLOCK
 62
     0
 10
-107.54409
 20
62.44145
 11
-107.54409
 21
80.380465
  0
LINE
  8
寸法
  6
BYBLOCK
 62
     0
 10
-77.54409
 20
62.44145
 11
-77.54409
 21
80.380465
  0
LINE
  8
寸法
  6
BYBLOCK
 62
     0
 10
-107.54409
 20
80.380465
 11
-77.54409
 21
80.380465
  0
POINT
  8
寸法
 62
     0
 10
-107.54409
 20
80.380465
  0
POINT
  8
寸法
 62
     0
 10
-77.54409
 20
80.380465
  0
TEXT
  7
TextStyle03
  8
寸法
  6
CONTINUOUS
 62
     0
 10
-94.9625
 20
80.725
  1
600
 40
3.0
 72
     5
 11
-90.0875
 21
80.725
  0
ENDBLK
  0
BLOCK
  2
*DIM_0009
 70
    65
 10
0.0
 20
0.0
  0
LINE
  8
寸法
  6
BYBLOCK
 62
     0
 10
-116.04409
 20
61.44145
 11
-138.952333
 21
61.44145
  0
LINE
  8
寸法
  6
BYBLOCK
 62
     0
 10
-116.04409
 20
38.94145
 11
-138.952333
 21
38.94145
  0
LINE
  8
寸法
  6
BYBLOCK
 62
     0
 10
-138.952333
 20
61.44145
 11
-138.952333
 21
38.94145
  0
POINT
  8
寸法
 62
     0
 10
-138.952333
 20
61.44145
  0
POINT
  8
寸法
 62
     0
 10
-138.952333
 20
38.94145
  0
TEXT
  7
TextStyle03
  8
寸法
  6
CONTINUOUS
 62
     0
 10
-139.3
 20
47.7125
  1
450
 40
3.0
 50
90.0
 72
     5
 11
-139.3
 21
52.5875
  0
ENDBLK
  0
BLOCK
  2
*DIM_0010
 70
    65
 10
0.0
 20
0.0
  0
LINE
  8
寸法
  6
BYBLOCK
 62
     0
 10
-116.04409
 20
16.44145
 11
-138.952333
 21
16.44145
  0
LINE
  8
寸法
  6
BYBLOCK
 62
     0
 10
-138.952333
 20
38.94145
 11
-138.952333
 21
16.44145
  0
POINT
  8
寸法
 62
     0
 10
-138.952333
 20
16.44145
  0
TEXT
  7
TextStyle03
  8
寸法
  6
CONTINUOUS
 62
     0
 10
-139.3
 20
25.2125
  1
450
 40
3.0
 50
90.0
 72
     5
 11
-139.3
 21
30.0875
  0
ENDBLK
  0
BLOCK
  2
*DIM_0011
 70
    65
 10
0.0
 20
0.0
  0
LINE
  8
寸法
  6
BYBLOCK
 62
     0
 10
-89.54409
 20
-56.882162
 11
-51.883978
 21
-56.882162
  0
LINE
  8
寸法
  6
BYBLOCK
 62
     0
 10
-51.883978
 20
-82.723802
 11
-51.883978
 21
-56.882162
  0
POINT
  8
寸法
 62
     0
 10
-51.883978
 20
-82.723802
  0
POINT
  8
寸法
 62
     0
 10
-51.883978
 20
-56.882162
  0
TEXT
  7
TextStyle03
  8
寸法
  6
CONTINUOUS
 62
     0
 10
-52.275
 20
-73.95
  1
516.8
 40
3.0
 50
90.0
 72
     5
 11
-52.275
 21
-65.7
  0
ENDBLK
  0
BLOCK
  2
*DIM_0012
 70
    65
 10
0.0
 20
0.0
  0
LINE
  8
寸法
  6
BYBLOCK
 62
     0
 10
110.035817
 20
-87.711342
 11
110.035817
 21
-97.647247
  0
LINE
  8
寸法
  6
BYBLOCK
 62
     0
 10
155.080513
 20
-87.711342
 11
155.080513
 21
-97.647247
  0
LINE
  8
寸法
  6
BYBLOCK
 62
     0
 10
110.035817
 20
-97.647247
 11
155.080513
 21
-97.647247
  0
POINT
  8
寸法
 62
     0
 10
110.035817
 20
-97.647247
  0
POINT
  8
寸法
 62
     0
 10
155.080513
 20
-97.647247
  0
TEXT
  7
TextStyle03
  8
寸法
  6
CONTINUOUS
 62
     0
 10
128.425
 20
-97.3
  1
900.9
 40
3.0
 72
     5
 11
136.675
 21
-97.3
  0
ENDBLK
  0
BLOCK
  2
*DIM_0013
 70
    65
 10
0.0
 20
0.0
  0
LINE
  8
寸法
  6
BYBLOCK
 62
     0
 10
158.080513
 20
-84.711342
 11
166.511285
 21
-84.711342
  0
LINE
  8
寸法
  6
BYBLOCK
 62
     0
 10
135.558165
 20
-52.859933
 11
166.511285
 21
-52.859933
  0
LINE
  8
寸法
  6
BYBLOCK
 62
     0
 10
166.511285
 20
-84.711342
 11
166.511285
 21
-52.859933
  0
POINT
  8
寸法
 62
     0
 10
166.511285
 20
-84.711342
  0
POINT
  8
寸法
 62
     0
 10
166.511285
 20
-52.859933
  0
TEXT
  7
TextStyle03
  8
寸法
  6
CONTINUOUS
 62
     0
 10
166.125
 20
-71.2375
  1
637
 40
3.0
 50
90.0
 72
     5
 11
166.125
 21
-66.3625
  0
ENDBLK
  0
ENDSEC
  0
SECTION
  2
ENTITIES
  0
POLYLINE
  8
通り芯
  6
CONTINUOUS
 66
     1
 70
     1
  0
VERTEX
  8
通り芯
 10
-210.0
 20
-148.5
  0
VERTEX
  8
通り芯
 10
210.0
 20
-148.5
  0
VERTEX
  8
通り芯
 10
210.0
 20
148.5
  0
VERTEX
  8
通り芯
 10
-210.0
 20
148.5
  0
SEQEND
  0
INSERT
  2
*GRP_0001
  8
型材断面
  6
CONTINUOUS
 10
0.0
 20
0.0
  0
LINE
  8
型材断面
  6
CONTINUOUS
 10
-87.419088
 20
33.81645
 11
-92.544088
 21
33.81645
  0
LINE
  8
型材断面
  6
CONTINUOUS
 10
-87.419088
 20
33.81645
 11
-87.419088
 21
38.94145
  0
LINE
  8
型材断面
  6
CONTINUOUS
 10
-87.419088
 20
44.06645
 11
-92.544088
 21
44.06645
  0
LINE
  8
型材断面
  6
CONTINUOUS
 10
-87.419088
 20
44.06645
 11
-87.419088
 21
38.94145
  0
LINE
  8
型材断面
  6
CONTINUOUS
 10
-97.669092
 20
44.06645
 11
-92.544092
 21
44.06645
  0
LINE
  8
型材断面
  6
CONTINUOUS
 10
-97.669092
 20
44.06645
 11
-97.669092
 21
38.94145
  0
LINE
  8
型材断面
  6
CONTINUOUS
 10
-97.669092
 20
33.81645
 11
-92.544092
 21
33.81645
  0
LINE
  8
型材断面
  6
CONTINUOUS
 10
-97.669092
 20
33.81645
 11
-97.669092
 21
38.94145
  0
LINE
  8
型材断面
  6
CONTINUOUS
 10
-97.669092
 20
-62.00716
 11
-97.59838
 21
-62.077873
  0
LINE
  8
型材断面
  6
CONTINUOUS
 10
-97.669092
 20
-62.00716
 11
-92.544092
 21
-62.00716
  0
LINE
  8
型材断面
  6
CONTINUOUS
 10
-97.59838
 20
-62.077873
 11
-92.544092
 21
-62.077873
  0
LINE
  8
型材断面
  6
CONTINUOUS
 10
-97.669092
 20
-62.00716
 11
-92.54409
 21
-56.882162
  0
LINE
  8
型材断面
  6
CONTINUOUS
 10
-87.419088
 20
-62.00716
 11
-87.4898
 21
-62.077873
  0
LINE
  8
型材断面
  6
CONTINUOUS
 10
-87.419088
 20
-62.00716
 11
-92.544088
 21
-62.00716
  0
LINE
  8
型材断面
  6
CONTINUOUS
 10
-87.4898
 20
-62.077873
 11
-92.544088
 21
-62.077873
  0
LINE
  8
型材断面
  6
CONTINUOUS
 10
-87.419088
 20
-62.00716
 11
-92.54409
 21
-56.882162
  0
LINE
  8
型材断面
  6
DASHDOT
 10
-115.04409
 20
38.94145
 11
-70.04409
 21
38.94145
  0
LINE
  8
型材断面
  6
CONTINUOUS
 10
-92.54409
 20
38.94145
 11
-66.843868
 21
64.641672
  0
LINE
  8
型材断面
  6
CONTINUOUS
 10
-66.843868
 20
64.641672
 11
-92.54409
 21
64.641672
  0
LINE
  8
型材断面
  6
CONTINUOUS
 10
-67.93985
 20
63.54569
 11
-92.54409
 21
63.54569
  0
LINE
  8
型材断面
  6
CONTINUOUS
 10
-66.843868
 20
64.641672
 11
-66.843868
 21
38.94145
  0
LINE
  8
型材断面
  6
CONTINUOUS
 10
-67.93985
 20
63.54569
 11
-67.93985
 21
38.94145
  0
LINE
  8
型材断面
  6
CONTINUOUS
 10
-92.54409
 20
38.94145
 11
-118.244312
 21
64.641672
  0
LINE
  8
型材断面
  6
CONTINUOUS
 10
-118.244312
 20
64.641672
 11
-92.54409
 21
64.641672
  0
LINE
  8
型材断面
  6
CONTINUOUS
 10
-117.14833
 20
63.54569
 11
-92.54409
 21
63.54569
  0
LINE
  8
型材断面
  6
CONTINUOUS
 10
-118.244312
 20
64.641672
 11
-118.244312
 21
38.94145
  0
LINE
  8
型材断面
  6
CONTINUOUS
 10
-117.14833
 20
63.54569
 11
-117.14833
 21
38.94145
  0
LINE
  8
型材断面
  6
DASHDOT
 10
-115.04409
 20
61.44145
 11
-70.04409
 21
61.44145
  0
LINE
  8
型材断面
  6
CONTINUOUS
 10
-92.54409
 20
38.94145
 11
-66.843868
 21
13.241228
  0
LINE
  8
型材断面
  6
CONTINUOUS
 10
-66.843868
 20
13.241228
 11
-92.54409
 21
13.241228
  0
LINE
  8
型材断面
  6
CONTINUOUS
 10
-67.93985
 20
14.33721
 11
-92.54409
 21
14.33721
  0
LINE
  8
型材断面
  6
CONTINUOUS
 10
-66.843868
 20
13.241228
 11
-66.843868
 21
38.94145
  0
LINE
  8
型材断面
  6
CONTINUOUS
 10
-67.93985
 20
14.33721
 11
-67.93985
 21
38.94145
  0
LINE
  8
型材断面
  6
CONTINUOUS
 10
-92.54409
 20
38.94145
 11
-118.244312
 21
13.241228
  0
LINE
  8
型材断面
  6
CONTINUOUS
 10
-118.244312
 20
13.241228
 11
-92.54409
 21
13.241228
  0
LINE
  8
型材断面
  6
CONTINUOUS
 10
-117.14833
 20
14.33721
 11
-92.54409
 21
14.33721
  0
LINE
  8
型材断面
  6
CONTINUOUS
 10
-118.244312
 20
13.241228
 11
-118.244312
 21
38.94145
  0
LINE
  8
型材断面
  6
CONTINUOUS
 10
-117.14833
 20
14.33721
 11
-117.14833
 21
38.94145
  0
LINE
  8
型材断面
  6
DASHDOT
 10
-115.04409
 20
16.44145
 11
-70.04409
 21
16.44145
  0
LINE
  8
型材断面
  6
CONTINUOUS
 10
-66.84387
 20
-82.723802
 11
-87.4898
 21
-62.077873
  0
LINE
  8
型材断面
  6
CONTINUOUS
 10
-67.93982
 20
-81.627852
 11
-92.54409
 21
-81.627852
  0
LINE
  8
型材断面
  6
CONTINUOUS
 10
-92.54409
 20
-83.423802
 11
-66.843868
 21
-83.423802
  0
LINE
  8
型材断面
  6
CONTINUOUS
 10
-92.54409
 20
-82.723802
 11
-66.843868
 21
-82.723802
  0
LINE
  8
型材断面
  6
CONTINUOUS
 10
-92.54409
 20
-86.373802
 11
-66.84387
 21
-86.373802
  0
LINE
  8
型材断面
  6
CONTINUOUS
 10
-66.84387
 20
-82.723802
 11
-66.84387
 21
-86.373802
  0
LINE
  8
型材断面
  6
CONTINUOUS
 10
-92.54409
 20
-87.073802
 11
-67.693868
 21
-87.073802
  0
LINE
  8
型材断面
  6
CONTINUOUS
 10
-67.693868
 20
-86.373802
 11
-67.693868
 21
-87.073802
  0
LINE
  8
型材断面
  6
CONTINUOUS
 10
-91.305458
 20
-62.077873
 11
-72.109033
 21
-81.274298
  0
LINE
  8
型材断面
  6
CONTINUOUS
 10
-91.164035
 20
-62.077873
 11
-71.96761
 21
-81.274298
  0
LINE
  8
型材断面
  6
CONTINUOUS
 10
-68.293375
 20
-81.274298
 11
-72.109033
 21
-81.274298
  0
LINE
  8
型材断面
  6
DASHDOT
 10
-70.04409
 20
-87.073802
 11
-70.04409
 21
-79.523582
  0
LINE
  8
型材断面
  6
CONTINUOUS
 10
-118.24431
 20
-82.723802
 11
-97.59838
 21
-62.077873
  0
LINE
  8
型材断面
  6
CONTINUOUS
 10
-117.14836
 20
-81.627852
 11
-92.54409
 21
-81.627852
  0
LINE
  8
型材断面
  6
CONTINUOUS
 10
-92.54409
 20
-83.423802
 11
-118.244312
 21
-83.423802
  0
LINE
  8
型材断面
  6
CONTINUOUS
 10
-92.54409
 20
-82.723802
 11
-118.244312
 21
-82.723802
  0
LINE
  8
型材断面
  6
CONTINUOUS
 10
-92.54409
 20
-86.373802
 11
-118.24431
 21
-86.373802
  0
LINE
  8
型材断面
  6
CONTINUOUS
 10
-118.24431
 20
-82.723802
 11
-118.24431
 21
-86.373802
  0
LINE
  8
型材断面
  6
CONTINUOUS
 10
-92.54409
 20
-87.073802
 11
-117.394312
 21
-87.073802
  0
LINE
  8
型材断面
  6
CONTINUOUS
 10
-117.394312
 20
-86.373802
 11
-117.394312
 21
-87.073802
  0
LINE
  8
型材断面
  6
CONTINUOUS
 10
-93.782723
 20
-62.077873
 11
-112.979148
 21
-81.274298
  0
LINE
  8
型材断面
  6
CONTINUOUS
 10
-93.924145
 20
-62.077873
 11
-113.12057
 21
-81.274298
  0
LINE
  8
型材断面
  6
CONTINUOUS
 10
-116.794805
 20
-81.274298
 11
-112.979148
 21
-81.274298
  0
LINE
  8
型材断面
  6
DASHDOT
 10
-115.04409
 20
-87.073802
 11
-115.04409
 21
-79.523582
  0
LINE
  8
型材断面
  6
DASHDOT
 10
-92.54409
 20
-87.073802
 11
-92.54409
 21
61.44145
  0
LINE
  8
型材断面
  6
DASHDOT
 10
-70.04409
 20
-87.073802
 11
-70.04409
 21
61.44145
  0
LINE
  8
型材断面
  6
DASHDOT
 10
-115.04409
 20
-87.073802
 11
-115.04409
 21
61.44145
  0
LINE
  8
型材断面
  6
CONTINUOUS
 10
-92.54409
 20
69.465325
 11
-94.787535
 21
73.351085
  0
LINE
  8
型材断面
  6
CONTINUOUS
 10
-92.54409
 20
69.465325
 11
-90.300645
 21
73.351085
  0
LINE
  8
型材断面
  6
CONTINUOUS
 10
-90.300645
 20
73.351085
 11
-94.787535
 21
73.351085
  0
LINE
  8
型材断面
  6
CONTINUOUS
 10
-92.54409
 20
8.417575
 11
-94.787535
 21
4.531815
  0
LINE
  8
型材断面
  6
CONTINUOUS
 10
-92.54409
 20
8.417575
 11
-90.300645
 21
4.531815
  0
LINE
  8
型材断面
  6
CONTINUOUS
 10
-90.300645
 20
4.531815
 11
-94.787535
 21
4.531815
  0
LINE
  8
型材断面
  6
CONTINUOUS
 10
-62.020215
 20
38.94145
 11
-58.134455
 21
41.184895
  0
LINE
  8
型材断面
  6
CONTINUOUS
 10
-62.020215
 20
38.94145
 11
-58.134455
 21
36.698005
  0
LINE
  8
型材断面
  6
CONTINUOUS
 10
-58.134455
 20
36.698005
 11
-58.134455
 21
41.184895
  0
LINE
  8
型材断面
  6
CONTINUOUS
 10
-123.067965
 20
38.94145
 11
-126.953725
 21
41.184895
  0
LINE
  8
型材断面
  6
CONTINUOUS
 10
-123.067965
 20
38.94145
 11
-126.953725
 21
36.698005
  0
LINE
  8
型材断面
  6
CONTINUOUS
 10
-126.953725
 20
36.698005
 11
-126.953725
 21
41.184895
  0
LINE
  8
型材断面
  6
CONTINUOUS
 10
-41.61016
 20
26.811108
 11
-43.853605
 21
22.925347
  0
LINE
  8
型材断面
  6
CONTINUOUS
 10
-41.61016
 20
26.811108
 11
-39.366715
 21
22.925347
  0
LINE
  8
型材断面
  6
CONTINUOUS
 10
-39.366715
 20
22.925347
 11
-43.853605
 21
22.925347
  0
LINE
  8
型材断面
  6
CONTINUOUS
 10
-50.64404
 20
21.517455
 11
2.01264
 21
21.517455
  0
LINE
  8
型材断面
  6
CONTINUOUS
 10
-50.64404
 20
14.510345
 11
2.01264
 21
14.510345
  0
LINE
  8
型材断面
  6
CONTINUOUS
 10
-116.794808
 20
14.690733
 11
-113.146843
 21
14.690733
  0
LINE
  8
型材断面
  6
CONTINUOUS
 10
-94.021125
 20
33.81645
 11
-113.146843
 21
14.690733
  0
LINE
  8
型材断面
  6
CONTINUOUS
 10
-116.794808
 20
14.690733
 11
-116.794808
 21
18.338697
  0
LINE
  8
型材断面
  6
CONTINUOUS
 10
-97.669092
 20
37.464413
 11
-116.794808
 21
18.338697
  0
LINE
  8
型材断面
  6
CONTINUOUS
 10
-68.293372
 20
14.690733
 11
-71.941338
 21
14.690733
  0
LINE
  8
型材断面
  6
CONTINUOUS
 10
-91.067055
 20
33.81645
 11
-71.941338
 21
14.690733
  0
LINE
  8
型材断面
  6
CONTINUOUS
 10
-68.293372
 20
14.690733
 11
-68.293372
 21
18.338697
  0
LINE
  8
型材断面
  6
CONTINUOUS
 10
-87.419088
 20
37.464413
 11
-68.293372
 21
18.338697
  0
LINE
  8
型材断面
  6
CONTINUOUS
 10
-68.293372
 20
63.192167
 11
-71.941338
 21
63.192167
  0
LINE
  8
型材断面
  6
CONTINUOUS
 10
-91.067055
 20
44.06645
 11
-71.941338
 21
63.192167
  0
LINE
  8
型材断面
  6
CONTINUOUS
 10
-68.293372
 20
63.192167
 11
-68.293372
 21
59.544203
  0
LINE
  8
型材断面
  6
CONTINUOUS
 10
-87.419088
 20
40.418488
 11
-68.293372
 21
59.544203
  0
LINE
  8
型材断面
  6
CONTINUOUS
 10
-116.794808
 20
63.192167
 11
-113.146843
 21
63.192167
  0
LINE
  8
型材断面
  6
CONTINUOUS
 10
-94.021125
 20
44.06645
 11
-113.146843
 21
63.192167
  0
LINE
  8
型材断面
  6
CONTINUOUS
 10
-116.794808
 20
63.192167
 11
-116.794808
 21
59.544203
  0
LINE
  8
型材断面
  6
CONTINUOUS
 10
-97.669092
 20
40.418488
 11
-116.794808
 21
59.544203
  0
LINE
  8
型材断面
  6
CONTINUOUS
 10
99.10209
 20
-57.458985
 11
123.033713
 21
-57.458985
  0
LINE
  8
ガラス
  6
CONTINUOUS
 10
-90.656385
 20
-75.113862
 11
-94.52902
 21
-78.986498
  0
LINE
  8
ガラス
  6
CONTINUOUS
 10
-91.536708
 20
-76.71222
 11
-92.930663
 21
-78.106175
  0
LINE
  8
ガラス
  6
CONTINUOUS
 10
-92.254742
 20
-75.994185
 11
-93.648697
 21
-77.38814
  0
LINE
  8
ガラス
  6
CONTINUOUS
 10
-74.603565
 20
40.896945
 11
-78.4762
 21
37.02431
  0
LINE
  8
ガラス
  6
CONTINUOUS
 10
-75.483888
 20
39.298588
 11
-76.877843
 21
37.904632
  0
LINE
  8
ガラス
  6
CONTINUOUS
 10
-76.201922
 20
40.016623
 11
-77.595878
 21
38.622667
  0
LINE
  8
ガラス
  6
CONTINUOUS
 10
-90.656385
 20
56.887038
 11
-94.52902
 21
53.014402
  0
LINE
  8
ガラス
  6
CONTINUOUS
 10
-91.536708
 20
55.28868
 11
-92.930663
 21
53.894725
  0
LINE
  8
ガラス
  6
CONTINUOUS
 10
-92.254742
 20
56.006715
 11
-93.648697
 21
54.61276
  0
LINE
  8
ガラス
  6
CONTINUOUS
 10
-90.656385
 20
25.297325
 11
-94.52902
 21
21.42469
  0
LINE
  8
ガラス
  6
CONTINUOUS
 10
-91.536708
 20
23.698968
 11
-92.930663
 21
22.305012
  0
LINE
  8
ガラス
  6
CONTINUOUS
 10
-92.254742
 20
24.417002
 11
-93.648697
 21
23.023048
  0
LINE
  8
ガラス
  6
CONTINUOUS
 10
-105.88199
 20
40.896945
 11
-109.754625
 21
37.02431
  0
LINE
  8
ガラス
  6
CONTINUOUS
 10
-106.762313
 20
39.298588
 11
-108.156268
 21
37.904632
  0
LINE
  8
ガラス
  6
CONTINUOUS
 10
-107.480347
 20
40.016623
 11
-108.874302
 21
38.622667
  0
TEXT
  7
TextStyle03
  8
文字
  6
CONTINUOUS
 10
69.35
 20
90.775
  1
ＮＳコード：ＮＳ４ＣＫ
 40
5.0
 72
     5
 11
130.6
 21
90.775
  0
TEXT
  7
TextStyle03
  8
文字
  6
CONTINUOUS
 10
69.6
 20
111.575
  1
シリーズ：ＴＦ４Ｋ
 40
5.0
 72
     5
 11
119.6
 21
111.575
  0
TEXT
  7
TextStyle03
  8
文字
  6
CONTINUOUS
 10
69.6
 20
105.95
  1
　　　　　四角錘（固定）900×900タイプ
 40
5.0
 72
     5
 11
175.85
 21
105.95
  0
TEXT
  7
TextStyle03
  8
文字
  6
CONTINUOUS
 10
69.6
 20
100.325
  1
図面名　：外観姿図
 40
5.0
 72
     5
 11
119.6
 21
100.325
  0
TEXT
  7
TextStyle03
  8
文字
  6
CONTINUOUS
 10
69.6
 20
94.7
  1
　　　　　　
 40
5.0
 72
     5
 11
102.725
 21
94.7
  0
TEXT
  7
TextStyle03
  8
文字
  6
CONTINUOUS
 10
-121.4
 20
84.625
  1
アンカーピッチ
 40
3.0
 72
     5
 11
-98.15
 21
84.625
  0
TEXT
  7
TextStyle03
  8
文字
  6
CONTINUOUS
 10
-145.05
 20
6.525
  1
アンカーピッチ
 40
3.0
 50
90.0
 72
     5
 11
-145.05
 21
29.775
  0
TEXT
  7
TextStyle03
  8
文字
  6
CONTINUOUS
 10
-37.3
 20
23.225
  1
は排水穴位置を示す
 40
3.0
 72
     5
 11
-7.3
 21
23.225
  0
TEXT
  7
TextStyle03
  8
文字
  6
CONTINUOUS
 10
-42.9
 20
15.875
  1
アンカー数量　６ヶ所
 40
3.0
 72
     5
 11
-9.525
 21
15.875
  0
TEXT
  7
TextStyle03
  8
文字
  6
CONTINUOUS
 10
138.225
 20
-83.225
  1
×４枚
 40
3.0
 72
     5
 11
147.975
 21
-83.225
  0
TEXT
  7
TextStyle03
  8
文字
  6
CONTINUOUS
 10
102.75
 20
-56.25
  1
ガラス寸法
 40
3.0
 72
     5
 11
119.25
 21
-56.25
  0
INSERT
  2
*DIM_0002
  8
寸法
  6
CONTINUOUS
 10
0.0
 20
0.0
  0
INSERT
  2
*DIM_0003
  8
寸法
  6
CONTINUOUS
 10
0.0
 20
0.0
  0
INSERT
  2
*DIM_0004
  8
寸法
  6
CONTINUOUS
 10
0.0
 20
0.0
  0
INSERT
  2
*DIM_0005
  8
寸法
  6
CONTINUOUS
 10
0.0
 20
0.0
  0
INSERT
  2
*DIM_0006
  8
寸法
  6
CONTINUOUS
 10
0.0
 20
0.0
  0
INSERT
  2
*DIM_0007
  8
寸法
  6
CONTINUOUS
 10
0.0
 20
0.0
  0
INSERT
  2
*DIM_0008
  8
寸法
  6
CONTINUOUS
 10
0.0
 20
0.0
  0
INSERT
  2
*DIM_0009
  8
寸法
  6
CONTINUOUS
 10
0.0
 20
0.0
  0
INSERT
  2
*DIM_0010
  8
寸法
  6
CONTINUOUS
 10
0.0
 20
0.0
  0
CIRCLE
  8
寸法
  6
CONTINUOUS
 10
-134.062447
 20
38.94145
 40
1.73792
  0
INSERT
  2
*DIM_0011
  8
寸法
  6
CONTINUOUS
 10
0.0
 20
0.0
  0
INSERT
  2
*DIM_0012
  8
寸法
  6
CONTINUOUS
 10
0.0
 20
0.0
  0
INSERT
  2
*DIM_0013
  8
寸法
  6
CONTINUOUS
 10
0.0
 20
0.0
  0
LINE
  8
曲げ物
  6
CONTINUOUS
 10
155.080513
 20
-84.711342
 11
110.035817
 21
-84.711342
  0
LINE
  8
曲げ物
  6
CONTINUOUS
 10
110.035817
 20
-84.711342
 11
132.558165
 21
-52.859933
  0
LINE
  8
曲げ物
  6
CONTINUOUS
 10
155.080513
 20
-84.711342
 11
132.558165
 21
-52.859933
  0
ENDSEC
  0
EOF
