  0
SECTION
  2
HEADER
  9
$EXTMIN
 10
-210.0
 20
-148.5
  9
$EXTMAX
 10
210.0
 20
148.5
  9
$PDMODE
 70
    32
  9
$PDSIZE
 40
1.5
  9
$LTSCALE
 40
10.0
  0
ENDSEC
  0
SECTION
  2
TABLES
  0
TABLE
  2
LTYPE
 70
    15
  0
LTYPE
  2
CONTINUOUS
 70
    64
  3
実線
 72
    65
 73
     0
 40
0.0
  0
LTYPE
  2
DASHED
 70
    64
  3
破線A
 72
    65
 73
     2
 40
0.6
 49
0.4
 49
-0.2
  0
LTYPE
  2
DASHEDX2
 70
    64
  3
破線B
 72
    65
 73
     2
 40
1.3
 49
0.9
 49
-0.4
  0
LTYPE
  2
DASHDOT
 70
    64
  3
１点鎖線A
 72
    65
 73
     4
 40
0.5375
 49
0.375
 49
-0.05
 49
0.0625
 49
-0.05
  0
LTYPE
  2
DASHDOTX2
 70
    64
  3
１点鎖線B
 72
    65
 73
     4
 40
1.075
 49
0.75
 49
-0.1
 49
0.125
 49
-0.1
  0
LTYPE
  2
DIVIDE2
 70
    64
  3
２点鎖線A
 72
    65
 73
     6
 40
0.5125
 49
0.3
 49
-0.0375
 49
0.05
 49
-0.0375
 49
0.05
 49
-0.0375
  0
LTYPE
  2
DIVIDE
 70
    64
  3
２点鎖線B
 72
    65
 73
     6
 40
1.05
 49
0.55
 49
-0.1
 49
0.1
 49
-0.1
 49
0.1
 49
-0.1
  0
LTYPE
  2
DOT
 70
    64
  3
点線A
 72
    65
 73
     2
 40
0.1125
 49
0.0625
 49
-0.05
  0
LTYPE
  2
DOTX2
 70
    64
  3
点線B
 72
    65
 73
     2
 40
0.275
 49
0.15
 49
-0.125
  0
LTYPE
  2
CONTINUOUS
 70
    64
  3
実線
 72
    65
 73
     0
 40
0.0
  0
LTYPE
  2
CONTINUOUS
 70
    64
  3
実線
 72
    65
 73
     0
 40
0.0
  0
LTYPE
  2
CONTINUOUS
 70
    64
  3
実線
 72
    65
 73
     0
 40
0.0
  0
LTYPE
  2
CONTINUOUS
 70
    64
  3
実線
 72
    65
 73
     0
 40
0.0
  0
LTYPE
  2
CONTINUOUS
 70
    64
  3
実線
 72
    65
 73
     0
 40
0.0
  0
LTYPE
  2
CONTINUOUS
 70
    64
  3
実線
 72
    65
 73
     0
 40
0.0
  0
ENDTAB
  0
TABLE
  2
LAYER
 70
    35
  0
LAYER
  2
通り芯
 70
     0
 62
    15
  6
CONTINUOUS
  0
LAYER
  2
補助線
 70
     0
 62
    16
  6
DOT
  0
LAYER
  2
躯体
 70
     0
 62
    31
  6
CONTINUOUS
  0
LAYER
  2
型材
 70
     0
 62
    32
  6
CONTINUOUS
  0
LAYER
  2
型材断面
 70
     0
 62
    47
  6
CONTINUOUS
  0
LAYER
  2
ガラス
 70
     0
 62
    48
  6
CONTINUOUS
  0
LAYER
  2
ゴム等
 70
     0
 62
    63
  6
CONTINUOUS
  0
LAYER
  2
ボルト／ビス
 70
     0
 62
    64
  6
CONTINUOUS
  0
LAYER
  2
文字
 70
     0
 62
    79
  6
CONTINUOUS
  0
LAYER
  2
寸法
 70
     0
 62
    80
  6
CONTINUOUS
  0
LAYER
  2
ﾊｯﾁﾝｸﾞ
 70
     0
 62
    95
  6
CONTINUOUS
  0
LAYER
  2
別途部材
 70
     0
 62
    96
  6
CONTINUOUS
  0
LAYER
  2
曲げ物
 70
     0
 62
   111
  6
CONTINUOUS
  0
LAYER
  2
鉄骨等
 70
     0
 62
   112
  6
CONTINUOUS
  0
LAYER
  2
St
 70
     0
 62
   127
  6
CONTINUOUS
  0
LAYER
  2
その他部品等
 70
     0
 62
   128
  6
CONTINUOUS
  0
LAYER
  2
ｶﾞｽｹｯﾄ
 70
     0
 62
   143
  6
CONTINUOUS
  0
LAYER
  2
ｽｹｯﾁ
 70
     0
 62
    14
  6
CONTINUOUS
  0
LAYER
  2
0
 70
     0
 62
    17
  6
CONTINUOUS
  0
LAYER
  2
1
 70
     0
 62
    30
  6
CONTINUOUS
  0
LAYER
  2
4
 70
     0
 62
    33
  6
CONTINUOUS
  0
LAYER
  2
ﾚｲﾔ3
 70
     0
 62
    46
  6
CONTINUOUS
  0
LAYER
  2
外形線
 70
     0
 62
    49
  6
CONTINUOUS
  0
LAYER
  2
部品
 70
     0
 62
    14
  6
CONTINUOUS
  0
LAYER
  2
サッシ芯
 70
     0
 62
    17
  6
DASHDOTX2
  0
LAYER
  2
寸法線
 70
     0
 62
    62
  6
CONTINUOUS
  0
LAYER
  2
姿図外形線
 70
     0
 62
    65
  6
CONTINUOUS
  0
LAYER
  2
姿補助線
 70
     0
 62
    30
  6
CONTINUOUS
  0
LAYER
  2
透視線
 70
     0
 62
    78
  6
DOT
  0
LAYER
  2
用紙
 70
     0
 62
    81
  6
CONTINUOUS
  0
LAYER
  2
実線図枠
 70
     0
 62
    94
  6
CONTINUOUS
  0
LAYER
  2
補助図枠
 70
     0
 62
    97
  6
CONTINUOUS
  0
LAYER
  2
建具記号
 70
     0
 62
   110
  6
CONTINUOUS
  0
LAYER
  2
補助文字
 70
     0
 62
   113
  6
CONTINUOUS
  0
LAYER
  2
01
 70
     0
 62
     1
  6
CONTINUOUS
  0
ENDTAB
  0
TABLE
  2
STYLE
 70
    10
  0
STYLE
  2
STANDARD
 70
     0
 40
1.0
 41
1.0
 42
1.0
 50
0.0
 71
     0
  3
TXT
  4
BIGFONT
  0
STYLE
  2
TATE
 70
     4
 40
1.0
 41
1.0
 42
1.0
 50
0.0
 71
     0
  3
TXT
  4
BIGFONT
  0
STYLE
  2
TextStyle03
 70
     0
 40
1.0
 41
1.0
 42
1.0
 50
0.0
 71
     0
  3
MONOTXT
  4
BIGFONT
  0
STYLE
  2
TextStyle04
 70
     0
 40
1.0
 41
1.0
 42
1.0
 50
0.0
 71
     0
  3
MONOTXT
  4
BIGFONT
  0
STYLE
  2
TextStyle05
 70
     0
 40
1.0
 41
1.0
 42
1.0
 50
0.0
 71
     0
  3
MONOTXT
  4
BIGFONT
  0
STYLE
  2
TextStyle06
 70
     0
 40
1.0
 41
1.0
 42
1.0
 50
0.0
 71
     0
  3
MONOTXT
  4
BIGFONT
  0
STYLE
  2
TextStyle07
 70
     0
 40
1.0
 41
1.0
 42
1.0
 50
0.0
 71
     0
  3
MONOTXT
  4
BIGFONT
  0
STYLE
  2
TextStyle08
 70
     0
 40
1.0
 41
1.0
 42
1.0
 50
0.0
 71
     0
  3
MONOTXT
  4
BIGFONT
  0
STYLE
  2
TextStyle09
 70
     0
 40
1.0
 41
1.0
 42
1.0
 50
0.0
 71
     0
  3
MONOTXT
  4
BIGFONT
  0
STYLE
  2
TextStyle10
 70
     0
 40
1.0
 41
1.0
 42
1.0
 50
0.0
 71
     0
  3
MONOTXT
  4
BIGFONT
  0
ENDTAB
  0
ENDSEC
  0
SECTION
  2
BLOCKS
  0
BLOCK
  2
*HAT_0001
 70
    65
 10
0.0
 20
0.0
  0
LINE
  8
ﾊｯﾁﾝｸﾞ
 10
-54.825
 20
-20.575
 11
-53.925
 21
-19.6
  0
LINE
  8
ﾊｯﾁﾝｸﾞ
 10
-57.0
 20
-20.575
 11
-53.925
 21
-17.5
  0
LINE
  8
ﾊｯﾁﾝｸﾞ
 10
-59.1
 20
-20.575
 11
-53.925
 21
-15.4
  0
LINE
  8
ﾊｯﾁﾝｸﾞ
 10
-61.2
 20
-20.575
 11
-53.925
 21
-13.225
  0
LINE
  8
ﾊｯﾁﾝｸﾞ
 10
-63.3
 20
-20.575
 11
-53.925
 21
-11.125
  0
LINE
  8
ﾊｯﾁﾝｸﾞ
 10
-63.9
 20
-19.0
 11
-54.15
 21
-9.25
  0
LINE
  8
ﾊｯﾁﾝｸﾞ
 10
-63.9
 20
-16.9
 11
-56.25
 21
-9.25
  0
LINE
  8
ﾊｯﾁﾝｸﾞ
 10
-63.9
 20
-14.8
 11
-58.35
 21
-9.25
  0
LINE
  8
ﾊｯﾁﾝｸﾞ
 10
-63.9
 20
-12.7
 11
-59.775
 21
-8.575
  0
LINE
  8
ﾊｯﾁﾝｸﾞ
 10
-63.9
 20
-10.525
 11
-61.95
 21
-8.575
  0
LINE
  8
ﾊｯﾁﾝｸﾞ
 10
-63.9
 20
-18.85
 11
-62.175
 21
-20.575
  0
LINE
  8
ﾊｯﾁﾝｸﾞ
 10
-63.9
 20
-16.675
 11
-60.075
 21
-20.575
  0
LINE
  8
ﾊｯﾁﾝｸﾞ
 10
-63.9
 20
-14.575
 11
-57.9
 21
-20.575
  0
LINE
  8
ﾊｯﾁﾝｸﾞ
 10
-63.9
 20
-12.475
 11
-55.8
 21
-20.575
  0
LINE
  8
ﾊｯﾁﾝｸﾞ
 10
-63.9
 20
-10.375
 11
-53.925
 21
-20.35
  0
LINE
  8
ﾊｯﾁﾝｸﾞ
 10
-63.6
 20
-8.575
 11
-53.925
 21
-18.25
  0
LINE
  8
ﾊｯﾁﾝｸﾞ
 10
-61.5
 20
-8.575
 11
-53.925
 21
-16.15
  0
LINE
  8
ﾊｯﾁﾝｸﾞ
 10
-59.325
 20
-8.575
 11
-58.875
 21
-9.025
  0
LINE
  8
ﾊｯﾁﾝｸﾞ
 10
-58.65
 20
-9.25
 11
-53.925
 21
-13.975
  0
LINE
  8
ﾊｯﾁﾝｸﾞ
 10
-56.55
 20
-9.25
 11
-53.925
 21
-11.875
  0
LINE
  8
ﾊｯﾁﾝｸﾞ
 10
-54.375
 20
-9.25
 11
-53.925
 21
-9.775
  0
ENDBLK
  0
BLOCK
  2
*HAT_0002
 70
    65
 10
0.0
 20
0.0
  0
LINE
  8
ﾊｯﾁﾝｸﾞ
 10
-114.15
 20
-20.575
 11
-113.85
 21
-20.275
  0
LINE
  8
ﾊｯﾁﾝｸﾞ
 10
-116.25
 20
-20.575
 11
-113.85
 21
-18.175
  0
LINE
  8
ﾊｯﾁﾝｸﾞ
 10
-118.425
 20
-20.575
 11
-113.85
 21
-16.075
  0
LINE
  8
ﾊｯﾁﾝｸﾞ
 10
-120.525
 20
-20.575
 11
-113.85
 21
-13.975
  0
LINE
  8
ﾊｯﾁﾝｸﾞ
 10
-122.625
 20
-20.575
 11
-113.85
 21
-11.8
  0
LINE
  8
ﾊｯﾁﾝｸﾞ
 10
-123.9
 20
-19.75
 11
-113.85
 21
-9.7
  0
LINE
  8
ﾊｯﾁﾝｸﾞ
 10
-123.9
 20
-17.575
 11
-114.825
 21
-8.575
  0
LINE
  8
ﾊｯﾁﾝｸﾞ
 10
-123.9
 20
-15.475
 11
-117.0
 21
-8.575
  0
LINE
  8
ﾊｯﾁﾝｸﾞ
 10
-123.9
 20
-13.375
 11
-119.775
 21
-9.25
  0
LINE
  8
ﾊｯﾁﾝｸﾞ
 10
-123.9
 20
-11.275
 11
-121.875
 21
-9.25
  0
LINE
  8
ﾊｯﾁﾝｸﾞ
 10
-123.9
 20
-20.275
 11
-123.6
 21
-20.575
  0
LINE
  8
ﾊｯﾁﾝｸﾞ
 10
-123.9
 20
-18.1
 11
-121.5
 21
-20.575
  0
LINE
  8
ﾊｯﾁﾝｸﾞ
 10
-123.9
 20
-16.0
 11
-119.325
 21
-20.575
  0
LINE
  8
ﾊｯﾁﾝｸﾞ
 10
-123.9
 20
-13.9
 11
-117.225
 21
-20.575
  0
LINE
  8
ﾊｯﾁﾝｸﾞ
 10
-123.9
 20
-11.8
 11
-115.125
 21
-20.575
  0
LINE
  8
ﾊｯﾁﾝｸﾞ
 10
-123.9
 20
-9.625
 11
-113.925
 21
-19.675
  0
LINE
  8
ﾊｯﾁﾝｸﾞ
 10
-122.175
 20
-9.25
 11
-113.925
 21
-17.575
  0
LINE
  8
ﾊｯﾁﾝｸﾞ
 10
-120.075
 20
-9.25
 11
-113.925
 21
-15.4
  0
LINE
  8
ﾊｯﾁﾝｸﾞ
 10
-118.65
 20
-8.575
 11
-113.925
 21
-13.3
  0
LINE
  8
ﾊｯﾁﾝｸﾞ
 10
-116.55
 20
-8.575
 11
-113.925
 21
-11.2
  0
LINE
  8
ﾊｯﾁﾝｸﾞ
 10
-114.375
 20
-8.575
 11
-113.925
 21
-9.1
  0
ENDBLK
  0
BLOCK
  2
*HAT_0003
 70
    65
 10
0.0
 20
0.0
  0
LINE
  8
ﾊｯﾁﾝｸﾞ
 10
-66.225
 20
88.125
 11
-64.175
 21
90.175
  0
LINE
  8
ﾊｯﾁﾝｸﾞ
 10
-69.05
 20
88.125
 11
-64.175
 21
93.0
  0
LINE
  8
ﾊｯﾁﾝｸﾞ
 10
-71.9
 20
88.125
 11
-64.175
 21
95.825
  0
LINE
  8
ﾊｯﾁﾝｸﾞ
 10
-74.175
 20
88.65
 11
-64.175
 21
98.65
  0
LINE
  8
ﾊｯﾁﾝｸﾞ
 10
-74.175
 20
91.5
 11
-65.25
 21
100.425
  0
LINE
  8
ﾊｯﾁﾝｸﾞ
 10
-74.175
 20
94.325
 11
-68.075
 21
100.425
  0
LINE
  8
ﾊｯﾁﾝｸﾞ
 10
-74.175
 20
97.15
 11
-70.2
 21
101.125
  0
LINE
  8
ﾊｯﾁﾝｸﾞ
 10
-74.175
 20
99.975
 11
-73.025
 21
101.125
  0
LINE
  8
ﾊｯﾁﾝｸﾞ
 10
-74.175
 20
89.625
 11
-72.675
 21
88.125
  0
LINE
  8
ﾊｯﾁﾝｸﾞ
 10
-74.175
 20
92.45
 11
-69.85
 21
88.125
  0
LINE
  8
ﾊｯﾁﾝｸﾞ
 10
-74.175
 20
95.275
 11
-67.025
 21
88.125
  0
LINE
  8
ﾊｯﾁﾝｸﾞ
 10
-74.175
 20
98.1
 11
-64.175
 21
88.125
  0
LINE
  8
ﾊｯﾁﾝｸﾞ
 10
-74.175
 20
100.925
 11
-64.175
 21
90.925
  0
LINE
  8
ﾊｯﾁﾝｸﾞ
 10
-71.525
 20
101.125
 11
-64.175
 21
93.75
  0
LINE
  8
ﾊｯﾁﾝｸﾞ
 10
-68.0
 20
100.425
 11
-64.175
 21
96.6
  0
LINE
  8
ﾊｯﾁﾝｸﾞ
 10
-65.175
 20
100.425
 11
-64.175
 21
99.425
  0
ENDBLK
  0
BLOCK
  2
*HAT_0004
 70
    65
 10
0.0
 20
0.0
  0
LINE
  8
ﾊｯﾁﾝｸﾞ
 10
147.7
 20
-37.2
 11
149.575
 21
-35.35
  0
LINE
  8
ﾊｯﾁﾝｸﾞ
 10
146.35
 20
-36.45
 11
152.525
 21
-30.4
  0
LINE
  8
ﾊｯﾁﾝｸﾞ
 10
144.975
 20
-35.725
 11
152.725
 21
-27.975
  0
LINE
  8
ﾊｯﾁﾝｸﾞ
 10
143.65
 20
-34.9
 11
151.375
 21
-27.25
  0
LINE
  8
ﾊｯﾁﾝｸﾞ
 10
142.275
 20
-34.15
 11
150.0
 21
-26.425
  0
LINE
  8
ﾊｯﾁﾝｸﾞ
 10
141.025
 20
-33.375
 11
148.675
 21
-25.675
  0
LINE
  8
ﾊｯﾁﾝｸﾞ
 10
139.675
 20
-32.575
 11
147.325
 21
-24.95
  0
LINE
  8
ﾊｯﾁﾝｸﾞ
 10
142.525
 20
-27.625
 11
147.475
 21
-22.675
  0
LINE
  8
ﾊｯﾁﾝｸﾞ
 10
145.375
 20
-22.6
 11
146.1
 21
-21.925
  0
LINE
  8
ﾊｯﾁﾝｸﾞ
 10
139.75
 20
-32.325
 11
140.425
 21
-33.025
  0
LINE
  8
ﾊｯﾁﾝｸﾞ
 10
140.5
 20
-31.075
 11
145.375
 21
-35.95
  0
LINE
  8
ﾊｯﾁﾝｸﾞ
 10
141.325
 20
-29.725
 11
148.575
 21
-36.975
  0
LINE
  8
ﾊｯﾁﾝｸﾞ
 10
142.075
 20
-28.375
 11
149.325
 21
-35.625
  0
LINE
  8
ﾊｯﾁﾝｸﾞ
 10
142.825
 20
-27.0
 11
150.175
 21
-34.3
  0
LINE
  8
ﾊｯﾁﾝｸﾞ
 10
143.625
 20
-25.675
 11
150.95
 21
-33.025
  0
LINE
  8
ﾊｯﾁﾝｸﾞ
 10
144.375
 20
-24.3
 11
151.75
 21
-31.675
  0
LINE
  8
ﾊｯﾁﾝｸﾞ
 10
145.125
 20
-22.975
 11
146.625
 21
-24.475
  0
LINE
  8
ﾊｯﾁﾝｸﾞ
 10
146.8
 20
-24.525
 11
152.5
 21
-30.3
  0
LINE
  8
ﾊｯﾁﾝｸﾞ
 10
146.35
 20
-22.0
 11
147.375
 21
-23.125
  0
LINE
  8
ﾊｯﾁﾝｸﾞ
 10
151.725
 20
-27.475
 11
153.25
 21
-28.975
  0
ENDBLK
  0
BLOCK
  2
*HAT_0005
 70
    65
 10
0.0
 20
0.0
  0
LINE
  8
ﾊｯﾁﾝｸﾞ
 10
62.775
 20
-35.325
 11
66.775
 21
-31.3
  0
LINE
  8
ﾊｯﾁﾝｸﾞ
 10
58.675
 20
-37.275
 11
66.025
 21
-29.95
  0
LINE
  8
ﾊｯﾁﾝｸﾞ
 10
57.9
 20
-35.95
 11
65.275
 21
-28.6
  0
LINE
  8
ﾊｯﾁﾝｸﾞ
 10
57.15
 20
-34.575
 11
64.475
 21
-27.325
  0
LINE
  8
ﾊｯﾁﾝｸﾞ
 10
56.35
 20
-33.25
 11
63.7
 21
-25.975
  0
LINE
  8
ﾊｯﾁﾝｸﾞ
 10
55.6
 20
-31.9
 11
62.95
 21
-24.625
  0
LINE
  8
ﾊｯﾁﾝｸﾞ
 10
54.85
 20
-30.55
 11
62.1
 21
-23.275
  0
LINE
  8
ﾊｯﾁﾝｸﾞ
 10
54.025
 20
-29.25
 11
56.425
 21
-26.85
  0
LINE
  8
ﾊｯﾁﾝｸﾞ
 10
59.85
 20
-23.425
 11
61.35
 21
-21.9
  0
LINE
  8
ﾊｯﾁﾝｸﾞ
 10
57.05
 20
-34.375
 11
59.7
 21
-37.075
  0
LINE
  8
ﾊｯﾁﾝｸﾞ
 10
54.1
 20
-29.35
 11
61.05
 21
-36.325
  0
LINE
  8
ﾊｯﾁﾝｸﾞ
 10
54.7
 20
-27.875
 11
62.4
 21
-35.575
  0
LINE
  8
ﾊｯﾁﾝｸﾞ
 10
56.025
 20
-27.1
 11
63.775
 21
-34.75
  0
LINE
  8
ﾊｯﾁﾝｸﾞ
 10
57.4
 20
-26.275
 11
65.125
 21
-34.0
  0
LINE
  8
ﾊｯﾁﾝｸﾞ
 10
58.725
 20
-25.525
 11
66.475
 21
-33.15
  0
LINE
  8
ﾊｯﾁﾝｸﾞ
 10
60.075
 20
-24.775
 11
66.9
 21
-31.6
  0
LINE
  8
ﾊｯﾁﾝｸﾞ
 10
59.95
 20
-22.525
 11
64.05
 21
-26.575
  0
ENDBLK
  0
BLOCK
  2
*GRP_0001
 70
    65
 10
0.0
 20
0.0
  0
LINE
  8
型材断面
  6
CONTINUOUS
 10
195.0
 20
133.5
 11
195.0
 21
-133.5
  0
LINE
  8
型材断面
  6
CONTINUOUS
 10
195.0
 20
-133.5
 11
-185.0
 21
-133.5
  0
LINE
  8
型材断面
  6
CONTINUOUS
 10
-185.0
 20
-133.5
 11
-185.0
 21
133.5
  0
LINE
  8
型材断面
  6
CONTINUOUS
 10
195.0
 20
133.5
 11
-185.0
 21
133.5
  0
LINE
  8
型材断面
  6
CONTINUOUS
 10
145.0
 20
-133.5
 11
145.0
 21
-118.5
  0
LINE
  8
型材断面
  6
CONTINUOUS
 10
195.0
 20
-118.5
 11
145.0
 21
-118.5
  0
ENDBLK
  0
BLOCK
  2
*GRP_0002
 70
    65
 10
0.0
 20
0.0
  0
LINE
  8
型材断面
  6
CONTINUOUS
 62
    47
 10
-88.90482
 20
-43.548405
 11
-88.404825
 21
-43.04841
  0
LINE
  8
型材断面
  6
CONTINUOUS
 62
    47
 10
-88.904835
 20
-43.548412
 11
-89.404815
 21
-43.04838
  0
ARC
  8
型材断面
  6
CONTINUOUS
 62
    47
 10
-84.204813
 20
-26.848401
 40
0.3
 50
359.999948
 51
449.999948
  0
LINE
  8
型材断面
  6
CONTINUOUS
 62
    47
 10
-83.90481
 20
-26.848402
 11
-83.90481
 21
-29.84841
  0
ARC
  8
型材断面
  6
CONTINUOUS
 62
    47
 10
-84.204816
 20
-29.848401
 40
0.3
 50
269.999948
 51
359.999948
  0
LINE
  8
型材断面
  6
CONTINUOUS
 62
    47
 10
-84.204803
 20
-26.548417
 11
-85.658865
 21
-26.548402
  0
LINE
  8
型材断面
  6
CONTINUOUS
 62
    47
 10
-85.95303
 20
-26.789595
 11
-86.50479
 21
-29.548402
  0
ARC
  8
型材断面
  6
CONTINUOUS
 62
    47
 10
-85.658872
 20
-26.8484
 40
0.3
 50
89.999948
 51
168.690015
  0
LINE
  8
型材断面
  6
CONTINUOUS
 62
    47
 10
-86.50479
 20
-29.548402
 11
-86.90481
 21
-29.548402
  0
ARC
  8
型材断面
  6
CONTINUOUS
 62
    47
 10
-86.904816
 20
-29.848399
 40
0.3
 50
89.999948
 51
179.999948
  0
LINE
  8
型材断面
  6
CONTINUOUS
 62
    47
 10
-84.20481
 20
-30.148417
 11
-84.40482
 21
-30.14841
  0
LINE
  8
型材断面
  6
CONTINUOUS
 62
    47
 10
-68.00544
 20
-43.351403
 11
-71.405422
 21
-43.351395
  0
LINE
  8
型材断面
  6
CONTINUOUS
 62
    47
 10
-61.805468
 20
-43.35141
 11
-58.40544
 21
-43.35141
  0
LINE
  8
型材断面
  6
CONTINUOUS
 62
    47
 10
-62.40546
 20
-43.951365
 11
-62.405468
 21
-44.85138
  0
LINE
  8
型材断面
  6
CONTINUOUS
 62
    47
 10
-61.80546
 20
-43.351365
 11
-62.40546
 21
-43.951365
  0
LINE
  8
型材断面
  6
CONTINUOUS
 62
    47
 10
-67.405447
 20
-43.951357
 11
-67.405447
 21
-44.85138
  0
LINE
  8
型材断面
  6
CONTINUOUS
 62
    47
 10
-67.405447
 20
-43.951357
 11
-68.005447
 21
-43.351357
  0
LINE
  8
型材断面
  6
CONTINUOUS
 62
    47
 10
-67.405447
 20
-44.85138
 11
-69.905422
 21
-44.851372
  0
LINE
  8
型材断面
  6
CONTINUOUS
 62
    47
 10
-68.005447
 20
-43.351357
 11
-71.405422
 21
-43.351357
  0
LINE
  8
型材断面
  6
CONTINUOUS
 62
    47
 10
-62.405468
 20
-44.85138
 11
-59.905455
 21
-44.851365
  0
LINE
  8
型材断面
  6
CONTINUOUS
 62
    47
 10
-61.80546
 20
-43.351365
 11
-58.40544
 21
-43.351372
  0
LINE
  8
型材断面
  6
CONTINUOUS
 62
    47
 10
-59.905455
 20
-48.351368
 11
-69.905422
 21
-48.35136
  0
LINE
  8
型材断面
  6
CONTINUOUS
 62
    47
 10
-71.405422
 20
-43.351357
 11
-71.405437
 21
-48.351345
  0
LINE
  8
型材断面
  6
CONTINUOUS
 62
    47
 10
-69.905422
 20
-44.851372
 11
-69.905422
 21
-48.35136
  0
LINE
  8
型材断面
  6
CONTINUOUS
 62
    47
 10
-59.905455
 20
-44.851365
 11
-59.905447
 21
-48.351353
  0
LINE
  8
型材断面
  6
CONTINUOUS
 62
    47
 10
-84.404828
 20
-48.351368
 11
-71.405437
 21
-48.351383
  0
ARC
  8
型材断面
  6
CONTINUOUS
 62
    47
 10
-93.604874
 20
-26.848397
 40
0.3
 50
89.999998
 51
179.999998
  0
LINE
  8
型材断面
  6
CONTINUOUS
 62
    47
 10
-93.904815
 20
-26.848402
 11
-93.904815
 21
-29.84841
  0
ARC
  8
型材断面
  6
CONTINUOUS
 62
    47
 10
-93.604874
 20
-29.848397
 40
0.3
 50
179.999998
 51
269.999998
  0
LINE
  8
型材断面
  6
CONTINUOUS
 62
    47
 10
-93.604815
 20
-26.548417
 11
-92.150767
 21
-26.54841
  0
LINE
  8
型材断面
  6
CONTINUOUS
 62
    47
 10
-91.856588
 20
-26.789588
 11
-91.30482
 21
-29.548402
  0
ARC
  8
型材断面
  6
CONTINUOUS
 62
    47
 10
-92.150815
 20
-26.848397
 40
0.3
 50
11.30993
 51
89.999998
  0
LINE
  8
型材断面
  6
CONTINUOUS
 62
    47
 10
-91.30482
 20
-29.548402
 11
-90.904815
 21
-29.54841
  0
ARC
  8
型材断面
  6
CONTINUOUS
 62
    47
 10
-90.904874
 20
-29.848397
 40
0.3
 50
359.999998
 51
449.999998
  0
LINE
  8
型材断面
  6
CONTINUOUS
 62
    47
 10
-93.404813
 20
-30.14841
 11
-93.404828
 21
-48.351368
  0
LINE
  8
型材断面
  6
CONTINUOUS
 62
    47
 10
-93.604815
 20
-30.14841
 11
-93.404813
 21
-30.148417
  0
LINE
  8
型材断面
  6
CONTINUOUS
 62
    47
 10
-109.804185
 20
-43.35138
 11
-106.404217
 21
-43.351387
  0
LINE
  8
型材断面
  6
CONTINUOUS
 62
    47
 10
-116.004173
 20
-43.35138
 11
-119.404185
 21
-43.35138
  0
LINE
  8
型材断面
  6
CONTINUOUS
 62
    47
 10
-115.404173
 20
-43.95135
 11
-115.404173
 21
-44.85135
  0
LINE
  8
型材断面
  6
CONTINUOUS
 62
    47
 10
-116.004173
 20
-43.351343
 11
-115.404173
 21
-43.95135
  0
LINE
  8
型材断面
  6
CONTINUOUS
 62
    47
 10
-110.40417
 20
-43.951343
 11
-110.404177
 21
-44.851365
  0
LINE
  8
型材断面
  6
CONTINUOUS
 62
    47
 10
-110.40417
 20
-43.951343
 11
-109.80417
 21
-43.351343
  0
LINE
  8
型材断面
  6
CONTINUOUS
 62
    47
 10
-110.404177
 20
-44.851365
 11
-107.904217
 21
-44.85135
  0
LINE
  8
型材断面
  6
CONTINUOUS
 62
    47
 10
-109.80417
 20
-43.351343
 11
-106.404195
 21
-43.351343
  0
LINE
  8
型材断面
  6
CONTINUOUS
 62
    47
 10
-115.404173
 20
-44.85135
 11
-117.90417
 21
-44.851343
  0
LINE
  8
型材断面
  6
CONTINUOUS
 62
    47
 10
-116.004173
 20
-43.351343
 11
-119.40417
 21
-43.35135
  0
LINE
  8
型材断面
  6
CONTINUOUS
 62
    47
 10
-117.904185
 20
-48.351338
 11
-107.904217
 21
-48.351345
  0
LINE
  8
型材断面
  6
CONTINUOUS
 62
    47
 10
-106.404195
 20
-43.351343
 11
-106.404195
 21
-48.351338
  0
LINE
  8
型材断面
  6
CONTINUOUS
 62
    47
 10
-107.904217
 20
-44.85135
 11
-107.904217
 21
-48.351345
  0
LINE
  8
型材断面
  6
CONTINUOUS
 62
    47
 10
-117.90417
 20
-44.851343
 11
-117.904193
 21
-48.35133
  0
LINE
  8
型材断面
  6
CONTINUOUS
 62
    47
 10
-106.404195
 20
-48.351368
 11
-93.404828
 21
-48.351368
  0
LINE
  8
型材断面
  6
CONTINUOUS
 62
    47
 10
-87.20478
 20
-32.148412
 11
-86.80491
 21
-32.54844
  0
LINE
  8
型材断面
  6
CONTINUOUS
 62
    47
 10
-86.80491
 20
-32.54844
 11
-87.20478
 21
-32.948445
  0
LINE
  8
型材断面
  6
CONTINUOUS
 62
    47
 10
-87.204773
 20
-34.14843
 11
-86.80491
 21
-34.548458
  0
LINE
  8
型材断面
  6
CONTINUOUS
 62
    47
 10
-86.80491
 20
-34.548458
 11
-87.20478
 21
-34.94844
  0
LINE
  8
型材断面
  6
CONTINUOUS
 62
    47
 10
-87.20478
 20
-36.148425
 11
-86.804918
 21
-36.548452
  0
LINE
  8
型材断面
  6
CONTINUOUS
 62
    47
 10
-86.804918
 20
-36.548452
 11
-87.20478
 21
-36.948412
  0
LINE
  8
型材断面
  6
CONTINUOUS
 62
    47
 10
-87.20478
 20
-38.148427
 11
-86.804918
 21
-38.54847
  0
LINE
  8
型材断面
  6
CONTINUOUS
 62
    47
 10
-86.804918
 20
-38.54847
 11
-87.204773
 21
-38.948423
  0
LINE
  8
型材断面
  6
CONTINUOUS
 62
    47
 10
-87.20478
 20
-40.148445
 11
-86.804925
 21
-40.548502
  0
LINE
  8
型材断面
  6
CONTINUOUS
 62
    47
 10
-86.804925
 20
-40.548502
 11
-87.204795
 21
-40.948417
  0
LINE
  8
型材断面
  6
CONTINUOUS
 62
    47
 10
-87.204773
 20
-38.948423
 11
-87.20478
 21
-40.148445
  0
LINE
  8
型材断面
  6
CONTINUOUS
 62
    47
 10
-87.20478
 20
-36.948412
 11
-87.20478
 21
-38.148427
  0
LINE
  8
型材断面
  6
CONTINUOUS
 62
    47
 10
-87.20478
 20
-34.94844
 11
-87.20478
 21
-36.148425
  0
LINE
  8
型材断面
  6
CONTINUOUS
 62
    47
 10
-87.20478
 20
-32.948445
 11
-87.204773
 21
-34.14843
  0
LINE
  8
型材断面
  6
CONTINUOUS
 62
    47
 10
-90.604785
 20
-33.14841
 11
-91.004662
 21
-33.54846
  0
LINE
  8
型材断面
  6
CONTINUOUS
 62
    47
 10
-91.004662
 20
-33.54846
 11
-90.604792
 21
-33.948442
  0
LINE
  8
型材断面
  6
CONTINUOUS
 62
    47
 10
-90.604792
 20
-35.148427
 11
-91.00464
 21
-35.548448
  0
LINE
  8
型材断面
  6
CONTINUOUS
 62
    47
 10
-91.00464
 20
-35.548448
 11
-90.604792
 21
-35.948445
  0
LINE
  8
型材断面
  6
CONTINUOUS
 62
    47
 10
-90.604815
 20
-37.148423
 11
-91.004662
 21
-37.548458
  0
LINE
  8
型材断面
  6
CONTINUOUS
 62
    47
 10
-91.004662
 20
-37.548458
 11
-90.604792
 21
-37.948402
  0
LINE
  8
型材断面
  6
CONTINUOUS
 62
    47
 10
-90.604785
 20
-39.148417
 11
-91.004662
 21
-39.54846
  0
LINE
  8
型材断面
  6
CONTINUOUS
 62
    47
 10
-91.004662
 20
-39.54846
 11
-90.604792
 21
-39.94842
  0
LINE
  8
型材断面
  6
CONTINUOUS
 62
    47
 10
-90.604785
 20
-41.148442
 11
-91.004648
 21
-41.548492
  0
LINE
  8
型材断面
  6
CONTINUOUS
 62
    47
 10
-91.004648
 20
-41.548492
 11
-90.604785
 21
-41.948415
  0
LINE
  8
型材断面
  6
CONTINUOUS
 62
    47
 10
-90.604792
 20
-39.94842
 11
-90.604785
 21
-41.148442
  0
LINE
  8
型材断面
  6
CONTINUOUS
 62
    47
 10
-90.604792
 20
-37.948402
 11
-90.604785
 21
-39.148417
  0
LINE
  8
型材断面
  6
CONTINUOUS
 62
    47
 10
-90.604792
 20
-35.948445
 11
-90.604815
 21
-37.148423
  0
LINE
  8
型材断面
  6
CONTINUOUS
 62
    47
 10
-90.604792
 20
-33.948442
 11
-90.604792
 21
-35.148427
  0
LINE
  8
型材断面
  6
CONTINUOUS
 62
    47
 10
-87.20481
 20
-29.84841
 11
-87.20481
 21
-32.14839
  0
LINE
  8
型材断面
  6
CONTINUOUS
 62
    47
 10
-90.604815
 20
-29.84841
 11
-90.604815
 21
-33.14844
  0
LINE
  8
型材断面
  6
CONTINUOUS
 62
    47
 10
-90.604785
 20
-41.948415
 11
-90.604822
 21
-43.048402
  0
LINE
  8
型材断面
  6
CONTINUOUS
 62
    47
 10
-87.204795
 20
-40.948417
 11
-87.204817
 21
-43.048402
  0
LINE
  8
型材断面
  6
CONTINUOUS
 62
    47
 10
-84.40482
 20
-30.148402
 11
-84.404828
 21
-48.351368
  0
LINE
  8
型材断面
  6
CONTINUOUS
 62
    47
 10
-48.904845
 20
-78.351405
 11
-48.904838
 21
-69.351412
  0
LINE
  8
型材断面
  6
CONTINUOUS
 62
    47
 10
-48.904838
 20
-69.351412
 11
-49.904835
 21
-69.351412
  0
LINE
  8
型材断面
  6
CONTINUOUS
 62
    47
 10
-58.40547
 20
-76.851383
 11
-50.404845
 21
-76.851375
  0
LINE
  8
型材断面
  6
CONTINUOUS
 62
    47
 10
-50.404845
 20
-76.851375
 11
-49.904835
 21
-69.351412
  0
LINE
  8
型材断面
  6
CONTINUOUS
 62
    47
 10
-128.90484
 20
-78.351375
 11
-128.904832
 21
-69.351375
  0
LINE
  8
型材断面
  6
CONTINUOUS
 62
    47
 10
-128.904832
 20
-69.351375
 11
-127.904835
 21
-69.351375
  0
LINE
  8
型材断面
  6
CONTINUOUS
 62
    47
 10
-119.404185
 20
-76.851353
 11
-127.40484
 21
-76.851345
  0
LINE
  8
型材断面
  6
CONTINUOUS
 62
    47
 10
-127.40484
 20
-76.851345
 11
-127.904835
 21
-69.351375
  0
LINE
  8
型材断面
  6
CONTINUOUS
 62
    47
 10
-82.30485
 20
-75.55137
 11
-82.30485
 21
-69.051345
  0
LINE
  8
型材断面
  6
CONTINUOUS
 62
    47
 10
-82.30485
 20
-69.051345
 11
-95.50485
 21
-69.051353
  0
LINE
  8
型材断面
  6
CONTINUOUS
 62
    47
 10
-95.50485
 20
-69.051353
 11
-95.504842
 21
-75.551362
  0
LINE
  8
型材断面
  6
CONTINUOUS
 62
    47
 10
-84.204803
 20
-75.55137
 11
-82.30485
 21
-75.55137
  0
LINE
  8
型材断面
  6
CONTINUOUS
 62
    47
 10
-93.604748
 20
-75.55137
 11
-95.504842
 21
-75.551362
  0
ARC
  8
型材断面
  6
CONTINUOUS
 62
    47
 10
-84.204827
 20
-76.051378
 40
0.5
 50
90.00137
 51
180.002743
  0
ARC
  8
型材断面
  6
CONTINUOUS
 62
    47
 10
-93.60478
 20
-76.051377
 40
0.5
 50
359.999996
 51
450.00137
  0
LINE
  8
型材断面
  6
CONTINUOUS
 62
    47
 10
-84.704738
 20
-78.351368
 11
-84.704738
 21
-76.059158
  0
LINE
  8
型材断面
  6
CONTINUOUS
 62
    47
 10
-93.104813
 20
-78.351368
 11
-93.104813
 21
-76.04355
  0
LINE
  8
型材断面
  6
CONTINUOUS
 62
    47
 10
-60.905393
 20
-75.551385
 11
-79.504845
 21
-75.551362
  0
LINE
  8
型材断面
  6
CONTINUOUS
 62
    47
 10
-84.704738
 20
-78.351368
 11
-48.904838
 21
-78.351368
  0
LINE
  8
型材断面
  6
CONTINUOUS
 62
    47
 10
-93.104813
 20
-78.351368
 11
-128.904847
 21
-78.35136
  0
LINE
  8
型材断面
  6
CONTINUOUS
 62
    47
 10
-98.30484
 20
-68.25135
 11
-98.304847
 21
-75.551355
  0
ARC
  8
型材断面
  6
CONTINUOUS
 62
    47
 10
-96.304871
 20
-68.25135
 40
2.0
 50
89.999996
 51
179.999996
  0
LINE
  8
型材断面
  6
CONTINUOUS
 62
    47
 10
-79.504845
 20
-75.551362
 11
-79.504853
 21
-68.25135
  0
ARC
  8
型材断面
  6
CONTINUOUS
 62
    47
 10
-81.504873
 20
-68.251351
 40
2.0
 50
-0.000004
 51
89.999996
  0
LINE
  8
型材断面
  6
CONTINUOUS
 62
    47
 10
-98.304847
 20
-75.551355
 11
-116.904285
 21
-75.551347
  0
LINE
  8
型材断面
  6
CONTINUOUS
 62
    47
 10
-58.405433
 20
-43.35138
 11
-58.405477
 21
-76.851383
  0
LINE
  8
型材断面
  6
CONTINUOUS
 62
    47
 10
-60.905468
 20
-51.151372
 11
-60.905415
 21
-75.551385
  0
LINE
  8
型材断面
  6
CONTINUOUS
 62
    47
 10
-116.90418
 20
-51.151328
 11
-116.904263
 21
-75.551347
  0
LINE
  8
型材断面
  6
CONTINUOUS
 62
    47
 10
-119.404193
 20
-43.35135
 11
-119.404193
 21
-76.851353
  0
LINE
  8
型材断面
  6
CONTINUOUS
 62
    47
 10
-87.204817
 20
-43.048402
 11
-88.404825
 21
-43.04841
  0
LINE
  8
型材断面
  6
CONTINUOUS
 62
    47
 10
-90.604822
 20
-43.048402
 11
-89.404792
 21
-43.04841
  0
LINE
  8
型材断面
  6
CONTINUOUS
 62
    47
 10
-87.204817
 20
-49.04841
 11
-90.604822
 21
-49.048402
  0
LINE
  8
型材断面
  6
CONTINUOUS
 62
    47
 10
-90.604822
 20
-49.048402
 11
-90.604822
 21
-51.151365
  0
LINE
  8
型材断面
  6
CONTINUOUS
 62
    47
 10
-87.204817
 20
-49.04841
 11
-87.204825
 21
-51.151365
  0
LINE
  8
型材断面
  6
CONTINUOUS
 62
    47
 10
-116.90418
 20
-51.151343
 11
-90.604822
 21
-51.151365
  0
LINE
  8
型材断面
  6
CONTINUOUS
 62
    47
 10
-60.905468
 20
-51.151372
 11
-87.204825
 21
-51.151365
  0
LINE
  8
型材断面
  6
CONTINUOUS
 62
    47
 10
-81.50484
 20
-66.251355
 11
-88.904813
 21
-66.251347
  0
LINE
  8
型材断面
  6
CONTINUOUS
 62
    47
 10
-96.304845
 20
-66.251347
 11
-88.904813
 21
-66.251347
  0
ENDBLK
  0
BLOCK
  2
*GRP_0003
 70
    65
 10
0.0
 20
0.0
  0
ARC
  8
型材断面
  6
CONTINUOUS
 62
    47
 10
52.942315
 20
-25.342439
 40
1.0
 50
120.000059
 51
210.000059
  0
LINE
  8
型材断面
  6
CONTINUOUS
 62
    47
 10
52.44559
 20
-24.474547
 11
103.537817
 21
5.02365
  0
LINE
  8
型材断面
  6
CONTINUOUS
 62
    47
 10
154.630098
 20
-24.474442
 11
103.53781
 21
5.023642
  0
LINE
  8
型材断面
  6
CONTINUOUS
 62
    47
 10
93.53782
 20
-14.9862
 11
101.38783
 21
-14.986193
  0
LINE
  8
型材断面
  6
CONTINUOUS
 62
    47
 10
99.887823
 20
-11.9862
 11
99.88783
 21
-13.486193
  0
LINE
  8
型材断面
  6
CONTINUOUS
 62
    47
 10
103.537847
 20
-11.986193
 11
99.887823
 21
-11.9862
  0
LINE
  8
型材断面
  6
CONTINUOUS
 62
    47
 10
101.38783
 20
-14.986193
 11
101.387823
 21
-13.186193
  0
LINE
  8
型材断面
  6
CONTINUOUS
 62
    47
 10
101.387823
 20
-13.186193
 11
103.537847
 21
-13.1862
  0
LINE
  8
型材断面
  6
CONTINUOUS
 62
    47
 10
113.537867
 20
-14.986193
 11
105.687865
 21
-14.9862
  0
LINE
  8
型材断面
  6
CONTINUOUS
 62
    47
 10
107.187865
 20
-11.9862
 11
107.187865
 21
-13.4862
  0
LINE
  8
型材断面
  6
CONTINUOUS
 62
    47
 10
103.537847
 20
-11.986193
 11
107.187865
 21
-11.9862
  0
LINE
  8
型材断面
  6
CONTINUOUS
 62
    47
 10
105.687865
 20
-14.9862
 11
105.687865
 21
-13.1862
  0
LINE
  8
型材断面
  6
CONTINUOUS
 62
    47
 10
105.687865
 20
-13.1862
 11
103.537847
 21
-13.1862
  0
LINE
  8
型材断面
  6
CONTINUOUS
 62
    47
 10
99.88783
 20
-13.486193
 11
94.403845
 21
-13.4862
  0
LINE
  8
型材断面
  6
CONTINUOUS
 62
    47
 10
93.53782
 20
-14.9862
 11
88.373298
 21
-6.041025
  0
LINE
  8
型材断面
  6
CONTINUOUS
 62
    47
 10
113.537867
 20
-14.986193
 11
118.702383
 21
-6.04101
  0
LINE
  8
型材断面
  6
CONTINUOUS
 62
    47
 10
107.187865
 20
-13.4862
 11
112.67185
 21
-13.486193
  0
LINE
  8
型材断面
  6
CONTINUOUS
 62
    47
 10
94.403845
 20
-13.4862
 11
89.42233
 21
-4.857997
  0
LINE
  8
型材断面
  6
CONTINUOUS
 62
    47
 10
89.42233
 20
-4.857997
 11
103.537817
 21
3.2916
  0
LINE
  8
型材断面
  6
CONTINUOUS
 62
    47
 10
103.537817
 20
3.2916
 11
117.653342
 21
-4.857997
  0
LINE
  8
型材断面
  6
CONTINUOUS
 62
    47
 10
112.67185
 20
-13.486193
 11
117.653342
 21
-4.857997
  0
LINE
  8
型材断面
  6
CONTINUOUS
 62
    47
 10
52.076327
 20
-25.842428
 11
53.57632
 21
-28.44051
  0
LINE
  8
型材断面
  6
CONTINUOUS
 62
    47
 10
88.373298
 20
-6.041025
 11
59.504522
 21
-22.708455
  0
LINE
  8
型材断面
  6
CONTINUOUS
 62
    47
 10
60.504535
 20
-24.44052
 11
59.504522
 21
-22.708455
  0
LINE
  8
型材断面
  6
CONTINUOUS
 62
    47
 10
53.57632
 20
-28.44051
 11
60.504528
 21
-24.440498
  0
ARC
  8
型材断面
  6
CONTINUOUS
 62
    47
 10
154.133291
 20
-25.342375
 40
1.0
 50
330.000015
 51
420.000015
  0
LINE
  8
型材断面
  6
CONTINUOUS
 62
    47
 10
154.999352
 20
-25.84236
 11
153.499352
 21
-28.440442
  0
LINE
  8
型材断面
  6
CONTINUOUS
 62
    47
 10
146.571138
 20
-24.440467
 11
147.571142
 21
-22.708395
  0
LINE
  8
型材断面
  6
CONTINUOUS
 62
    47
 10
153.499352
 20
-28.440442
 11
146.571145
 21
-24.440445
  0
LINE
  8
型材断面
  6
CONTINUOUS
 62
    47
 10
118.702383
 20
-6.04101
 11
147.571157
 21
-22.708373
  0
ENDBLK
  0
BLOCK
  2
*GRP_0004
 70
    65
 10
0.0
 20
0.0
  0
LINE
  8
型材断面
  6
CONTINUOUS
 62
    47
 10
101.537845
 20
-20.760278
 11
101.537845
 21
-18.960278
  0
LINE
  8
型材断面
  6
CONTINUOUS
 62
    47
 10
105.53785
 20
-20.76027
 11
105.53785
 21
-18.96027
  0
LINE
  8
型材断面
  6
CONTINUOUS
 62
    47
 10
93.537835
 20
-20.760285
 11
101.537845
 21
-20.760278
  0
LINE
  8
型材断面
  6
CONTINUOUS
 62
    47
 10
105.53785
 20
-20.76027
 11
113.537845
 21
-20.76027
  0
LINE
  8
型材断面
  6
CONTINUOUS
 62
    47
 10
105.53785
 20
-18.96027
 11
104.03785
 21
-18.96027
  0
LINE
  8
型材断面
  6
CONTINUOUS
 62
    47
 10
103.537847
 20
-19.46028
 11
104.03785
 21
-18.96027
  0
LINE
  8
型材断面
  6
CONTINUOUS
 62
    47
 10
103.537847
 20
-19.46028
 11
103.037845
 21
-18.960278
  0
LINE
  8
型材断面
  6
CONTINUOUS
 62
    47
 10
101.537845
 20
-18.960278
 11
103.037845
 21
-18.960278
  0
LINE
  8
型材断面
  6
CONTINUOUS
 62
    47
 10
102.937847
 20
-22.260255
 11
102.437838
 21
-22.76028
  0
LINE
  8
型材断面
  6
CONTINUOUS
 62
    47
 10
95.53783
 20
-22.76028
 11
102.437838
 21
-22.76028
  0
LINE
  8
型材断面
  6
CONTINUOUS
 62
    47
 10
104.137855
 20
-22.260263
 11
104.637865
 21
-22.760272
  0
LINE
  8
型材断面
  6
CONTINUOUS
 62
    47
 10
111.537843
 20
-22.760272
 11
104.637865
 21
-22.760272
  0
LINE
  8
型材断面
  6
CONTINUOUS
 62
    47
 10
104.137855
 20
-22.260263
 11
102.93784
 21
-22.26027
  0
LINE
  8
型材断面
  6
CONTINUOUS
 62
    47
 10
119.087147
 20
-89.860582
 11
134.13586
 21
-63.795367
  0
LINE
  8
型材断面
  6
CONTINUOUS
 62
    47
 10
120.129843
 20
-49.01229
 11
121.379845
 21
-46.847228
  0
LINE
  8
型材断面
  6
CONTINUOUS
 62
    47
 10
120.340608
 20
-46.247228
 11
119.840612
 21
-47.113245
  0
LINE
  8
型材断面
  6
CONTINUOUS
 62
    47
 10
120.340608
 20
-46.247228
 11
121.379845
 21
-46.847228
  0
LINE
  8
型材断面
  6
CONTINUOUS
 62
    47
 10
115.00069
 20
-44.896275
 11
114.817675
 21
-44.213265
  0
LINE
  8
型材断面
  6
CONTINUOUS
 62
    47
 10
115.00069
 20
-44.896275
 11
115.683685
 21
-44.71326
  0
LINE
  8
型材断面
  6
CONTINUOUS
 62
    47
 10
119.840612
 20
-47.113245
 11
115.683692
 21
-44.713267
  0
LINE
  8
型材断面
  6
CONTINUOUS
 62
    47
 10
114.817675
 20
-44.213265
 11
110.920548
 21
-41.963273
  0
ARC
  8
型材断面
  6
CONTINUOUS
 62
    47
 10
109.554488
 20
-42.329307
 40
1.0
 50
149.999999
 51
240.000077
  0
LINE
  8
型材断面
  6
CONTINUOUS
 62
    47
 10
109.054525
 20
-43.195335
 11
109.920543
 21
-43.695323
  0
ARC
  8
型材断面
  6
CONTINUOUS
 62
    47
 10
109.420506
 20
-44.561354
 40
1.0
 50
330.000141
 51
420.000166
  0
LINE
  8
型材断面
  6
CONTINUOUS
 62
    47
 10
131.255395
 20
-54.742275
 11
130.805402
 21
-55.52172
  0
LINE
  8
型材断面
  6
CONTINUOUS
 62
    47
 10
131.035802
 20
-53.922667
 11
131.255395
 21
-54.742275
  0
LINE
  8
型材断面
  6
CONTINUOUS
 62
    47
 10
135.585527
 20
-57.242273
 11
135.135527
 21
-58.021695
  0
LINE
  8
型材断面
  6
CONTINUOUS
 62
    47
 10
135.585527
 20
-57.242273
 11
136.40515
 21
-57.022657
  0
LINE
  8
型材断面
  6
CONTINUOUS
 62
    47
 10
135.135527
 20
-58.021695
 11
137.30056
 21
-59.271683
  0
LINE
  8
型材断面
  6
CONTINUOUS
 62
    47
 10
136.40515
 20
-57.022657
 11
139.34962
 21
-58.722645
  0
LINE
  8
型材断面
  6
CONTINUOUS
 62
    47
 10
130.805402
 20
-55.52172
 11
128.640332
 21
-54.271702
  0
LINE
  8
型材断面
  6
CONTINUOUS
 62
    47
 10
131.035802
 20
-53.922667
 11
128.091295
 21
-52.222665
  0
LINE
  8
型材断面
  6
CONTINUOUS
 62
    47
 10
135.550585
 20
-62.302785
 11
137.30056
 21
-59.271683
  0
LINE
  8
型材断面
  6
CONTINUOUS
 62
    47
 10
126.890335
 20
-57.30279
 11
128.640332
 21
-54.271702
  0
LINE
  8
型材断面
  6
CONTINUOUS
 62
    47
 10
125.591305
 20
-56.552797
 11
128.091295
 21
-52.222665
  0
LINE
  8
型材断面
  6
CONTINUOUS
 62
    47
 10
120.800913
 20
-90.850028
 11
139.34962
 21
-58.722645
  0
ARC
  8
型材断面
  6
CONTINUOUS
 62
    47
 10
131.819269
 20
-87.165625
 40
0.3
 50
330.000014
 51
420.000014
  0
LINE
  8
型材断面
  6
CONTINUOUS
 62
    47
 10
131.610947
 20
-86.698927
 11
131.969297
 21
-86.905815
  0
ARC
  8
型材断面
  6
CONTINUOUS
 62
    47
 10
131.46092
 20
-86.958732
 40
0.3
 50
60.000014
 51
147.305729
  0
LINE
  8
型材断面
  6
CONTINUOUS
 62
    47
 10
131.208483
 20
-86.79669
 11
126.496285
 21
-94.138275
  0
LINE
  8
型材断面
  6
CONTINUOUS
 62
    47
 10
132.079105
 20
-87.315622
 11
126.729115
 21
-96.58209
  0
LINE
  8
型材断面
  6
CONTINUOUS
 62
    47
 10
120.800913
 20
-90.850028
 11
126.4963
 21
-94.13826
  0
LINE
  8
型材断面
  6
CONTINUOUS
 62
    47
 10
135.550585
 20
-62.302785
 11
126.890335
 21
-57.30279
  0
LINE
  8
型材断面
  6
CONTINUOUS
 62
    47
 10
111.537843
 20
-22.760272
 11
111.537843
 21
-36.89409
  0
LINE
  8
型材断面
  6
CONTINUOUS
 62
    47
 10
108.688502
 20
-41.8293
 11
111.537843
 21
-36.89409
  0
LINE
  8
型材断面
  6
CONTINUOUS
 62
    47
 10
113.537845
 20
-20.76027
 11
113.53786
 21
-37.42998
  0
LINE
  8
型材断面
  6
CONTINUOUS
 62
    47
 10
110.920555
 20
-41.96325
 11
113.53786
 21
-37.42998
  0
LINE
  8
型材断面
  6
CONTINUOUS
 62
    47
 10
87.988645
 20
-89.860605
 11
72.939895
 21
-63.795405
  0
LINE
  8
型材断面
  6
CONTINUOUS
 62
    47
 10
86.94589
 20
-49.012313
 11
85.69588
 21
-46.84725
  0
LINE
  8
型材断面
  6
CONTINUOUS
 62
    47
 10
86.735117
 20
-46.24725
 11
87.23512
 21
-47.113267
  0
LINE
  8
型材断面
  6
CONTINUOUS
 62
    47
 10
86.735117
 20
-46.24725
 11
85.69588
 21
-46.84725
  0
LINE
  8
型材断面
  6
CONTINUOUS
 62
    47
 10
92.075043
 20
-44.896282
 11
92.25805
 21
-44.213288
  0
LINE
  8
型材断面
  6
CONTINUOUS
 62
    47
 10
92.075043
 20
-44.896282
 11
91.39204
 21
-44.713275
  0
LINE
  8
型材断面
  6
CONTINUOUS
 62
    47
 10
87.23512
 20
-47.113267
 11
91.392032
 21
-44.713275
  0
LINE
  8
型材断面
  6
CONTINUOUS
 62
    47
 10
92.25805
 20
-44.213288
 11
96.155177
 21
-41.96328
  0
ARC
  8
型材断面
  6
CONTINUOUS
 62
    47
 10
97.521161
 20
-42.329315
 40
1.0
 50
-60.000004
 51
30.000074
  0
LINE
  8
型材断面
  6
CONTINUOUS
 62
    47
 10
98.0212
 20
-43.195335
 11
97.155183
 21
-43.69533
  0
ARC
  8
型材断面
  6
CONTINUOUS
 62
    47
 10
97.655146
 20
-44.561361
 40
1.0
 50
119.999907
 51
209.999932
  0
LINE
  8
型材断面
  6
CONTINUOUS
 62
    47
 10
75.820345
 20
-54.742313
 11
76.270337
 21
-55.52175
  0
LINE
  8
型材断面
  6
CONTINUOUS
 62
    47
 10
76.039938
 20
-53.922705
 11
75.820345
 21
-54.742313
  0
LINE
  8
型材断面
  6
CONTINUOUS
 62
    47
 10
71.490213
 20
-57.242317
 11
71.940213
 21
-58.02174
  0
LINE
  8
型材断面
  6
CONTINUOUS
 62
    47
 10
71.490213
 20
-57.242317
 11
70.670598
 21
-57.022695
  0
LINE
  8
型材断面
  6
CONTINUOUS
 62
    47
 10
71.940213
 20
-58.02174
 11
69.77518
 21
-59.271727
  0
LINE
  8
型材断面
  6
CONTINUOUS
 62
    47
 10
70.670598
 20
-57.022695
 11
67.72612
 21
-58.722682
  0
LINE
  8
型材断面
  6
CONTINUOUS
 62
    47
 10
76.270337
 20
-55.52175
 11
78.435407
 21
-54.271732
  0
LINE
  8
型材断面
  6
CONTINUOUS
 62
    47
 10
76.039938
 20
-53.922705
 11
78.984445
 21
-52.222688
  0
LINE
  8
型材断面
  6
CONTINUOUS
 62
    47
 10
71.525163
 20
-62.302823
 11
69.77518
 21
-59.271727
  0
LINE
  8
型材断面
  6
CONTINUOUS
 62
    47
 10
80.185405
 20
-57.302827
 11
78.435407
 21
-54.271732
  0
LINE
  8
型材断面
  6
CONTINUOUS
 62
    47
 10
81.484442
 20
-56.552835
 11
78.984445
 21
-52.222688
  0
LINE
  8
型材断面
  6
CONTINUOUS
 62
    47
 10
86.274872
 20
-90.850058
 11
67.72612
 21
-58.722682
  0
ARC
  8
型材断面
  6
CONTINUOUS
 62
    47
 10
75.256437
 20
-87.165661
 40
0.3
 50
120.00006
 51
210.00006
  0
LINE
  8
型材断面
  6
CONTINUOUS
 62
    47
 10
75.464815
 20
-86.698957
 11
75.10648
 21
-86.905853
  0
ARC
  8
型材断面
  6
CONTINUOUS
 62
    47
 10
75.614786
 20
-86.958767
 40
0.3
 50
32.694344
 51
120.00006
  0
LINE
  8
型材断面
  6
CONTINUOUS
 62
    47
 10
75.867295
 20
-86.79672
 11
80.579493
 21
-94.138305
  0
LINE
  8
型材断面
  6
CONTINUOUS
 62
    47
 10
74.996673
 20
-87.31566
 11
80.346678
 21
-96.58212
  0
LINE
  8
型材断面
  6
CONTINUOUS
 62
    47
 10
86.274872
 20
-90.850058
 11
80.579478
 21
-94.13829
  0
LINE
  8
型材断面
  6
CONTINUOUS
 62
    47
 10
71.525163
 20
-62.302823
 11
80.185405
 21
-57.302827
  0
LINE
  8
型材断面
  6
CONTINUOUS
 62
    47
 10
95.53786
 20
-22.76028
 11
95.537875
 21
-36.894105
  0
LINE
  8
型材断面
  6
CONTINUOUS
 62
    47
 10
98.387222
 20
-41.829307
 11
95.537875
 21
-36.894105
  0
LINE
  8
型材断面
  6
CONTINUOUS
 62
    47
 10
93.53785
 20
-20.760278
 11
93.537858
 21
-37.429987
  0
LINE
  8
型材断面
  6
CONTINUOUS
 62
    47
 10
96.155163
 20
-41.963257
 11
93.537858
 21
-37.429987
  0
LINE
  8
型材断面
  6
CONTINUOUS
 62
    47
 10
80.34667
 20
-96.582105
 11
103.537885
 21
-83.192633
  0
LINE
  8
型材断面
  6
CONTINUOUS
 62
    47
 10
126.729123
 20
-96.582067
 11
103.537885
 21
-83.192633
  0
LINE
  8
型材断面
  6
CONTINUOUS
 62
    47
 10
88.006922
 20
-89.850053
 11
103.537885
 21
-80.88324
  0
LINE
  8
型材断面
  6
CONTINUOUS
 62
    47
 10
119.068863
 20
-89.85003
 11
103.537885
 21
-80.88324
  0
LINE
  8
型材断面
  6
CONTINUOUS
 62
    47
 10
72.958173
 20
-63.78486
 11
93.309745
 21
-52.03488
  0
LINE
  8
型材断面
  6
CONTINUOUS
 62
    47
 10
93.309745
 20
-52.03488
 11
92.659975
 21
-50.909437
  0
LINE
  8
型材断面
  6
CONTINUOUS
 62
    47
 10
96.789152
 20
-45.06135
 11
97.289163
 21
-45.927383
  0
LINE
  8
型材断面
  6
CONTINUOUS
 62
    47
 10
96.557095
 20
-48.659445
 11
92.659975
 21
-50.909437
  0
ARC
  8
型材断面
  6
CONTINUOUS
 62
    47
 10
95.557069
 20
-46.927388
 40
2.0
 50
-60.000119
 51
29.99997
  0
LINE
  8
型材断面
  6
CONTINUOUS
 62
    47
 10
113.765995
 20
-52.034865
 11
114.415757
 21
-50.909422
  0
LINE
  8
型材断面
  6
CONTINUOUS
 62
    47
 10
110.51863
 20
-48.659437
 11
114.415757
 21
-50.909422
  0
ARC
  8
型材断面
  6
CONTINUOUS
 62
    47
 10
111.518587
 20
-46.927377
 40
2.0
 50
150.000103
 51
240.000192
  0
LINE
  8
型材断面
  6
CONTINUOUS
 62
    47
 10
110.286572
 20
-45.061342
 11
109.78657
 21
-45.927375
  0
LINE
  8
型材断面
  6
CONTINUOUS
 62
    47
 10
134.117575
 20
-63.784807
 11
113.765995
 21
-52.034865
  0
LINE
  8
型材断面
  6
CONTINUOUS
 62
    47
 10
81.484427
 20
-56.552812
 11
90.57769
 21
-51.30282
  0
LINE
  8
型材断面
  6
CONTINUOUS
 62
    47
 10
86.94589
 20
-49.012313
 11
88.677925
 21
-48.012308
  0
LINE
  8
型材断面
  6
CONTINUOUS
 62
    47
 10
88.677925
 20
-48.012308
 11
90.57769
 21
-51.30282
  0
LINE
  8
型材断面
  6
CONTINUOUS
 62
    47
 10
118.3978
 20
-48.012292
 11
116.498042
 21
-51.302805
  0
LINE
  8
型材断面
  6
CONTINUOUS
 62
    47
 10
120.129843
 20
-49.01229
 11
118.3978
 21
-48.012292
  0
LINE
  8
型材断面
  6
CONTINUOUS
 62
    47
 10
125.591312
 20
-56.55279
 11
116.498042
 21
-51.302805
  0
ENDBLK
  0
BLOCK
  2
*GRP_0005
 70
    65
 10
0.0
 20
0.0
  0
INSERT
  2
*GRP_0037
  8
型材断面
  6
CONTINUOUS
 10
0.0
 20
0.0
  0
INSERT
  2
*GRP_0038
  8
型材断面
  6
CONTINUOUS
 62
    47
 10
0.0
 20
0.0
  0
ENDBLK
  0
BLOCK
  2
*GRP_0006
 70
    65
 10
0.0
 20
0.0
  0
LINE
  8
01
  6
CONTINUOUS
 62
    63
 10
-86.505112
 20
-29.051918
 11
-86.005117
 21
-26.551927
  0
LINE
  8
01
  6
CONTINUOUS
 62
    63
 10
-91.805115
 20
-26.55192
 11
-91.305112
 21
-29.051918
  0
LINE
  8
01
  6
CONTINUOUS
 62
    63
 10
-93.905108
 20
-21.55191
 11
-93.905115
 21
-26.551912
  0
LINE
  8
01
  6
CONTINUOUS
 62
    63
 10
-83.905117
 20
-21.551933
 11
-83.905117
 21
-26.551927
  0
LINE
  8
01
  6
CONTINUOUS
 62
    63
 10
-86.505112
 20
-29.051918
 11
-91.305112
 21
-29.051918
  0
LINE
  8
01
  6
CONTINUOUS
 62
    63
 10
-93.905115
 20
-26.551912
 11
-91.805115
 21
-26.55192
  0
LINE
  8
01
  6
CONTINUOUS
 62
    63
 10
-86.005117
 20
-26.551927
 11
-83.905117
 21
-26.551927
  0
LINE
  8
01
  6
CONTINUOUS
 62
    63
 10
-88.905105
 20
-22.051927
 11
-89.405108
 21
-21.551925
  0
LINE
  8
01
  6
CONTINUOUS
 62
    63
 10
-88.905105
 20
-22.051927
 11
-88.405117
 21
-21.551925
  0
LINE
  8
01
  6
CONTINUOUS
 62
    63
 10
-83.905117
 20
-21.551933
 11
-88.405117
 21
-21.551925
  0
LINE
  8
01
  6
CONTINUOUS
 62
    63
 10
-89.405108
 20
-21.551925
 11
-93.905108
 21
-21.55191
  0
LINE
  8
01
  6
CONTINUOUS
 62
    63
 10
-88.677203
 20
-29.051925
 11
-83.905117
 21
-24.279855
  0
LINE
  8
01
  6
CONTINUOUS
 62
    63
 10
-90.79851
 20
-29.051918
 11
-83.90511
 21
-22.15854
  0
LINE
  8
01
  6
CONTINUOUS
 62
    63
 10
-91.574235
 20
-27.706312
 11
-85.419833
 21
-21.551925
  0
LINE
  8
01
  6
CONTINUOUS
 62
    63
 10
-92.541158
 20
-26.55192
 11
-87.541147
 21
-21.551925
  0
LINE
  8
01
  6
CONTINUOUS
 62
    63
 10
-93.905108
 20
-23.673232
 11
-91.783792
 21
-21.551925
  0
LINE
  8
01
  6
CONTINUOUS
 62
    63
 10
-93.905115
 20
-25.794563
 11
-89.662463
 21
-21.551918
  0
ENDBLK
  0
BLOCK
  2
*GRP_0007
 70
    65
 10
0.0
 20
0.0
  0
LINE
  8
ゴム等
  6
CONTINUOUS
 10
-67.305472
 20
-45.151403
 11
-67.305465
 21
-43.35141
  0
LINE
  8
ゴム等
  6
CONTINUOUS
 10
-70.905473
 20
-43.351403
 11
-67.305465
 21
-43.35141
  0
LINE
  8
ゴム等
  6
CONTINUOUS
 10
-62.505465
 20
-45.151418
 11
-62.505465
 21
-43.35141
  0
LINE
  8
ゴム等
  6
CONTINUOUS
 10
-58.905472
 20
-43.351403
 11
-62.505465
 21
-43.35141
  0
LINE
  8
ゴム等
  6
CONTINUOUS
 10
-62.505465
 20
-45.151418
 11
-61.505475
 21
-45.15141
  0
LINE
  8
ゴム等
  6
CONTINUOUS
 10
-61.505475
 20
-45.15141
 11
-61.505468
 21
-45.651412
  0
LINE
  8
ゴム等
  6
CONTINUOUS
 10
-67.305472
 20
-45.151403
 11
-68.30547
 21
-45.151403
  0
LINE
  8
ゴム等
  6
CONTINUOUS
 10
-68.30547
 20
-45.651405
 11
-68.30547
 21
-45.151403
  0
ARC
  8
ゴム等
  6
CONTINUOUS
 10
-64.905488
 20
-45.951408
 40
1.0
 50
269.999996
 51
359.999996
  0
LINE
  8
ゴム等
  6
CONTINUOUS
 10
-64.905473
 20
-46.95141
 11
-64.905473
 21
-46.95141
  0
ARC
  8
ゴム等
  6
CONTINUOUS
 10
-64.905488
 20
-45.951408
 40
1.0
 50
179.999996
 51
269.999996
  0
LINE
  8
ゴム等
  6
CONTINUOUS
 10
-65.90547
 20
-44.3514
 11
-65.90547
 21
-45.951412
  0
ARC
  8
ゴム等
  6
CONTINUOUS
 10
-64.905488
 20
-44.351408
 40
1.0
 50
89.999996
 51
179.999996
  0
LINE
  8
ゴム等
  6
CONTINUOUS
 10
-64.905465
 20
-43.35141
 11
-64.905465
 21
-43.35141
  0
LINE
  8
ゴム等
  6
CONTINUOUS
 10
-63.905468
 20
-44.3514
 11
-63.905468
 21
-45.951412
  0
ARC
  8
ゴム等
  6
CONTINUOUS
 10
-64.905488
 20
-44.351408
 40
1.0
 50
359.999996
 51
449.999996
  0
LINE
  8
ゴム等
  6
CONTINUOUS
 10
-70.733895
 20
-43.351395
 11
-70.905465
 21
-43.179817
  0
LINE
  8
ゴム等
  6
CONTINUOUS
 10
-61.862828
 20
-45.15141
 11
-61.505468
 21
-45.508763
  0
LINE
  8
ゴム等
  6
CONTINUOUS
 10
-70.905473
 20
-41.765625
 11
-69.319687
 21
-43.351403
  0
LINE
  8
ゴム等
  6
CONTINUOUS
 10
-67.519687
 20
-45.15141
 11
-64.819687
 21
-47.85141
  0
LINE
  8
ゴム等
  6
CONTINUOUS
 10
-70.905465
 20
-40.351403
 11
-67.905465
 21
-43.351403
  0
LINE
  8
ゴム等
  6
CONTINUOUS
 10
-67.305465
 20
-43.951403
 11
-65.905477
 21
-45.351405
  0
LINE
  8
ゴム等
  6
CONTINUOUS
 10
-60.905468
 20
-39.351412
 11
-60.905468
 21
-39.351412
  0
ARC
  8
ゴム等
  6
CONTINUOUS
 10
-61.405488
 20
-38.351408
 40
0.5
 50
269.999996
 51
359.999996
  0
LINE
  8
ゴム等
  6
CONTINUOUS
 10
-68.405475
 20
-38.85141
 11
-61.405477
 21
-38.851403
  0
ARC
  8
ゴム等
  6
CONTINUOUS
 10
-68.405488
 20
-38.351407
 40
0.5
 50
179.999996
 51
269.999996
  0
LINE
  8
ゴム等
  6
CONTINUOUS
 10
-68.905477
 20
-38.351408
 11
-70.905465
 21
-38.351408
  0
LINE
  8
ゴム等
  6
CONTINUOUS
 10
-70.905473
 20
-43.351403
 11
-70.905465
 21
-38.351408
  0
LINE
  8
ゴム等
  6
CONTINUOUS
 10
-65.84196
 20
-44.000708
 11
-70.905473
 21
-38.937195
  0
LINE
  8
ゴム等
  6
CONTINUOUS
 10
-65.064345
 20
-43.364107
 11
-70.077045
 21
-38.3514
  0
LINE
  8
ゴム等
  6
CONTINUOUS
 10
-62.505465
 20
-44.508773
 11
-68.162828
 21
-38.85141
  0
LINE
  8
ゴム等
  6
CONTINUOUS
 10
-62.248613
 20
-43.35141
 11
-66.74862
 21
-38.85141
  0
LINE
  8
ゴム等
  6
CONTINUOUS
 10
-60.834397
 20
-43.351395
 11
-65.334397
 21
-38.85141
  0
LINE
  8
ゴム等
  6
CONTINUOUS
 10
-59.420197
 20
-43.351403
 11
-63.920197
 21
-38.851395
  0
LINE
  8
ゴム等
  6
CONTINUOUS
 10
-58.905465
 20
-42.451905
 11
-62.505975
 21
-38.851403
  0
LINE
  8
ゴム等
  6
CONTINUOUS
 10
-58.905465
 20
-41.03769
 11
-61.15755
 21
-38.785613
  0
LINE
  8
ゴム等
  6
CONTINUOUS
 10
-58.905465
 20
-39.623482
 11
-60.177548
 21
-38.3514
  0
LINE
  8
ゴム等
  6
CONTINUOUS
 10
-58.905472
 20
-43.351403
 11
-58.905472
 21
-38.3514
  0
LINE
  8
ゴム等
  6
CONTINUOUS
 10
-60.905468
 20
-38.3514
 11
-58.905472
 21
-38.3514
  0
LINE
  8
ゴム等
  6
CONTINUOUS
 10
-61.505468
 20
-45.651412
 11
-63.905468
 21
-47.85141
  0
LINE
  8
ゴム等
  6
CONTINUOUS
 10
-68.30547
 20
-45.651405
 11
-65.905477
 21
-47.851403
  0
LINE
  8
ゴム等
  6
CONTINUOUS
 10
-63.905468
 20
-47.85141
 11
-65.905477
 21
-47.851403
  0
LINE
  8
ゴム等
  6
CONTINUOUS
 10
-63.905475
 20
-45.937185
 11
-62.906753
 21
-46.935915
  0
LINE
  8
ゴム等
  6
CONTINUOUS
 10
-64.427243
 20
-46.82964
 11
-63.644603
 21
-47.612273
  0
LINE
  8
ゴム等
  6
CONTINUOUS
 10
-63.905468
 20
-44.522985
 11
-62.168895
 21
-46.259565
  0
ENDBLK
  0
BLOCK
  2
*GRP_0008
 70
    65
 10
0.0
 20
0.0
  0
LINE
  8
ゴム等
  6
CONTINUOUS
 10
-110.504175
 20
-45.151365
 11
-110.504183
 21
-43.351372
  0
LINE
  8
ゴム等
  6
CONTINUOUS
 10
-106.904175
 20
-43.351372
 11
-110.504183
 21
-43.351372
  0
LINE
  8
ゴム等
  6
CONTINUOUS
 10
-115.304183
 20
-45.151372
 11
-115.304183
 21
-43.351365
  0
LINE
  8
ゴム等
  6
CONTINUOUS
 10
-118.904175
 20
-43.35135
 11
-115.304183
 21
-43.351365
  0
LINE
  8
ゴム等
  6
CONTINUOUS
 10
-115.304183
 20
-45.151372
 11
-116.304173
 21
-45.151365
  0
LINE
  8
ゴム等
  6
CONTINUOUS
 10
-116.304173
 20
-45.151365
 11
-116.30418
 21
-45.651368
  0
LINE
  8
ゴム等
  6
CONTINUOUS
 10
-110.504175
 20
-45.151365
 11
-109.504177
 21
-45.151365
  0
LINE
  8
ゴム等
  6
CONTINUOUS
 10
-109.504177
 20
-45.651368
 11
-109.504177
 21
-45.151365
  0
ARC
  8
ゴム等
  6
CONTINUOUS
 10
-112.904192
 20
-45.951368
 40
1.0
 50
179.99991
 51
269.99991
  0
LINE
  8
ゴム等
  6
CONTINUOUS
 10
-112.904183
 20
-46.951372
 11
-112.904183
 21
-46.951372
  0
ARC
  8
ゴム等
  6
CONTINUOUS
 10
-112.904192
 20
-45.951368
 40
1.0
 50
269.99991
 51
359.99991
  0
LINE
  8
ゴム等
  6
CONTINUOUS
 10
-111.904177
 20
-44.351362
 11
-111.904177
 21
-45.951375
  0
ARC
  8
ゴム等
  6
CONTINUOUS
 10
-112.904189
 20
-44.351368
 40
1.0
 50
359.99991
 51
449.99991
  0
LINE
  8
ゴム等
  6
CONTINUOUS
 10
-112.904183
 20
-43.351372
 11
-112.904183
 21
-43.351372
  0
LINE
  8
ゴム等
  6
CONTINUOUS
 10
-113.90418
 20
-44.351362
 11
-113.90418
 21
-45.951375
  0
ARC
  8
ゴム等
  6
CONTINUOUS
 10
-112.904189
 20
-44.351368
 40
1.0
 50
89.99991
 51
179.99991
  0
LINE
  8
ゴム等
  6
CONTINUOUS
 10
-107.075752
 20
-43.351365
 11
-106.904183
 21
-43.179788
  0
LINE
  8
ゴム等
  6
CONTINUOUS
 10
-115.94682
 20
-45.151365
 11
-116.30418
 21
-45.508717
  0
LINE
  8
ゴム等
  6
CONTINUOUS
 10
-106.904175
 20
-41.765595
 11
-108.48996
 21
-43.351372
  0
LINE
  8
ゴム等
  6
CONTINUOUS
 10
-110.28996
 20
-45.151372
 11
-112.989967
 21
-47.851372
  0
LINE
  8
ゴム等
  6
CONTINUOUS
 10
-106.904175
 20
-40.351372
 11
-109.904183
 21
-43.351365
  0
LINE
  8
ゴム等
  6
CONTINUOUS
 10
-110.504183
 20
-43.951365
 11
-111.90417
 21
-45.351368
  0
LINE
  8
ゴム等
  6
CONTINUOUS
 10
-116.904173
 20
-39.351368
 11
-116.904173
 21
-39.351368
  0
ARC
  8
ゴム等
  6
CONTINUOUS
 10
-116.40418
 20
-38.351362
 40
0.5
 50
179.99991
 51
269.99991
  0
LINE
  8
ゴム等
  6
CONTINUOUS
 10
-109.404165
 20
-38.851372
 11
-116.404162
 21
-38.851357
  0
ARC
  8
ゴム等
  6
CONTINUOUS
 10
-109.40418
 20
-38.351374
 40
0.5
 50
269.99991
 51
359.99991
  0
LINE
  8
ゴム等
  6
CONTINUOUS
 10
-108.904162
 20
-38.351378
 11
-106.904175
 21
-38.351378
  0
LINE
  8
ゴム等
  6
CONTINUOUS
 10
-106.904175
 20
-43.351372
 11
-106.904175
 21
-38.351378
  0
LINE
  8
ゴム等
  6
CONTINUOUS
 10
-111.967688
 20
-44.00067
 11
-106.904168
 21
-38.937165
  0
LINE
  8
ゴム等
  6
CONTINUOUS
 10
-112.745302
 20
-43.36407
 11
-107.732595
 21
-38.35137
  0
LINE
  8
ゴム等
  6
CONTINUOUS
 10
-115.304183
 20
-44.508727
 11
-109.646813
 21
-38.851372
  0
LINE
  8
ゴム等
  6
CONTINUOUS
 10
-115.561035
 20
-43.351365
 11
-111.06102
 21
-38.851372
  0
LINE
  8
ゴム等
  6
CONTINUOUS
 10
-116.97525
 20
-43.35135
 11
-112.475242
 21
-38.851372
  0
LINE
  8
ゴム等
  6
CONTINUOUS
 10
-118.38945
 20
-43.351357
 11
-113.889443
 21
-38.851357
  0
LINE
  8
ゴム等
  6
CONTINUOUS
 10
-118.904183
 20
-42.451853
 11
-115.303665
 21
-38.851357
  0
LINE
  8
ゴム等
  6
CONTINUOUS
 10
-118.904175
 20
-41.037637
 11
-116.65209
 21
-38.785567
  0
LINE
  8
ゴム等
  6
CONTINUOUS
 10
-118.904175
 20
-39.62343
 11
-117.632093
 21
-38.351355
  0
LINE
  8
ゴム等
  6
CONTINUOUS
 10
-118.904175
 20
-43.35135
 11
-118.904168
 21
-38.351347
  0
LINE
  8
ゴム等
  6
CONTINUOUS
 10
-116.904173
 20
-38.351355
 11
-118.904168
 21
-38.351347
  0
LINE
  8
ゴム等
  6
CONTINUOUS
 10
-116.30418
 20
-45.651368
 11
-113.904187
 21
-47.851372
  0
LINE
  8
ゴム等
  6
CONTINUOUS
 10
-109.504177
 20
-45.651368
 11
-111.904177
 21
-47.851365
  0
LINE
  8
ゴム等
  6
CONTINUOUS
 10
-113.904187
 20
-47.851372
 11
-111.904177
 21
-47.851365
  0
LINE
  8
ゴム等
  6
CONTINUOUS
 10
-113.904173
 20
-45.937147
 11
-114.902902
 21
-46.93587
  0
LINE
  8
ゴム等
  6
CONTINUOUS
 10
-113.382413
 20
-46.829602
 11
-114.165053
 21
-47.612227
  0
LINE
  8
ゴム等
  6
CONTINUOUS
 10
-113.90418
 20
-44.522948
 11
-115.64076
 21
-46.25952
  0
ENDBLK
  0
BLOCK
  2
*GRP_0009
 70
    65
 10
0.0
 20
0.0
  0
LINE
  8
01
  6
CONTINUOUS
 62
    63
 10
101.537882
 20
-14.985705
 11
101.537875
 21
-13.185705
  0
LINE
  8
01
  6
CONTINUOUS
 62
    63
 10
105.53788
 20
-14.985713
 11
105.537865
 21
-13.185705
  0
LINE
  8
01
  6
CONTINUOUS
 62
    63
 10
93.537865
 20
-14.985705
 11
101.537882
 21
-14.985705
  0
LINE
  8
01
  6
CONTINUOUS
 62
    63
 10
105.53788
 20
-14.985713
 11
113.537867
 21
-14.985713
  0
LINE
  8
01
  6
CONTINUOUS
 62
    63
 10
105.537865
 20
-13.185705
 11
104.03788
 21
-13.185713
  0
LINE
  8
01
  6
CONTINUOUS
 62
    63
 10
103.537877
 20
-13.685707
 11
104.03788
 21
-13.185713
  0
LINE
  8
01
  6
CONTINUOUS
 62
    63
 10
103.537877
 20
-13.685707
 11
103.037875
 21
-13.185705
  0
LINE
  8
01
  6
CONTINUOUS
 62
    63
 10
101.537875
 20
-13.185705
 11
103.037875
 21
-13.185705
  0
LINE
  8
01
  6
CONTINUOUS
 62
    63
 10
105.687895
 20
-18.960322
 11
105.687888
 21
-20.76033
  0
LINE
  8
01
  6
CONTINUOUS
 62
    63
 10
101.38786
 20
-18.96033
 11
101.38786
 21
-20.76033
  0
LINE
  8
01
  6
CONTINUOUS
 62
    63
 10
101.38786
 20
-18.96033
 11
105.687895
 21
-18.960322
  0
LINE
  8
01
  6
CONTINUOUS
 62
    63
 10
113.537815
 20
-14.985645
 11
113.537838
 21
-20.760322
  0
LINE
  8
01
  6
CONTINUOUS
 62
    63
 10
105.687888
 20
-20.76033
 11
113.537838
 21
-20.760322
  0
LINE
  8
01
  6
CONTINUOUS
 62
    63
 10
101.38786
 20
-20.76033
 11
93.537827
 21
-20.76033
  0
LINE
  8
01
  6
CONTINUOUS
 62
    63
 10
93.537812
 20
-14.985705
 11
93.537827
 21
-20.76033
  0
LINE
  8
01
  6
CONTINUOUS
 62
    63
 10
101.387853
 20
-19.86363
 11
100.49116
 21
-20.760322
  0
LINE
  8
01
  6
CONTINUOUS
 62
    63
 10
93.537812
 20
-16.399965
 11
94.952073
 21
-14.985705
  0
LINE
  8
01
  6
CONTINUOUS
 62
    63
 10
93.53782
 20
-17.81418
 11
96.366287
 21
-14.985713
  0
LINE
  8
01
  6
CONTINUOUS
 62
    63
 10
93.537827
 20
-19.22838
 11
97.780502
 21
-14.985705
  0
LINE
  8
01
  6
CONTINUOUS
 62
    63
 10
93.537827
 20
-20.642595
 11
99.19471
 21
-14.985705
  0
LINE
  8
01
  6
CONTINUOUS
 62
    63
 10
94.834308
 20
-20.76033
 11
100.608933
 21
-14.985713
  0
LINE
  8
01
  6
CONTINUOUS
 62
    63
 10
101.537875
 20
-14.056755
 11
102.408933
 21
-13.185705
  0
LINE
  8
01
  6
CONTINUOUS
 62
    63
 10
96.248523
 20
-20.760322
 11
103.430515
 21
-13.578337
  0
LINE
  8
01
  6
CONTINUOUS
 62
    63
 10
97.662738
 20
-20.76033
 11
105.237355
 21
-13.185705
  0
LINE
  8
01
  6
CONTINUOUS
 62
    63
 10
99.076945
 20
-20.760322
 11
105.537873
 21
-14.299395
  0
LINE
  8
01
  6
CONTINUOUS
 62
    63
 10
102.29116
 20
-18.960322
 11
106.265777
 21
-14.985713
  0
LINE
  8
01
  6
CONTINUOUS
 62
    63
 10
103.705383
 20
-18.960322
 11
107.679992
 21
-14.985713
  0
LINE
  8
01
  6
CONTINUOUS
 62
    63
 10
105.119605
 20
-18.960322
 11
109.094223
 21
-14.985713
  0
LINE
  8
01
  6
CONTINUOUS
 62
    63
 10
105.687888
 20
-19.806247
 11
110.508423
 21
-14.985713
  0
LINE
  8
01
  6
CONTINUOUS
 62
    63
 10
106.14802
 20
-20.76033
 11
111.92263
 21
-14.985705
  0
LINE
  8
01
  6
CONTINUOUS
 62
    63
 10
107.562235
 20
-20.760322
 11
113.336852
 21
-14.985705
  0
LINE
  8
01
  6
CONTINUOUS
 62
    63
 10
108.976457
 20
-20.760322
 11
113.537823
 21
-16.198957
  0
LINE
  8
01
  6
CONTINUOUS
 62
    63
 10
110.390673
 20
-20.760322
 11
113.537823
 21
-17.613173
  0
LINE
  8
01
  6
CONTINUOUS
 62
    63
 10
111.80488
 20
-20.760322
 11
113.53783
 21
-19.027373
  0
ENDBLK
  0
BLOCK
  2
*GRP_0010
 70
    65
 10
0.0
 20
0.0
  0
LINE
  8
ゴム等
  6
CONTINUOUS
 10
76.33369
 20
-55.831395
 11
75.433668
 21
-54.272573
  0
LINE
  8
ゴム等
  6
CONTINUOUS
 10
78.551335
 20
-52.47252
 11
75.433668
 21
-54.272573
  0
LINE
  8
ゴム等
  6
CONTINUOUS
 10
72.176807
 20
-58.23147
 11
71.276778
 21
-56.672632
  0
LINE
  8
ゴム等
  6
CONTINUOUS
 10
68.159117
 20
-58.472678
 11
71.276778
 21
-56.672632
  0
LINE
  8
ゴム等
  6
CONTINUOUS
 10
72.176807
 20
-58.23147
 11
71.31079
 21
-58.731473
  0
LINE
  8
ゴム等
  6
CONTINUOUS
 10
71.31079
 20
-58.731473
 11
71.560795
 21
-59.164485
  0
LINE
  8
ゴム等
  6
CONTINUOUS
 10
76.33369
 20
-55.831395
 11
77.199715
 21
-55.331385
  0
LINE
  8
ゴム等
  6
CONTINUOUS
 10
77.44972
 20
-55.764397
 11
77.199715
 21
-55.331385
  0
ARC
  8
ゴム等
  6
CONTINUOUS
 10
74.655251
 20
-57.724245
 40
1.0
 50
210.00087
 51
300.00087
  0
LINE
  8
ゴム等
  6
CONTINUOUS
 10
75.155275
 20
-58.590262
 11
75.155275
 21
-58.590262
  0
ARC
  8
ゴム等
  6
CONTINUOUS
 10
74.655251
 20
-57.724245
 40
1.0
 50
300.00087
 51
390.00087
  0
LINE
  8
ゴム等
  6
CONTINUOUS
 10
74.721257
 20
-55.838595
 11
75.521283
 21
-57.224235
  0
ARC
  8
ゴム等
  6
CONTINUOUS
 10
73.85523
 20
-56.338617
 40
1.0
 50
30.00087
 51
120.00087
  0
LINE
  8
ゴム等
  6
CONTINUOUS
 10
73.355222
 20
-55.472602
 11
73.355222
 21
-55.472602
  0
LINE
  8
ゴム等
  6
CONTINUOUS
 10
72.989215
 20
-56.838623
 11
73.78924
 21
-58.224262
  0
ARC
  8
ゴム等
  6
CONTINUOUS
 10
73.85523
 20
-56.338617
 40
1.0
 50
120.00087
 51
210.00087
  0
LINE
  8
ゴム等
  6
CONTINUOUS
 10
78.402745
 20
-52.558305
 11
78.465535
 21
-52.32393
  0
LINE
  8
ゴム等
  6
CONTINUOUS
 10
71.62027
 20
-58.552793
 11
71.48947
 21
-59.040953
  0
LINE
  8
ゴム等
  6
CONTINUOUS
 10
77.75842
 20
-51.099202
 11
77.178017
 21
-53.265435
  0
LINE
  8
ゴム等
  6
CONTINUOUS
 10
76.51921
 20
-55.724295
 11
75.530995
 21
-59.412578
  0
LINE
  8
ゴム等
  6
CONTINUOUS
 10
77.05129
 20
-49.874467
 11
75.953275
 21
-53.972558
  0
LINE
  8
ゴム等
  6
CONTINUOUS
 10
75.733675
 20
-54.79218
 11
75.221275
 21
-56.70462
  0
LINE
  8
ゴム等
  6
CONTINUOUS
 10
67.891105
 20
-54.008587
 11
67.891105
 21
-54.008587
  0
ARC
  8
ゴム等
  6
CONTINUOUS
 10
67.824089
 20
-52.892556
 40
0.5
 50
210.00087
 51
300.00087
  0
LINE
  8
ゴム等
  6
CONTINUOUS
 10
74.136235
 20
-49.82547
 11
68.074113
 21
-53.325562
  0
ARC
  8
ゴム等
  6
CONTINUOUS
 10
73.886214
 20
-49.392464
 40
0.5
 50
300.00087
 51
390.00087
  0
LINE
  8
ゴム等
  6
CONTINUOUS
 10
74.319235
 20
-49.142453
 11
76.051262
 21
-48.142432
  0
LINE
  8
ゴム等
  6
CONTINUOUS
 10
78.551335
 20
-52.47252
 11
76.051262
 21
-48.142432
  0
LINE
  8
ゴム等
  6
CONTINUOUS
 10
74.490903
 20
-55.566645
 11
76.344167
 21
-48.649733
  0
LINE
  8
ゴム等
  6
CONTINUOUS
 10
73.49917
 20
-55.404158
 11
75.333835
 21
-48.55665
  0
LINE
  8
ゴム等
  6
CONTINUOUS
 10
71.855478
 20
-57.674925
 11
73.926093
 21
-49.946797
  0
LINE
  8
ゴム等
  6
CONTINUOUS
 10
71.054342
 20
-56.801062
 11
72.701365
 21
-50.65392
  0
LINE
  8
ゴム等
  6
CONTINUOUS
 10
69.8296
 20
-57.508185
 11
71.476622
 21
-51.36105
  0
LINE
  8
ゴム等
  6
CONTINUOUS
 10
68.60488
 20
-58.215308
 11
70.251902
 21
-52.068165
  0
LINE
  8
ゴム等
  6
CONTINUOUS
 10
67.70935
 20
-57.693697
 11
69.02716
 21
-52.775295
  0
LINE
  8
ゴム等
  6
CONTINUOUS
 10
67.002227
 20
-56.468962
 11
67.826507
 21
-53.392552
  0
LINE
  8
ゴム等
  6
CONTINUOUS
 10
66.295105
 20
-55.244235
 11
66.760698
 21
-53.50653
  0
LINE
  8
ゴム等
  6
CONTINUOUS
 10
68.159117
 20
-58.472678
 11
65.659052
 21
-54.142583
  0
LINE
  8
ゴム等
  6
CONTINUOUS
 10
67.391087
 20
-53.142555
 11
65.659052
 21
-54.142583
  0
LINE
  8
ゴム等
  6
CONTINUOUS
 10
71.560795
 20
-59.164485
 11
74.739265
 21
-59.869695
  0
LINE
  8
ゴム等
  6
CONTINUOUS
 10
77.44972
 20
-55.764397
 11
76.471307
 21
-58.86966
  0
LINE
  8
ゴム等
  6
CONTINUOUS
 10
74.739265
 20
-59.869695
 11
76.471307
 21
-58.86966
  0
LINE
  8
ゴム等
  6
CONTINUOUS
 10
73.782137
 20
-58.21194
 11
73.416603
 21
-59.576228
  0
LINE
  8
ゴム等
  6
CONTINUOUS
 10
74.680233
 20
-58.723927
 11
74.393778
 21
-59.793037
  0
LINE
  8
ゴム等
  6
CONTINUOUS
 10
73.075015
 20
-56.98722
 11
72.43942
 21
-59.359433
  0
ENDBLK
  0
BLOCK
  2
*GRP_0011
 70
    65
 10
0.0
 20
0.0
  0
LINE
  8
ゴム等
  6
CONTINUOUS
 10
130.742028
 20
-55.831373
 11
131.64205
 21
-54.27255
  0
LINE
  8
ゴム等
  6
CONTINUOUS
 10
128.524382
 20
-52.472498
 11
131.64205
 21
-54.27255
  0
LINE
  8
ゴム等
  6
CONTINUOUS
 10
134.89891
 20
-58.231448
 11
135.79894
 21
-56.67261
  0
LINE
  8
ゴム等
  6
CONTINUOUS
 10
138.9166
 20
-58.472648
 11
135.79894
 21
-56.67261
  0
LINE
  8
ゴム等
  6
CONTINUOUS
 10
134.89891
 20
-58.231448
 11
135.764927
 21
-58.73145
  0
LINE
  8
ゴム等
  6
CONTINUOUS
 10
135.764927
 20
-58.73145
 11
135.514922
 21
-59.164462
  0
LINE
  8
ゴム等
  6
CONTINUOUS
 10
130.742028
 20
-55.831373
 11
129.876002
 21
-55.331362
  0
LINE
  8
ゴム等
  6
CONTINUOUS
 10
129.625998
 20
-55.764375
 11
129.876002
 21
-55.331362
  0
ARC
  8
ゴム等
  6
CONTINUOUS
 10
132.420443
 20
-57.724222
 40
1.0
 50
239.999176
 51
329.999176
  0
LINE
  8
ゴム等
  6
CONTINUOUS
 10
131.920442
 20
-58.59024
 11
131.920442
 21
-58.59024
  0
ARC
  8
ゴム等
  6
CONTINUOUS
 10
132.420443
 20
-57.724222
 40
1.0
 50
149.999176
 51
239.999176
  0
LINE
  8
ゴム等
  6
CONTINUOUS
 10
132.35446
 20
-55.838573
 11
131.554435
 21
-57.224212
  0
ARC
  8
ゴム等
  6
CONTINUOUS
 10
133.220463
 20
-56.338593
 40
1.0
 50
59.999176
 51
149.999176
  0
LINE
  8
ゴム等
  6
CONTINUOUS
 10
133.720495
 20
-55.47258
 11
133.720495
 21
-55.47258
  0
LINE
  8
ゴム等
  6
CONTINUOUS
 10
134.086502
 20
-56.8386
 11
133.286477
 21
-58.22424
  0
ARC
  8
ゴム等
  6
CONTINUOUS
 10
133.220463
 20
-56.338593
 40
1.0
 50
329.999176
 51
419.999176
  0
LINE
  8
ゴム等
  6
CONTINUOUS
 10
128.672972
 20
-52.558283
 11
128.610182
 21
-52.323908
  0
LINE
  8
ゴム等
  6
CONTINUOUS
 10
135.455448
 20
-58.55277
 11
135.586247
 21
-59.04093
  0
LINE
  8
ゴム等
  6
CONTINUOUS
 10
129.31729
 20
-51.09918
 11
129.8977
 21
-53.265413
  0
LINE
  8
ゴム等
  6
CONTINUOUS
 10
130.556508
 20
-55.724273
 11
131.544722
 21
-59.412555
  0
LINE
  8
ゴム等
  6
CONTINUOUS
 10
130.02442
 20
-49.874445
 11
131.122443
 21
-53.972535
  0
LINE
  8
ゴム等
  6
CONTINUOUS
 10
131.342043
 20
-54.792158
 11
131.854443
 21
-56.704597
  0
LINE
  8
ゴム等
  6
CONTINUOUS
 10
139.184613
 20
-54.008558
 11
139.184613
 21
-54.008558
  0
ARC
  8
ゴム等
  6
CONTINUOUS
 10
139.251601
 20
-52.892527
 40
0.5
 50
239.999176
 51
329.999176
  0
LINE
  8
ゴム等
  6
CONTINUOUS
 10
132.939475
 20
-49.825447
 11
139.001605
 21
-53.325533
  0
ARC
  8
ゴム等
  6
CONTINUOUS
 10
133.189474
 20
-49.39244
 40
0.5
 50
149.999176
 51
239.999176
  0
LINE
  8
ゴム等
  6
CONTINUOUS
 10
132.756475
 20
-49.14243
 11
131.024447
 21
-48.14241
  0
LINE
  8
ゴム等
  6
CONTINUOUS
 10
128.524382
 20
-52.472498
 11
131.024447
 21
-48.14241
  0
LINE
  8
ゴム等
  6
CONTINUOUS
 10
132.584815
 20
-55.566622
 11
130.731543
 21
-48.64971
  0
LINE
  8
ゴム等
  6
CONTINUOUS
 10
133.576548
 20
-55.404135
 11
131.741875
 21
-48.556628
  0
LINE
  8
ゴム等
  6
CONTINUOUS
 10
135.22024
 20
-57.674903
 11
133.149618
 21
-49.946775
  0
LINE
  8
ゴム等
  6
CONTINUOUS
 10
136.021375
 20
-56.80104
 11
134.374345
 21
-50.653898
  0
LINE
  8
ゴム等
  6
CONTINUOUS
 10
137.246118
 20
-57.508155
 11
135.599087
 21
-51.361027
  0
LINE
  8
ゴム等
  6
CONTINUOUS
 10
138.470838
 20
-58.215277
 11
136.823815
 21
-52.068135
  0
LINE
  8
ゴム等
  6
CONTINUOUS
 10
139.366367
 20
-57.693667
 11
138.048558
 21
-52.775265
  0
LINE
  8
ゴム等
  6
CONTINUOUS
 10
140.07349
 20
-56.468933
 11
139.24921
 21
-53.392522
  0
LINE
  8
ゴム等
  6
CONTINUOUS
 10
140.780612
 20
-55.244205
 11
140.31502
 21
-53.5065
  0
LINE
  8
ゴム等
  6
CONTINUOUS
 10
138.9166
 20
-58.472648
 11
141.416665
 21
-54.142552
  0
LINE
  8
ゴム等
  6
CONTINUOUS
 10
139.68463
 20
-53.142525
 11
141.416665
 21
-54.142552
  0
LINE
  8
ゴム等
  6
CONTINUOUS
 10
135.514922
 20
-59.164462
 11
132.336453
 21
-59.869672
  0
LINE
  8
ゴム等
  6
CONTINUOUS
 10
129.625998
 20
-55.764375
 11
130.60441
 21
-58.869638
  0
LINE
  8
ゴム等
  6
CONTINUOUS
 10
132.336453
 20
-59.869672
 11
130.60441
 21
-58.869638
  0
LINE
  8
ゴム等
  6
CONTINUOUS
 10
133.29358
 20
-58.211917
 11
133.659115
 21
-59.576205
  0
LINE
  8
ゴム等
  6
CONTINUOUS
 10
132.395485
 20
-58.723905
 11
132.68194
 21
-59.793015
  0
LINE
  8
ゴム等
  6
CONTINUOUS
 10
134.000703
 20
-56.987198
 11
134.636298
 21
-59.35941
  0
ENDBLK
  0
BLOCK
  2
*GRP_0012
 70
    65
 10
0.0
 20
0.0
  0
LINE
  8
ボルト／ビス
  6
CONTINUOUS
 62
    64
 10
-85.405095
 20
-19.551937
 11
-85.496797
 21
-18.503775
  0
ARC
  8
ボルト／ビス
  6
CONTINUOUS
 62
    64
 10
-87.19035
 20
-18.651929
 40
1.7
 50
4.999989
 51
90.0
  0
LINE
  8
ボルト／ビス
  6
CONTINUOUS
 62
    64
 10
-87.190327
 20
-16.951935
 11
-88.905098
 21
-16.951935
  0
LINE
  8
ボルト／ビス
  6
CONTINUOUS
 62
    64
 10
-92.4051
 20
-19.551937
 11
-92.313397
 21
-18.503775
  0
ARC
  8
ボルト／ビス
  6
CONTINUOUS
 62
    64
 10
-90.619883
 20
-18.651929
 40
1.7
 50
90.0
 51
175.000011
  0
LINE
  8
ボルト／ビス
  6
CONTINUOUS
 62
    64
 10
-90.619867
 20
-16.951935
 11
-88.905098
 21
-16.951935
  0
LINE
  8
ボルト／ビス
  6
CONTINUOUS
 62
    64
 10
-86.508457
 20
-17.336842
 11
-86.508457
 21
-17.094682
  0
LINE
  8
ボルト／ビス
  6
CONTINUOUS
 62
    64
 10
-88.2051
 20
-17.986928
 11
-88.905098
 21
-17.986928
  0
LINE
  8
ボルト／ビス
  6
CONTINUOUS
 62
    64
 10
-87.805095
 20
-17.336842
 11
-86.508457
 21
-17.336842
  0
LINE
  8
ボルト／ビス
  6
CONTINUOUS
 62
    64
 10
-88.2051
 20
-17.986928
 11
-88.2051
 21
-17.73684
  0
ARC
  8
ボルト／ビス
  6
CONTINUOUS
 62
    64
 10
-87.805117
 20
-17.736834
 40
0.4
 50
90.0
 51
180.0
  0
LINE
  8
ボルト／ビス
  6
CONTINUOUS
 62
    64
 10
-91.301738
 20
-17.336842
 11
-91.301738
 21
-17.094682
  0
LINE
  8
ボルト／ビス
  6
CONTINUOUS
 62
    64
 10
-89.605095
 20
-17.986928
 11
-88.905098
 21
-17.986928
  0
LINE
  8
ボルト／ビス
  6
CONTINUOUS
 62
    64
 10
-90.0051
 20
-17.336842
 11
-91.301738
 21
-17.336842
  0
LINE
  8
ボルト／ビス
  6
CONTINUOUS
 62
    64
 10
-89.605095
 20
-17.986928
 11
-89.605095
 21
-17.73684
  0
ARC
  8
ボルト／ビス
  6
CONTINUOUS
 62
    64
 10
-90.005117
 20
-17.736834
 40
0.4
 50
0.0
 51
90.0
  0
LINE
  8
ボルト／ビス
  6
CONTINUOUS
 62
    64
 10
-85.405095
 20
-19.551937
 11
-92.4051
 21
-19.551937
  0
LINE
  8
ボルト／ビス
  6
CONTINUOUS
 62
    64
 10
-88.905098
 20
-14.980552
 11
-88.905098
 21
-41.824815
  0
LINE
  8
ボルト／ビス
  6
CONTINUOUS
 62
    64
 10
-86.905095
 20
-39.051937
 11
-87.405098
 21
-39.55194
  0
LINE
  8
ボルト／ビス
  6
CONTINUOUS
 62
    64
 10
-90.9051
 20
-39.051937
 11
-90.405098
 21
-39.55194
  0
LINE
  8
ボルト／ビス
  6
CONTINUOUS
 62
    64
 10
-86.905095
 20
-39.051937
 11
-90.9051
 21
-39.051937
  0
LINE
  8
ボルト／ビス
  6
CONTINUOUS
 62
    64
 10
-87.405098
 20
-39.55194
 11
-90.405098
 21
-39.55194
  0
LINE
  8
ボルト／ビス
  6
CONTINUOUS
 62
    64
 10
-87.405098
 20
-19.551937
 11
-87.405098
 21
-39.55194
  0
LINE
  8
ボルト／ビス
  6
CONTINUOUS
 62
    64
 10
-90.405098
 20
-19.551937
 11
-90.405098
 21
-39.55194
  0
LINE
  8
ボルト／ビス
  6
CONTINUOUS
 62
    64
 10
-86.905095
 20
-19.551937
 11
-86.905095
 21
-39.051937
  0
LINE
  8
ボルト／ビス
  6
CONTINUOUS
 62
    64
 10
-90.9051
 20
-19.551937
 11
-90.9051
 21
-39.051937
  0
ENDBLK
  0
BLOCK
  2
*DIM_0013
 70
    65
 10
0.0
 20
0.0
  0
LINE
  8
寸法
  6
CONTINUOUS
 10
-53.904932
 20
-2.62866
 11
-53.904932
 21
26.04645
  0
LINE
  8
寸法
  6
CONTINUOUS
 10
-123.904822
 20
-2.62866
 11
-123.904822
 21
26.04645
  0
LINE
  8
寸法
  6
CONTINUOUS
 10
-53.904932
 20
26.04645
 11
-123.904822
 21
26.04645
  0
POINT
  8
寸法
 10
-53.904932
 20
26.04645
  0
POINT
  8
寸法
 10
-123.904822
 20
26.04645
  0
TEXT
  7
TextStyle03
  8
寸法
  6
CONTINUOUS
 10
-90.51875
 20
26.375
  1
70
 40
3.0
 72
     5
 11
-87.33125
 21
26.375
  0
ENDBLK
  0
BLOCK
  2
*DIM_0014
 70
    65
 10
0.0
 20
0.0
  0
LINE
  8
寸法
  6
CONTINUOUS
 10
-48.904845
 20
-83.351405
 11
-48.904845
 21
-93.318473
  0
LINE
  8
寸法
  6
CONTINUOUS
 10
-128.90484
 20
-83.351375
 11
-128.90484
 21
-93.318473
  0
LINE
  8
寸法
  6
CONTINUOUS
 10
-48.904845
 20
-93.318473
 11
-128.90484
 21
-93.318473
  0
POINT
  8
寸法
 10
-48.904845
 20
-93.318473
  0
POINT
  8
寸法
 10
-128.90484
 20
-93.318473
  0
TEXT
  7
TextStyle03
  8
寸法
  6
CONTINUOUS
 10
-90.51875
 20
-92.975
  1
80
 40
3.0
 72
     5
 11
-87.33125
 21
-92.975
  0
ENDBLK
  0
BLOCK
  2
*DIM_0015
 70
    65
 10
0.0
 20
0.0
  0
LINE
  8
寸法
  6
CONTINUOUS
 10
49.873133
 20
-22.026395
 11
41.859355
 21
-8.146165
  0
LINE
  8
寸法
  6
CONTINUOUS
 10
101.037812
 20
9.353775
 11
93.82084
 21
21.8539
  0
LINE
  8
寸法
  6
CONTINUOUS
 10
41.859355
 20
-8.146165
 11
93.82084
 21
21.8539
  0
POINT
  8
寸法
 10
41.859355
 20
-8.146165
  0
POINT
  8
寸法
 10
93.82084
 20
21.8539
  0
TEXT
  7
TextStyle03
  8
寸法
  6
CONTINUOUS
 10
66.244772
 20
6.354087
  1
60
 40
3.0
 50
30.0
 72
     5
 11
69.005228
 21
7.947837
  0
ENDBLK
  0
BLOCK
  2
*DIM_0016
 70
    65
 10
0.0
 20
0.0
  0
LINE
  8
寸法
  6
CONTINUOUS
 10
106.037888
 20
-87.522757
 11
110.806367
 21
-95.781998
  0
LINE
  8
寸法
  6
CONTINUOUS
 10
82.84668
 20
-100.912245
 11
87.615152
 21
-109.17147
  0
LINE
  8
寸法
  6
CONTINUOUS
 10
110.806367
 20
-95.781998
 11
87.615152
 21
-109.17147
  0
POINT
  8
寸法
 10
110.806367
 20
-95.781998
  0
POINT
  8
寸法
 10
87.615152
 20
-109.17147
  0
TEXT
  7
TextStyle03
  8
寸法
  6
CONTINUOUS
 10
96.158354
 20
-103.814663
  1
26.8
 40
3.0
 50
30.0
 72
     5
 11
101.841646
 21
-100.533413
  0
ENDBLK
  0
BLOCK
  2
*DIM_0017
 70
    65
 10
0.0
 20
0.0
  0
LINE
  8
寸法
  6
CONTINUOUS
 10
48.527453
 20
-26.736683
 11
8.158698
 21
-50.043595
  0
LINE
  8
寸法
  6
CONTINUOUS
 10
76.01655
 20
-99.08212
 11
46.357465
 21
-116.2058
  0
LINE
  8
寸法
  6
CONTINUOUS
 10
8.158698
 20
-50.043595
 11
46.357465
 21
-116.2058
  0
POINT
  8
寸法
 10
8.158698
 20
-50.043595
  0
POINT
  8
寸法
 10
46.357465
 20
-116.2058
  0
TEXT
  7
TextStyle03
  8
寸法
  6
CONTINUOUS
 10
25.910337
 20
-80.108354
  1
76.4
 40
3.0
 50
300.0
 72
     5
 11
29.191587
 21
-85.791646
  0
ENDBLK
  0
BLOCK
  2
*DIM_0018
 70
    65
 10
0.0
 20
0.0
  0
LINE
  8
寸法
  6
CONTINUOUS
 10
48.112188
 20
-26.976415
 11
17.46745
 21
-44.669163
  0
LINE
  8
寸法
  6
CONTINUOUS
 10
49.246192
 20
-30.94051
 11
19.467455
 21
-48.133273
  0
LINE
  8
寸法
  6
CONTINUOUS
 10
17.46745
 20
-44.669163
 11
19.467455
 21
-48.133273
  0
POINT
  8
寸法
 10
17.46745
 20
-44.669163
  0
POINT
  8
寸法
 10
19.467455
 20
-48.133273
  0
TEXT
  7
TextStyle03
  8
寸法
  6
CONTINUOUS
 10
18.400962
 20
-45.575481
  1
4
 40
3.0
 50
300.0
 72
     5
 11
19.150962
 21
-46.874519
  0
ENDBLK
  0
BLOCK
  2
*DIM_0019
 70
    65
 10
0.0
 20
0.0
  0
LINE
  8
寸法
  6
CONTINUOUS
 10
30.00645
 20
-54.17752
 11
24.71944
 21
-57.229978
  0
LINE
  8
寸法
  6
CONTINUOUS
 10
19.467455
 20
-48.133273
 11
24.71944
 21
-57.229978
  0
POINT
  8
寸法
 10
24.71944
 20
-57.229978
  0
TEXT
  7
TextStyle03
  8
寸法
  6
CONTINUOUS
 10
20.760337
 20
-49.683354
  1
10.5
 40
3.0
 50
300.0
 72
     5
 11
24.041587
 21
-55.366646
  0
ENDBLK
  0
BLOCK
  2
*DIM_0020
 70
    65
 10
0.0
 20
0.0
  0
LINE
  8
寸法
  6
CONTINUOUS
 10
38.906445
 20
-69.592795
 11
33.61945
 21
-72.645245
  0
LINE
  8
寸法
  6
CONTINUOUS
 10
24.71944
 20
-57.229978
 11
33.61945
 21
-72.645245
  0
POINT
  8
寸法
 10
33.61945
 20
-72.645245
  0
TEXT
  7
TextStyle03
  8
寸法
  6
CONTINUOUS
 10
27.835337
 20
-61.933354
  1
17.8
 40
3.0
 50
300.0
 72
     5
 11
31.116587
 21
-67.616646
  0
ENDBLK
  0
BLOCK
  2
*DIM_0021
 70
    65
 10
0.0
 20
0.0
  0
LINE
  8
寸法
  6
CONTINUOUS
 10
63.395992
 20
-61.222682
 11
36.117473
 21
-76.971945
  0
LINE
  8
寸法
  6
CONTINUOUS
 10
33.61945
 20
-72.645245
 11
36.117473
 21
-76.971945
  0
POINT
  8
寸法
 10
36.117473
 20
-76.971945
  0
TEXT
  7
TextStyle03
  8
寸法
  6
CONTINUOUS
 10
34.800962
 20
-74.000481
  1
5
 40
3.0
 50
300.0
 72
     5
 11
35.550962
 21
-75.299519
  0
ENDBLK
  0
BLOCK
  2
*DIM_0022
 70
    65
 10
0.0
 20
0.0
  0
LINE
  8
寸法
  6
CONTINUOUS
 10
70.861095
 20
-89.356925
 11
50.166232
 21
-101.30511
  0
LINE
  8
寸法
  6
CONTINUOUS
 10
36.117473
 20
-76.971945
 11
50.166232
 21
-101.30511
  0
POINT
  8
寸法
 10
50.166232
 20
-101.30511
  0
TEXT
  7
TextStyle03
  8
寸法
  6
CONTINUOUS
 10
41.810337
 20
-86.133354
  1
28.1
 40
3.0
 50
300.0
 72
     5
 11
45.091587
 21
-91.816646
  0
ENDBLK
  0
BLOCK
  2
*DIM_0023
 70
    65
 10
0.0
 20
0.0
  0
LINE
  8
寸法
  6
CONTINUOUS
 10
76.01655
 20
-99.08212
 11
55.666228
 21
-110.831385
  0
LINE
  8
寸法
  6
CONTINUOUS
 10
50.166232
 20
-101.30511
 11
55.666228
 21
-110.831385
  0
POINT
  8
寸法
 10
55.666228
 20
-110.831385
  0
TEXT
  7
TextStyle03
  8
寸法
  6
CONTINUOUS
 10
52.429087
 20
-104.519772
  1
11
 40
3.0
 50
300.0
 72
     5
 11
54.022837
 21
-107.280228
  0
ENDBLK
  0
BLOCK
  2
*DIM_0024
 70
    65
 10
0.0
 20
0.0
  0
LINE
  8
寸法
  6
CONTINUOUS
 10
46.903765
 20
-64.975543
 11
43.503758
 21
-59.08655
  0
POINT
  8
寸法
 10
46.903765
 20
-64.975543
  0
POINT
  8
寸法
 10
43.503758
 20
-59.08655
  0
TEXT
  7
TextStyle03
  8
寸法
  6
CONTINUOUS
 10
44.282212
 20
-59.764063
  1
6.8
 40
3.0
 50
300.0
 72
     5
 11
46.719712
 21
-63.985937
  0
ENDBLK
  0
BLOCK
  2
*DIM_0025
 70
    65
 10
0.0
 20
0.0
  0
LINE
  8
寸法
  6
CONTINUOUS
 10
43.503758
 20
-59.08655
 11
40.503775
 21
-53.890423
  0
POINT
  8
寸法
 10
40.503775
 20
-53.890423
  0
TEXT
  7
TextStyle03
  8
寸法
  6
CONTINUOUS
 10
41.925962
 20
-55.675481
  1
6
 40
3.0
 50
300.0
 72
     5
 11
42.675962
 21
-56.974519
  0
ENDBLK
  0
BLOCK
  2
*DIM_0026
 70
    65
 10
0.0
 20
0.0
  0
LINE
  8
寸法
  6
CONTINUOUS
 10
40.503775
 20
-53.890423
 11
38.003763
 21
-49.56027
  0
POINT
  8
寸法
 10
38.003763
 20
-49.56027
  0
TEXT
  7
TextStyle03
  8
寸法
  6
CONTINUOUS
 10
39.175962
 20
-50.900481
  1
5
 40
3.0
 50
300.0
 72
     5
 11
39.925962
 21
-52.199519
  0
ENDBLK
  0
BLOCK
  2
*DIM_0027
 70
    65
 10
0.0
 20
0.0
  0
LINE
  8
寸法
  6
CONTINUOUS
 10
-50.607312
 20
-6.051967
 11
-3.91403
 21
-6.051967
  0
LINE
  8
寸法
  6
CONTINUOUS
 10
-43.904845
 20
-78.351405
 11
-3.91403
 21
-78.351405
  0
LINE
  8
寸法
  6
CONTINUOUS
 10
-3.91403
 20
-6.051967
 11
-3.91403
 21
-78.351405
  0
POINT
  8
寸法
 10
-3.91403
 20
-6.051967
  0
POINT
  8
寸法
 10
-3.91403
 20
-78.351405
  0
TEXT
  7
TextStyle03
  8
寸法
  6
CONTINUOUS
 10
-4.3
 20
-45.50625
  1
72.3
 40
3.0
 50
90.0
 72
     5
 11
-4.3
 21
-38.94375
  0
ENDBLK
  0
BLOCK
  2
*DIM_0028
 70
    65
 10
0.0
 20
0.0
  0
LINE
  8
寸法
  6
CONTINUOUS
 10
-50.368645
 20
-6.051967
 11
-12.53903
 21
-6.051967
  0
LINE
  8
寸法
  6
CONTINUOUS
 10
-48.904937
 20
-9.25197
 11
-12.53903
 21
-9.25197
  0
LINE
  8
寸法
  6
CONTINUOUS
 10
-12.53903
 20
-6.051967
 11
-12.53903
 21
-9.25197
  0
POINT
  8
寸法
 10
-12.53903
 20
-6.051967
  0
POINT
  8
寸法
 10
-12.53903
 20
-9.25197
  0
TEXT
  7
TextStyle03
  8
寸法
  6
CONTINUOUS
 10
-12.925
 20
-5.0625
  1
3.2
 40
3.0
 50
90.0
 72
     5
 11
-12.925
 21
-0.1875
  0
ENDBLK
  0
BLOCK
  2
*DIM_0029
 70
    65
 10
0.0
 20
0.0
  0
LINE
  8
寸法
  6
CONTINUOUS
 10
-16.905033
 20
-20.554958
 11
-12.53903
 21
-20.554958
  0
LINE
  8
寸法
  6
CONTINUOUS
 10
-12.53903
 20
-9.25197
 11
-12.53903
 21
-20.554958
  0
POINT
  8
寸法
 10
-12.53903
 20
-20.554958
  0
TEXT
  7
TextStyle03
  8
寸法
  6
CONTINUOUS
 10
-12.925
 20
-18.20625
  1
11.3
 40
3.0
 50
90.0
 72
     5
 11
-12.925
 21
-11.64375
  0
ENDBLK
  0
BLOCK
  2
*DIM_0030
 70
    65
 10
0.0
 20
0.0
  0
LINE
  8
寸法
  6
CONTINUOUS
 10
-16.904748
 20
-38.354978
 11
-12.53903
 21
-38.354978
  0
LINE
  8
寸法
  6
CONTINUOUS
 10
-12.53903
 20
-20.554958
 11
-12.53903
 21
-38.354978
  0
POINT
  8
寸法
 10
-12.53903
 20
-38.354978
  0
TEXT
  7
TextStyle03
  8
寸法
  6
CONTINUOUS
 10
-12.925
 20
-32.75625
  1
17.8
 40
3.0
 50
90.0
 72
     5
 11
-12.925
 21
-26.19375
  0
ENDBLK
  0
BLOCK
  2
*DIM_0031
 70
    65
 10
0.0
 20
0.0
  0
LINE
  8
寸法
  6
CONTINUOUS
 10
-53.40544
 20
-43.35141
 11
-12.53903
 21
-43.35141
  0
LINE
  8
寸法
  6
CONTINUOUS
 10
-12.53903
 20
-38.354978
 11
-12.53903
 21
-43.35141
  0
POINT
  8
寸法
 10
-12.53903
 20
-43.35141
  0
TEXT
  7
TextStyle03
  8
寸法
  6
CONTINUOUS
 10
-12.925
 20
-41.625
  1
5
 40
3.0
 50
90.0
 72
     5
 11
-12.925
 21
-40.125
  0
ENDBLK
  0
BLOCK
  2
*DIM_0032
 70
    65
 10
0.0
 20
0.0
  0
LINE
  8
寸法
  6
CONTINUOUS
 10
-43.904838
 20
-69.351412
 11
-12.53903
 21
-69.351412
  0
LINE
  8
寸法
  6
CONTINUOUS
 10
-12.53903
 20
-43.35141
 11
-12.53903
 21
-69.351412
  0
POINT
  8
寸法
 10
-12.53903
 20
-69.351412
  0
TEXT
  7
TextStyle03
  8
寸法
  6
CONTINUOUS
 10
-12.925
 20
-57.96875
  1
26
 40
3.0
 50
90.0
 72
     5
 11
-12.925
 21
-54.78125
  0
ENDBLK
  0
BLOCK
  2
*DIM_0033
 70
    65
 10
0.0
 20
0.0
  0
LINE
  8
寸法
  6
CONTINUOUS
 10
-43.904845
 20
-78.351405
 11
-12.53903
 21
-78.351405
  0
LINE
  8
寸法
  6
CONTINUOUS
 10
-12.53903
 20
-69.351412
 11
-12.53903
 21
-78.351405
  0
POINT
  8
寸法
 10
-12.53903
 20
-78.351405
  0
TEXT
  7
TextStyle03
  8
寸法
  6
CONTINUOUS
 10
-12.925
 20
-74.625
  1
9
 40
3.0
 50
90.0
 72
     5
 11
-12.925
 21
-73.125
  0
ENDBLK
  0
BLOCK
  2
*DIM_0034
 70
    65
 10
0.0
 20
0.0
  0
LINE
  8
寸法
  6
CONTINUOUS
 10
-28.66307
 20
-38.355263
 11
-30.32374
 21
-38.355263
  0
LINE
  8
寸法
  6
CONTINUOUS
 10
-29.181778
 20
-31.555257
 11
-30.32374
 21
-31.555257
  0
LINE
  8
寸法
  6
CONTINUOUS
 10
-30.32374
 20
-38.355263
 11
-30.32374
 21
-31.555257
  0
POINT
  8
寸法
 10
-30.32374
 20
-38.355263
  0
POINT
  8
寸法
 10
-30.32374
 20
-31.555257
  0
TEXT
  7
TextStyle03
  8
寸法
  6
CONTINUOUS
 10
-30.725
 20
-37.4375
  1
6.8
 40
3.0
 50
90.0
 72
     5
 11
-30.725
 21
-32.5625
  0
ENDBLK
  0
BLOCK
  2
*DIM_0035
 70
    65
 10
0.0
 20
0.0
  0
LINE
  8
寸法
  6
CONTINUOUS
 10
-27.154317
 20
-25.555248
 11
-30.32374
 21
-25.555248
  0
LINE
  8
寸法
  6
CONTINUOUS
 10
-30.32374
 20
-31.555257
 11
-30.32374
 21
-25.555248
  0
POINT
  8
寸法
 10
-30.32374
 20
-25.555248
  0
TEXT
  7
TextStyle03
  8
寸法
  6
CONTINUOUS
 10
-30.725
 20
-29.35
  1
6
 40
3.0
 50
90.0
 72
     5
 11
-30.725
 21
-27.85
  0
ENDBLK
  0
BLOCK
  2
*DIM_0036
 70
    65
 10
0.0
 20
0.0
  0
LINE
  8
寸法
  6
CONTINUOUS
 10
-28.13867
 20
-20.55523
 11
-30.32374
 21
-20.55523
  0
LINE
  8
寸法
  6
CONTINUOUS
 10
-30.32374
 20
-25.555248
 11
-30.32374
 21
-20.55523
  0
POINT
  8
寸法
 10
-30.32374
 20
-20.55523
  0
TEXT
  7
TextStyle03
  8
寸法
  6
CONTINUOUS
 10
-30.725
 20
-23.85
  1
5
 40
3.0
 50
90.0
 72
     5
 11
-30.725
 21
-22.35
  0
ENDBLK
  0
BLOCK
  2
*GRP_0037
 70
    65
 10
0.0
 20
0.0
  0
ARC
  8
型材断面
  6
CONTINUOUS
 62
    47
 10
-84.405238
 20
-19.052022
 40
0.5
 50
269.999962
 51
359.999962
  0
ARC
  8
型材断面
  6
CONTINUOUS
 62
    47
 10
-93.405238
 20
-19.052016
 40
0.5
 50
179.999962
 51
269.999962
  0
LINE
  8
型材断面
  6
CONTINUOUS
 62
    47
 10
-103.205145
 20
-9.051877
 11
-103.205115
 21
-15.551925
  0
ARC
  8
型材断面
  6
CONTINUOUS
 62
    47
 10
-102.705236
 20
-15.551999
 40
0.5
 50
179.999962
 51
269.999962
  0
LINE
  8
型材断面
  6
CONTINUOUS
 62
    47
 10
-102.705113
 20
-16.051875
 11
-98.405047
 21
-16.05186
  0
LINE
  8
型材断面
  6
CONTINUOUS
 62
    47
 10
-96.40512
 20
-21.551948
 11
-96.405105
 21
-18.051833
  0
ARC
  8
型材断面
  6
CONTINUOUS
 62
    47
 10
-98.405238
 20
-18.052002
 40
2.0
 50
359.999962
 51
449.999962
  0
LINE
  8
型材断面
  6
CONTINUOUS
 62
    47
 10
-83.604555
 20
-21.551933
 11
-83.604585
 21
-21.851948
  0
LINE
  8
型材断面
  6
CONTINUOUS
 62
    47
 10
-94.205055
 20
-21.551918
 11
-94.205085
 21
-21.85194
  0
LINE
  8
型材断面
  6
CONTINUOUS
 62
    47
 10
-83.604555
 20
-21.551933
 11
-94.205055
 21
-21.551918
  0
LINE
  8
型材断面
  6
CONTINUOUS
 62
    47
 10
-88.905098
 20
-19.851893
 11
-88.605112
 21
-19.551923
  0
LINE
  8
型材断面
  6
CONTINUOUS
 62
    47
 10
-88.905098
 20
-19.851893
 11
-89.205127
 21
-19.551998
  0
LINE
  8
型材断面
  6
CONTINUOUS
 62
    47
 10
-95.005087
 20
-21.551933
 11
-95.005102
 21
-21.851918
  0
LINE
  8
型材断面
  6
CONTINUOUS
 62
    47
 10
-94.205085
 20
-21.85194
 11
-95.005102
 21
-21.851918
  0
LINE
  8
型材断面
  6
CONTINUOUS
 62
    47
 10
-82.804612
 20
-21.551933
 11
-82.80462
 21
-21.851918
  0
LINE
  8
型材断面
  6
CONTINUOUS
 62
    47
 10
-83.604585
 20
-21.851948
 11
-82.80462
 21
-21.851918
  0
ARC
  8
型材断面
  6
CONTINUOUS
 62
    47
 10
-98.205235
 20
-9.552001
 40
0.5
 50
359.999962
 51
449.999962
  0
LINE
  8
型材断面
  6
CONTINUOUS
 62
    47
 10
-97.705163
 20
-9.551925
 11
-97.705148
 21
-10.551893
  0
ARC
  8
型材断面
  6
CONTINUOUS
 62
    47
 10
-98.205235
 20
-10.552001
 40
0.5
 50
269.999962
 51
359.999962
  0
LINE
  8
型材断面
  6
CONTINUOUS
 62
    47
 10
-83.905102
 20
-19.051958
 11
-83.905065
 21
-9.0519
  0
LINE
  8
型材断面
  6
CONTINUOUS
 62
    47
 10
-88.605112
 20
-19.551923
 11
-84.405105
 21
-19.551998
  0
LINE
  8
型材断面
  6
CONTINUOUS
 62
    47
 10
-93.40512
 20
-19.551893
 11
-89.205127
 21
-19.551998
  0
LINE
  8
型材断面
  6
CONTINUOUS
 62
    47
 10
-82.804612
 20
-21.551933
 11
-81.40512
 21
-21.551933
  0
LINE
  8
型材断面
  6
CONTINUOUS
 62
    47
 10
-95.005087
 20
-21.551933
 11
-96.40512
 21
-21.551948
  0
LINE
  8
型材断面
  6
CONTINUOUS
 62
    47
 10
-98.20512
 20
-9.0519
 11
-103.205145
 21
-9.051877
  0
ARC
  8
型材断面
  6
CONTINUOUS
 62
    47
 10
-79.405238
 20
-18.552015
 40
2.0
 50
89.999962
 51
179.999962
  0
LINE
  8
型材断面
  6
CONTINUOUS
 62
    47
 10
-81.40512
 20
-21.551933
 11
-81.405105
 21
-18.551948
  0
LINE
  8
型材断面
  6
CONTINUOUS
 62
    47
 10
-93.90507
 20
-19.051875
 11
-93.90513
 21
-14.05185
  0
LINE
  8
型材断面
  6
CONTINUOUS
 62
    47
 10
-100.705177
 20
-14.051933
 11
-93.90513
 21
-14.05185
  0
ARC
  8
型材断面
  6
CONTINUOUS
 62
    47
 10
-73.605235
 20
-9.552017
 40
0.5
 50
359.999962
 51
449.999962
  0
LINE
  8
型材断面
  6
CONTINUOUS
 62
    47
 10
-73.10517
 20
-9.551948
 11
-73.105163
 21
-10.551915
  0
ARC
  8
型材断面
  6
CONTINUOUS
 62
    47
 10
-73.605236
 20
-10.552017
 40
0.5
 50
269.999962
 51
359.999962
  0
ARC
  8
型材断面
  6
CONTINUOUS
 62
    47
 10
-73.605236
 20
-16.052019
 40
0.5
 50
269.999962
 51
359.999962
  0
ARC
  8
型材断面
  6
CONTINUOUS
 62
    47
 10
-73.605238
 20
-14.552017
 40
0.5
 50
359.999962
 51
449.999962
  0
LINE
  8
型材断面
  6
CONTINUOUS
 62
    47
 10
-73.105087
 20
-14.55189
 11
-73.105087
 21
-16.05189
  0
LINE
  8
型材断面
  6
CONTINUOUS
 62
    47
 10
-81.40512
 20
-14.051933
 11
-73.605105
 21
-14.051925
  0
LINE
  8
型材断面
  6
CONTINUOUS
 62
    47
 10
-79.405027
 20
-16.551915
 11
-73.60512
 21
-16.551915
  0
LINE
  8
型材断面
  6
CONTINUOUS
 62
    47
 10
-73.605127
 20
-11.051925
 11
-80.40507
 21
-11.051948
  0
LINE
  8
型材断面
  6
CONTINUOUS
 62
    47
 10
-80.40507
 20
-11.051948
 11
-80.405077
 21
-11.75193
  0
LINE
  8
型材断面
  6
CONTINUOUS
 62
    47
 10
-81.405105
 20
-11.751915
 11
-80.405077
 21
-11.75193
  0
LINE
  8
型材断面
  6
CONTINUOUS
 62
    47
 10
-81.40512
 20
-14.051933
 11
-81.405105
 21
-11.751915
  0
LINE
  8
型材断面
  6
CONTINUOUS
 62
    47
 10
-99.705112
 20
-11.751885
 11
-100.70508
 21
-11.7519
  0
LINE
  8
型材断面
  6
CONTINUOUS
 62
    47
 10
-100.705177
 20
-14.051933
 11
-100.70508
 21
-11.7519
  0
LINE
  8
型材断面
  6
CONTINUOUS
 62
    47
 10
-99.705112
 20
-11.751885
 11
-99.705112
 21
-11.051918
  0
LINE
  8
型材断面
  6
CONTINUOUS
 62
    47
 10
-98.205112
 20
-11.051933
 11
-99.705112
 21
-11.051918
  0
LINE
  8
型材断面
  6
CONTINUOUS
 62
    47
 10
-76.605112
 20
-9.351923
 11
-76.305105
 21
-9.051922
  0
LINE
  8
型材断面
  6
CONTINUOUS
 62
    47
 10
-76.605112
 20
-9.351923
 11
-76.905113
 21
-9.051922
  0
LINE
  8
型材断面
  6
CONTINUOUS
 62
    47
 10
-83.905065
 20
-9.0519
 11
-76.905113
 21
-9.051922
  0
LINE
  8
型材断面
  6
CONTINUOUS
 62
    47
 10
-73.60509
 20
-9.051937
 11
-76.305105
 21
-9.051922
  0
ENDBLK
  0
BLOCK
  2
*GRP_0038
 70
    65
 10
0.0
 20
0.0
  0
LINE
  8
型材断面
  6
CONTINUOUS
 62
    47
 10
-54.90483
 20
-6.051967
 11
-88.904872
 21
-6.051923
  0
ARC
  8
型材断面
  6
CONTINUOUS
 62
    47
 10
-54.904842
 20
-7.051875
 40
1.0
 50
-0.000025
 51
89.999975
  0
ARC
  8
型材断面
  6
CONTINUOUS
 62
    47
 10
-100.205044
 20
-12.551853
 40
0.5
 50
89.999975
 51
179.999975
  0
LINE
  8
型材断面
  6
CONTINUOUS
 62
    47
 10
-100.70514
 20
-12.55191
 11
-100.70514
 21
-13.551908
  0
ARC
  8
型材断面
  6
CONTINUOUS
 62
    47
 10
-100.205045
 20
-13.551853
 40
0.5
 50
179.999975
 51
269.999975
  0
ARC
  8
型材断面
  6
CONTINUOUS
 62
    47
 10
-80.905044
 20
-12.551861
 40
0.5
 50
89.999975
 51
179.999975
  0
LINE
  8
型材断面
  6
CONTINUOUS
 62
    47
 10
-81.405135
 20
-12.551933
 11
-81.40509
 21
-13.55193
  0
ARC
  8
型材断面
  6
CONTINUOUS
 62
    47
 10
-80.905045
 20
-13.551861
 40
0.5
 50
179.999975
 51
269.999975
  0
LINE
  8
型材断面
  6
CONTINUOUS
 62
    47
 10
-80.90514
 20
-12.051937
 11
-74.105137
 21
-12.051937
  0
LINE
  8
型材断面
  6
CONTINUOUS
 62
    47
 10
-72.605085
 20
-11.351948
 11
-74.105137
 21
-11.351948
  0
LINE
  8
型材断面
  6
CONTINUOUS
 62
    47
 10
-74.105137
 20
-12.051937
 11
-74.105137
 21
-11.351948
  0
LINE
  8
型材断面
  6
CONTINUOUS
 62
    47
 10
-98.705138
 20
-11.35191
 11
-97.205138
 21
-11.351918
  0
LINE
  8
型材断面
  6
CONTINUOUS
 62
    47
 10
-73.105058
 20
-14.051948
 11
-73.105058
 21
-14.051948
  0
ARC
  8
型材断面
  6
CONTINUOUS
 62
    47
 10
-72.405082
 20
-14.051963
 40
0.7
 50
89.999922
 51
179.999922
  0
LINE
  8
型材断面
  6
CONTINUOUS
 62
    47
 10
-122.404822
 20
-6.051877
 11
-88.904872
 21
-6.051923
  0
ARC
  8
型材断面
  6
CONTINUOUS
 62
    47
 10
-122.404857
 20
-7.551895
 40
1.5
 50
89.999922
 51
180.00071
  0
LINE
  8
型材断面
  6
CONTINUOUS
 62
    47
 10
-123.904822
 20
-7.5519
 11
-123.904807
 21
-9.25188
  0
LINE
  8
型材断面
  6
CONTINUOUS
 62
    47
 10
-118.904835
 20
-8.55189
 11
-118.904835
 21
-9.251887
  0
LINE
  8
型材断面
  6
CONTINUOUS
 62
    47
 10
-97.205138
 20
-11.351918
 11
-97.205077
 21
-8.551912
  0
LINE
  8
型材断面
  6
CONTINUOUS
 62
    47
 10
-123.904807
 20
-9.25188
 11
-118.904835
 21
-9.251887
  0
LINE
  8
型材断面
  6
CONTINUOUS
 62
    47
 10
-72.605085
 20
-11.351948
 11
-72.605137
 21
-8.55195
  0
LINE
  8
型材断面
  6
CONTINUOUS
 62
    47
 10
-53.90493
 20
-7.05192
 11
-53.904937
 21
-9.25197
  0
LINE
  8
型材断面
  6
CONTINUOUS
 62
    47
 10
-53.904937
 20
-9.25197
 11
-58.90494
 21
-9.25197
  0
LINE
  8
型材断面
  6
CONTINUOUS
 62
    47
 10
-58.904932
 20
-8.551973
 11
-58.90494
 21
-9.25197
  0
LINE
  8
型材断面
  6
CONTINUOUS
 62
    47
 10
-78.505155
 20
-8.551943
 11
-78.505155
 21
-9.051937
  0
LINE
  8
型材断面
  6
CONTINUOUS
 62
    47
 10
-58.904932
 20
-8.551973
 11
-70.90515
 21
-8.55195
  0
LINE
  8
型材断面
  6
CONTINUOUS
 62
    47
 10
-72.405045
 20
-13.35195
 11
-71.905065
 21
-13.35195
  0
LINE
  8
型材断面
  6
CONTINUOUS
 62
    47
 10
-70.90515
 20
-8.55195
 11
-70.905068
 21
-12.35193
  0
ARC
  8
型材断面
  6
CONTINUOUS
 62
    47
 10
-71.905098
 20
-12.351964
 40
1.0
 50
269.999922
 51
360.001176
  0
LINE
  8
型材断面
  6
CONTINUOUS
 62
    47
 10
-78.505155
 20
-8.551943
 11
-72.605137
 21
-8.55195
  0
LINE
  8
型材断面
  6
CONTINUOUS
 62
    47
 10
-118.904835
 20
-8.55189
 11
-103.2051
 21
-8.551912
  0
LINE
  8
型材断面
  6
CONTINUOUS
 62
    47
 10
-83.905148
 20
-8.551935
 11
-95.505068
 21
-8.55192
  0
LINE
  8
型材断面
  6
CONTINUOUS
 62
    47
 10
-95.505068
 20
-8.55192
 11
-95.505195
 21
-14.051918
  0
LINE
  8
型材断面
  6
CONTINUOUS
 62
    47
 10
-99.205148
 20
-14.05191
 11
-99.205148
 21
-14.05191
  0
ARC
  8
型材断面
  6
CONTINUOUS
 62
    47
 10
-98.705172
 20
-14.051928
 40
0.5
 50
89.999922
 51
179.999922
  0
LINE
  8
型材断面
  6
CONTINUOUS
 62
    47
 10
-98.705138
 20
-13.551908
 11
-97.505092
 21
-13.551915
  0
LINE
  8
型材断面
  6
CONTINUOUS
 62
    47
 10
-97.005195
 20
-14.051918
 11
-97.005202
 21
-14.051828
  0
ARC
  8
型材断面
  6
CONTINUOUS
 62
    47
 10
-97.505131
 20
-14.051829
 40
0.4999
 50
-0.001367
 51
89.999922
  0
LINE
  8
型材断面
  6
CONTINUOUS
 62
    47
 10
-98.705138
 20
-11.35191
 11
-98.705138
 21
-11.751908
  0
LINE
  8
型材断面
  6
CONTINUOUS
 62
    47
 10
-100.205138
 20
-12.051908
 11
-99.005138
 21
-12.051908
  0
ARC
  8
型材断面
  6
CONTINUOUS
 62
    47
 10
-99.005169
 20
-11.751927
 40
0.3
 50
269.999922
 51
359.999922
  0
LINE
  8
型材断面
  6
CONTINUOUS
 62
    47
 10
-75.605047
 20
-14.05194
 11
-75.605047
 21
-14.05194
  0
ARC
  8
型材断面
  6
CONTINUOUS
 62
    47
 10
-76.105082
 20
-14.051958
 40
0.5
 50
-0.000078
 51
89.999922
  0
LINE
  8
型材断面
  6
CONTINUOUS
 62
    47
 10
-78.90507
 20
-14.05194
 11
-78.905062
 21
-14.051865
  0
LINE
  8
型材断面
  6
CONTINUOUS
 62
    47
 10
-76.105058
 20
-13.551937
 11
-78.405165
 21
-13.551937
  0
ARC
  8
型材断面
  6
CONTINUOUS
 62
    47
 10
-78.405197
 20
-14.051855
 40
0.4999
 50
89.999922
 51
180.002787
  0
LINE
  8
型材断面
  6
CONTINUOUS
 62
    47
 10
-100.205085
 20
-14.05191
 11
-99.205148
 21
-14.05191
  0
LINE
  8
型材断面
  6
CONTINUOUS
 62
    47
 10
-97.005195
 20
-14.051918
 11
-95.505195
 21
-14.051918
  0
LINE
  8
型材断面
  6
CONTINUOUS
 62
    47
 10
-80.905148
 20
-14.051933
 11
-78.90507
 21
-14.05194
  0
LINE
  8
型材断面
  6
CONTINUOUS
 62
    47
 10
-75.605047
 20
-14.05194
 11
-73.105058
 21
-14.051948
  0
LINE
  8
型材断面
  6
CONTINUOUS
 62
    47
 10
-83.905148
 20
-8.551935
 11
-83.40516
 21
-9.05193
  0
LINE
  8
型材断面
  6
CONTINUOUS
 62
    47
 10
-78.505155
 20
-9.051937
 11
-83.40516
 21
-9.05193
  0
LINE
  8
型材断面
  6
CONTINUOUS
 62
    47
 10
-103.2051
 20
-8.551912
 11
-102.705098
 21
-9.051908
  0
LINE
  8
型材断面
  6
CONTINUOUS
 62
    47
 10
-97.205077
 20
-8.551912
 11
-100.5051
 21
-8.551912
  0
LINE
  8
型材断面
  6
CONTINUOUS
 62
    47
 10
-102.705098
 20
-9.051908
 11
-100.5051
 21
-9.051908
  0
LINE
  8
St
  6
CONTINUOUS
 62
    47
 10
-100.5051
 20
-8.551912
 11
-100.5051
 21
-9.051908
  0
ENDBLK
  0
BLOCK
  2
*GRP_0039
 70
    65
 10
0.0
 20
0.0
  0
LINE
  8
01
  6
CONTINUOUS
 62
    63
 10
-96.77338
 20
80.638678
 11
-96.273385
 21
83.138667
  0
LINE
  8
01
  6
CONTINUOUS
 62
    63
 10
-102.073383
 20
83.138675
 11
-101.57338
 21
80.638678
  0
LINE
  8
01
  6
CONTINUOUS
 62
    63
 10
-104.173375
 20
88.138685
 11
-104.173383
 21
83.138682
  0
LINE
  8
01
  6
CONTINUOUS
 62
    63
 10
-94.173385
 20
88.138662
 11
-94.173385
 21
83.138667
  0
LINE
  8
01
  6
CONTINUOUS
 62
    63
 10
-96.77338
 20
80.638678
 11
-101.57338
 21
80.638678
  0
LINE
  8
01
  6
CONTINUOUS
 62
    63
 10
-104.173383
 20
83.138682
 11
-102.073383
 21
83.138675
  0
LINE
  8
01
  6
CONTINUOUS
 62
    63
 10
-96.273385
 20
83.138667
 11
-94.173385
 21
83.138667
  0
LINE
  8
01
  6
CONTINUOUS
 62
    63
 10
-99.173372
 20
87.638667
 11
-99.673375
 21
88.13867
  0
LINE
  8
01
  6
CONTINUOUS
 62
    63
 10
-99.173372
 20
87.638667
 11
-98.673385
 21
88.13867
  0
LINE
  8
01
  6
CONTINUOUS
 62
    63
 10
-94.173385
 20
88.138662
 11
-98.673385
 21
88.13867
  0
LINE
  8
01
  6
CONTINUOUS
 62
    63
 10
-99.673375
 20
88.13867
 11
-104.173375
 21
88.138685
  0
LINE
  8
01
  6
CONTINUOUS
 62
    63
 10
-98.94547
 20
80.63867
 11
-94.173385
 21
85.41074
  0
LINE
  8
01
  6
CONTINUOUS
 62
    63
 10
-101.066777
 20
80.638678
 11
-94.173377
 21
87.532055
  0
LINE
  8
01
  6
CONTINUOUS
 62
    63
 10
-101.842502
 20
81.984282
 11
-95.6881
 21
88.13867
  0
LINE
  8
01
  6
CONTINUOUS
 62
    63
 10
-102.809425
 20
83.138675
 11
-97.809415
 21
88.13867
  0
LINE
  8
01
  6
CONTINUOUS
 62
    63
 10
-104.173375
 20
86.017362
 11
-102.05206
 21
88.13867
  0
LINE
  8
01
  6
CONTINUOUS
 62
    63
 10
-104.173383
 20
83.896033
 11
-99.93073
 21
88.138678
  0
ENDBLK
  0
BLOCK
  2
*GRP_0040
 70
    65
 10
0.0
 20
0.0
  0
LINE
  8
ボルト／ビス
  6
CONTINUOUS
 62
    64
 10
-95.673362
 20
90.138658
 11
-95.765065
 21
91.18682
  0
ARC
  8
ボルト／ビス
  6
CONTINUOUS
 62
    64
 10
-97.458616
 20
91.038666
 40
1.7
 50
4.999989
 51
90.0
  0
LINE
  8
ボルト／ビス
  6
CONTINUOUS
 62
    64
 10
-97.458595
 20
92.73866
 11
-99.173365
 21
92.73866
  0
LINE
  8
ボルト／ビス
  6
CONTINUOUS
 62
    64
 10
-102.673368
 20
90.138658
 11
-102.581665
 21
91.18682
  0
ARC
  8
ボルト／ビス
  6
CONTINUOUS
 62
    64
 10
-100.88815
 20
91.038666
 40
1.7
 50
90.0
 51
175.000011
  0
LINE
  8
ボルト／ビス
  6
CONTINUOUS
 62
    64
 10
-100.888135
 20
92.73866
 11
-99.173365
 21
92.73866
  0
LINE
  8
ボルト／ビス
  6
CONTINUOUS
 62
    64
 10
-96.776725
 20
92.353752
 11
-96.776725
 21
92.595912
  0
LINE
  8
ボルト／ビス
  6
CONTINUOUS
 62
    64
 10
-98.473368
 20
91.703667
 11
-99.173365
 21
91.703667
  0
LINE
  8
ボルト／ビス
  6
CONTINUOUS
 62
    64
 10
-98.073362
 20
92.353752
 11
-96.776725
 21
92.353752
  0
LINE
  8
ボルト／ビス
  6
CONTINUOUS
 62
    64
 10
-98.473368
 20
91.703667
 11
-98.473368
 21
91.953755
  0
ARC
  8
ボルト／ビス
  6
CONTINUOUS
 62
    64
 10
-98.073383
 20
91.953761
 40
0.4
 50
90.0
 51
180.0
  0
LINE
  8
ボルト／ビス
  6
CONTINUOUS
 62
    64
 10
-101.570005
 20
92.353752
 11
-101.570005
 21
92.595912
  0
LINE
  8
ボルト／ビス
  6
CONTINUOUS
 62
    64
 10
-99.873362
 20
91.703667
 11
-99.173365
 21
91.703667
  0
LINE
  8
ボルト／ビス
  6
CONTINUOUS
 62
    64
 10
-100.273368
 20
92.353752
 11
-101.570005
 21
92.353752
  0
LINE
  8
ボルト／ビス
  6
CONTINUOUS
 62
    64
 10
-99.873362
 20
91.703667
 11
-99.873362
 21
91.953755
  0
ARC
  8
ボルト／ビス
  6
CONTINUOUS
 62
    64
 10
-100.273383
 20
91.953761
 40
0.4
 50
0.0
 51
90.0
  0
LINE
  8
ボルト／ビス
  6
CONTINUOUS
 62
    64
 10
-95.673362
 20
90.138658
 11
-102.673368
 21
90.138658
  0
LINE
  8
ボルト／ビス
  6
CONTINUOUS
 62
    64
 10
-99.173365
 20
94.710043
 11
-99.173365
 21
67.86578
  0
LINE
  8
ボルト／ビス
  6
CONTINUOUS
 62
    64
 10
-97.173362
 20
70.638658
 11
-97.673365
 21
70.138655
  0
LINE
  8
ボルト／ビス
  6
CONTINUOUS
 62
    64
 10
-101.173368
 20
70.638658
 11
-100.673365
 21
70.138655
  0
LINE
  8
ボルト／ビス
  6
CONTINUOUS
 62
    64
 10
-97.173362
 20
70.638658
 11
-101.173368
 21
70.638658
  0
LINE
  8
ボルト／ビス
  6
CONTINUOUS
 62
    64
 10
-97.673365
 20
70.138655
 11
-100.673365
 21
70.138655
  0
LINE
  8
ボルト／ビス
  6
CONTINUOUS
 62
    64
 10
-97.673365
 20
90.138658
 11
-97.673365
 21
70.138655
  0
LINE
  8
ボルト／ビス
  6
CONTINUOUS
 62
    64
 10
-100.673365
 20
90.138658
 11
-100.673365
 21
70.138655
  0
LINE
  8
ボルト／ビス
  6
CONTINUOUS
 62
    64
 10
-97.173362
 20
90.138658
 11
-97.173362
 21
70.638658
  0
LINE
  8
ボルト／ビス
  6
CONTINUOUS
 62
    64
 10
-101.173368
 20
90.138658
 11
-101.173368
 21
70.638658
  0
ENDBLK
  0
BLOCK
  2
*GRP_0041
 70
    65
 10
0.0
 20
0.0
  0
LINE
  8
ゴム等
  6
CONTINUOUS
 62
    63
 10
-71.773747
 20
64.039207
 11
-71.773735
 21
64.539202
  0
LINE
  8
ゴム等
  6
CONTINUOUS
 62
    63
 10
-71.773735
 20
64.539202
 11
-72.773743
 21
64.5392
  0
LINE
  8
ゴム等
  6
CONTINUOUS
 62
    63
 10
-72.773743
 20
64.5392
 11
-72.773737
 21
66.339192
  0
LINE
  8
ゴム等
  6
CONTINUOUS
 62
    63
 10
-72.773737
 20
66.339192
 11
-69.17374
 21
66.339192
  0
LINE
  8
ゴム等
  6
CONTINUOUS
 62
    63
 10
-78.57374
 20
64.039222
 11
-78.57374
 21
64.539218
  0
LINE
  8
ゴム等
  6
CONTINUOUS
 62
    63
 10
-78.57374
 20
64.539218
 11
-77.573745
 21
64.53922
  0
LINE
  8
ゴム等
  6
CONTINUOUS
 62
    63
 10
-78.57374
 20
64.039222
 11
-76.373752
 21
61.83921
  0
LINE
  8
ゴム等
  6
CONTINUOUS
 62
    63
 10
-77.573745
 20
64.53922
 11
-77.573745
 21
66.339218
  0
LINE
  8
ゴム等
  6
CONTINUOUS
 62
    63
 10
-77.573745
 20
66.339218
 11
-81.173743
 21
66.33923
  0
LINE
  8
ゴム等
  6
CONTINUOUS
 62
    63
 10
-73.97375
 20
61.839198
 11
-76.373752
 21
61.83921
  0
ARC
  8
ゴム等
  6
CONTINUOUS
 62
    63
 10
-75.173728
 20
65.339204
 40
1.0
 50
-0.000191
 51
89.999809
  0
LINE
  8
ゴム等
  6
CONTINUOUS
 62
    63
 10
-75.17374
 20
66.339195
 11
-75.17374
 21
66.339195
  0
ARC
  8
ゴム等
  6
CONTINUOUS
 62
    63
 10
-75.173728
 20
65.339204
 40
1.0
 50
89.999809
 51
179.999809
  0
LINE
  8
ゴム等
  6
CONTINUOUS
 62
    63
 10
-76.17374
 20
65.339202
 11
-76.173737
 21
63.739213
  0
ARC
  8
ゴム等
  6
CONTINUOUS
 62
    63
 10
-75.173733
 20
63.739204
 40
1.0
 50
179.999809
 51
269.999809
  0
LINE
  8
ゴム等
  6
CONTINUOUS
 62
    63
 10
-75.173745
 20
62.739202
 11
-75.173745
 21
62.739202
  0
LINE
  8
ゴム等
  6
CONTINUOUS
 62
    63
 10
-74.173747
 20
65.339198
 11
-74.173737
 21
63.739207
  0
ARC
  8
ゴム等
  6
CONTINUOUS
 62
    63
 10
-75.173733
 20
63.739204
 40
1.0
 50
269.999809
 51
359.999809
  0
LINE
  8
ゴム等
  6
CONTINUOUS
 62
    63
 10
-71.773747
 20
64.039207
 11
-73.97375
 21
61.839198
  0
LINE
  8
ゴム等
  6
CONTINUOUS
 10
-74.192098
 20
61.839198
 11
-71.773747
 21
64.257545
  0
LINE
  8
ゴム等
  6
CONTINUOUS
 10
-72.52051
 20
66.339198
 11
-69.17373
 21
69.685958
  0
LINE
  8
ゴム等
  6
CONTINUOUS
 10
-78.177355
 20
66.33922
 11
-69.173712
 21
75.34281
  0
LINE
  8
ゴム等
  6
CONTINUOUS
 10
-81.005785
 20
66.339228
 11
-69.173705
 21
78.17124
  0
LINE
  8
ゴム等
  6
CONTINUOUS
 10
-72.773737
 20
66.085973
 11
-74.17374
 21
64.685978
  0
LINE
  8
ゴム等
  6
CONTINUOUS
 10
-78.111337
 20
63.576815
 11
-76.173737
 21
65.514402
  0
LINE
  8
ゴム等
  6
CONTINUOUS
 10
-69.173715
 20
72.514372
 11
-75.36798
 21
66.320157
  0
LINE
  8
ゴム等
  6
CONTINUOUS
 10
-76.697138
 20
62.162595
 11
-75.853735
 21
63.005992
  0
LINE
  8
ゴム等
  6
CONTINUOUS
 62
    63
 10
-69.173695
 20
81.339187
 11
-71.173687
 21
81.339192
  0
LINE
  8
ゴム等
  6
CONTINUOUS
 62
    63
 10
-81.173685
 20
81.339213
 11
-79.173685
 21
81.339207
  0
LINE
  8
ゴム等
  6
CONTINUOUS
 62
    63
 10
-79.173685
 20
81.339207
 11
-79.173685
 21
81.339207
  0
ARC
  8
ゴム等
  6
CONTINUOUS
 62
    63
 10
-78.673675
 20
81.339216
 40
0.5
 50
179.999809
 51
269.999809
  0
LINE
  8
ゴム等
  6
CONTINUOUS
 62
    63
 10
-71.173687
 20
81.339192
 11
-71.173687
 21
81.339192
  0
LINE
  8
ゴム等
  6
CONTINUOUS
 62
    63
 10
-71.673687
 20
80.839205
 11
-78.67369
 21
80.83922
  0
ARC
  8
ゴム等
  6
CONTINUOUS
 62
    63
 10
-71.673675
 20
81.339192
 40
0.5
 50
269.999809
 51
359.999809
  0
LINE
  8
ゴム等
  6
CONTINUOUS
 62
    63
 10
-69.17374
 20
66.339192
 11
-69.173695
 21
81.339187
  0
LINE
  8
ゴム等
  6
CONTINUOUS
 62
    63
 10
-81.173743
 20
66.33923
 11
-81.173685
 21
81.339213
  0
LINE
  8
ゴム等
  6
CONTINUOUS
 10
-81.173697
 20
77.484985
 11
-77.81944
 21
80.839213
  0
LINE
  8
ゴム等
  6
CONTINUOUS
 10
-81.173705
 20
74.656565
 11
-74.991015
 21
80.83921
  0
LINE
  8
ゴム等
  6
CONTINUOUS
 10
-81.17372
 20
71.82813
 11
-72.16259
 21
80.839207
  0
LINE
  8
ゴム等
  6
CONTINUOUS
 10
-81.173722
 20
68.999715
 11
-69.173695
 21
80.99967
  0
LINE
  8
ゴム等
  6
CONTINUOUS
 10
-80.060475
 20
81.339225
 11
-81.173685
 21
80.226013
  0
ENDBLK
  0
ENDSEC
  0
SECTION
  2
ENTITIES
  0
POLYLINE
  8
通り芯
  6
CONTINUOUS
 66
     1
 70
     1
  0
VERTEX
  8
通り芯
 10
-210.0
 20
-148.5
  0
VERTEX
  8
通り芯
 10
210.0
 20
-148.5
  0
VERTEX
  8
通り芯
 10
210.0
 20
148.5
  0
VERTEX
  8
通り芯
 10
-210.0
 20
148.5
  0
SEQEND
  0
INSERT
  2
*GRP_0001
  8
型材断面
  6
CONTINUOUS
 10
0.0
 20
0.0
  0
INSERT
  2
*GRP_0002
  8
型材断面
  6
CONTINUOUS
 10
0.0
 20
0.0
  0
POLYLINE
  8
型材断面
  6
CONTINUOUS
 66
     1
 70
     1
  0
VERTEX
  8
型材断面
 10
-73.530657
 20
-81.117165
  0
VERTEX
  8
型材断面
 10
-104.62864
 20
-81.117165
  0
VERTEX
  8
型材断面
 10
-104.62864
 20
-87.393822
  0
VERTEX
  8
型材断面
 10
-73.530657
 20
-87.393822
  0
SEQEND
  0
INSERT
  2
*GRP_0003
  8
型材断面
  6
CONTINUOUS
 10
0.0
 20
0.0
  0
INSERT
  2
*GRP_0004
  8
型材断面
  6
CONTINUOUS
 62
    47
 10
0.0
 20
0.0
  0
POLYLINE
  8
型材断面
  6
CONTINUOUS
 66
     1
 70
     1
  0
VERTEX
  8
型材断面
 10
168.628067
 20
-76.130835
  0
VERTEX
  8
型材断面
 10
137.530085
 20
-76.130835
  0
VERTEX
  8
型材断面
 10
137.530085
 20
-82.407492
  0
VERTEX
  8
型材断面
 10
168.628067
 20
-82.407492
  0
SEQEND
  0
LINE
  8
型材断面
  6
CONTINUOUS
 62
    47
 10
-99.173088
 20
66.14219
 11
-98.673092
 21
66.642185
  0
LINE
  8
型材断面
  6
CONTINUOUS
 62
    47
 10
-99.173102
 20
66.142182
 11
-99.673082
 21
66.642215
  0
ARC
  8
型材断面
  6
CONTINUOUS
 62
    47
 10
-94.473079
 20
82.842193
 40
0.3
 50
359.999948
 51
449.999948
  0
LINE
  8
型材断面
  6
CONTINUOUS
 62
    47
 10
-94.173078
 20
82.842193
 11
-94.173078
 21
79.842185
  0
ARC
  8
型材断面
  6
CONTINUOUS
 62
    47
 10
-94.473082
 20
79.842193
 40
0.3
 50
269.999948
 51
359.999948
  0
LINE
  8
型材断面
  6
CONTINUOUS
 62
    47
 10
-94.47307
 20
83.142178
 11
-95.927132
 21
83.142193
  0
LINE
  8
型材断面
  6
CONTINUOUS
 62
    47
 10
-96.221298
 20
82.901
 11
-96.773057
 21
80.142193
  0
ARC
  8
型材断面
  6
CONTINUOUS
 62
    47
 10
-95.927138
 20
82.842194
 40
0.3
 50
89.999948
 51
168.690015
  0
LINE
  8
型材断面
  6
CONTINUOUS
 62
    47
 10
-96.773057
 20
80.142193
 11
-97.173078
 21
80.142193
  0
ARC
  8
型材断面
  6
CONTINUOUS
 62
    47
 10
-97.173082
 20
79.842196
 40
0.3
 50
89.999948
 51
179.999948
  0
LINE
  8
型材断面
  6
CONTINUOUS
 62
    47
 10
-94.473078
 20
79.542178
 11
-94.673088
 21
79.542185
  0
LINE
  8
型材断面
  6
CONTINUOUS
 62
    47
 10
-78.273708
 20
66.339192
 11
-81.67369
 21
66.3392
  0
LINE
  8
型材断面
  6
CONTINUOUS
 62
    47
 10
-72.073735
 20
66.339185
 11
-68.673708
 21
66.339185
  0
LINE
  8
型材断面
  6
CONTINUOUS
 62
    47
 10
-72.673728
 20
65.73923
 11
-72.673735
 21
64.839215
  0
LINE
  8
型材断面
  6
CONTINUOUS
 62
    47
 10
-72.073728
 20
66.33923
 11
-72.673728
 21
65.73923
  0
LINE
  8
型材断面
  6
CONTINUOUS
 62
    47
 10
-77.673715
 20
65.739237
 11
-77.673715
 21
64.839215
  0
LINE
  8
型材断面
  6
CONTINUOUS
 62
    47
 10
-77.673715
 20
65.739237
 11
-78.273715
 21
66.339237
  0
LINE
  8
型材断面
  6
CONTINUOUS
 62
    47
 10
-77.673715
 20
64.839215
 11
-80.17369
 21
64.839222
  0
LINE
  8
型材断面
  6
CONTINUOUS
 62
    47
 10
-78.273715
 20
66.339237
 11
-81.67369
 21
66.339237
  0
LINE
  8
型材断面
  6
CONTINUOUS
 62
    47
 10
-72.673735
 20
64.839215
 11
-70.173722
 21
64.83923
  0
LINE
  8
型材断面
  6
CONTINUOUS
 62
    47
 10
-72.073728
 20
66.33923
 11
-68.673708
 21
66.339222
  0
LINE
  8
型材断面
  6
CONTINUOUS
 62
    47
 10
-70.173722
 20
61.339228
 11
-80.17369
 21
61.339235
  0
LINE
  8
型材断面
  6
CONTINUOUS
 62
    47
 10
-81.67369
 20
66.339237
 11
-81.673705
 21
61.33925
  0
LINE
  8
型材断面
  6
CONTINUOUS
 62
    47
 10
-80.17369
 20
64.839222
 11
-80.17369
 21
61.339235
  0
LINE
  8
型材断面
  6
CONTINUOUS
 62
    47
 10
-70.173722
 20
64.83923
 11
-70.173715
 21
61.339242
  0
LINE
  8
型材断面
  6
CONTINUOUS
 62
    47
 10
-94.673095
 20
61.339228
 11
-81.673705
 21
61.339213
  0
ARC
  8
型材断面
  6
CONTINUOUS
 62
    47
 10
-103.87314
 20
82.842198
 40
0.3
 50
89.999998
 51
179.999998
  0
LINE
  8
型材断面
  6
CONTINUOUS
 62
    47
 10
-104.173082
 20
82.842193
 11
-104.173082
 21
79.842185
  0
ARC
  8
型材断面
  6
CONTINUOUS
 62
    47
 10
-103.87314
 20
79.842198
 40
0.3
 50
179.999998
 51
269.999998
  0
LINE
  8
型材断面
  6
CONTINUOUS
 62
    47
 10
-103.873082
 20
83.142178
 11
-102.419035
 21
83.142185
  0
LINE
  8
型材断面
  6
CONTINUOUS
 62
    47
 10
-102.124855
 20
82.901008
 11
-101.573088
 21
80.142193
  0
ARC
  8
型材断面
  6
CONTINUOUS
 62
    47
 10
-102.419081
 20
82.842198
 40
0.3
 50
11.30993
 51
89.999998
  0
LINE
  8
型材断面
  6
CONTINUOUS
 62
    47
 10
-101.573088
 20
80.142193
 11
-101.173082
 21
80.142185
  0
ARC
  8
型材断面
  6
CONTINUOUS
 62
    47
 10
-101.17314
 20
79.842197
 40
0.3
 50
359.999998
 51
449.999998
  0
LINE
  8
型材断面
  6
CONTINUOUS
 62
    47
 10
-103.67308
 20
79.542185
 11
-103.673095
 21
61.339228
  0
LINE
  8
型材断面
  6
CONTINUOUS
 62
    47
 10
-103.873082
 20
79.542185
 11
-103.67308
 21
79.542178
  0
LINE
  8
型材断面
  6
CONTINUOUS
 62
    47
 10
-97.473048
 20
77.542182
 11
-97.073178
 21
77.142155
  0
LINE
  8
型材断面
  6
CONTINUOUS
 62
    47
 10
-97.073178
 20
77.142155
 11
-97.473048
 21
76.74215
  0
LINE
  8
型材断面
  6
CONTINUOUS
 62
    47
 10
-97.47304
 20
75.542165
 11
-97.073178
 21
75.142137
  0
LINE
  8
型材断面
  6
CONTINUOUS
 62
    47
 10
-97.073178
 20
75.142137
 11
-97.473048
 21
74.742155
  0
LINE
  8
型材断面
  6
CONTINUOUS
 62
    47
 10
-97.473048
 20
73.54217
 11
-97.073185
 21
73.142143
  0
LINE
  8
型材断面
  6
CONTINUOUS
 62
    47
 10
-97.073185
 20
73.142143
 11
-97.473048
 21
72.742182
  0
LINE
  8
型材断面
  6
CONTINUOUS
 62
    47
 10
-97.473048
 20
71.542167
 11
-97.073185
 21
71.142125
  0
LINE
  8
型材断面
  6
CONTINUOUS
 62
    47
 10
-97.073185
 20
71.142125
 11
-97.47304
 21
70.742173
  0
LINE
  8
型材断面
  6
CONTINUOUS
 62
    47
 10
-97.473048
 20
69.54215
 11
-97.073193
 21
69.142093
  0
LINE
  8
型材断面
  6
CONTINUOUS
 62
    47
 10
-97.073193
 20
69.142093
 11
-97.473063
 21
68.742178
  0
LINE
  8
型材断面
  6
CONTINUOUS
 62
    47
 10
-97.47304
 20
70.742173
 11
-97.473048
 21
69.54215
  0
LINE
  8
型材断面
  6
CONTINUOUS
 62
    47
 10
-97.473048
 20
72.742182
 11
-97.473048
 21
71.542167
  0
LINE
  8
型材断面
  6
CONTINUOUS
 62
    47
 10
-97.473048
 20
74.742155
 11
-97.473048
 21
73.54217
  0
LINE
  8
型材断面
  6
CONTINUOUS
 62
    47
 10
-97.473048
 20
76.74215
 11
-97.47304
 21
75.542165
  0
LINE
  8
型材断面
  6
CONTINUOUS
 62
    47
 10
-100.873053
 20
76.542185
 11
-101.27293
 21
76.142135
  0
LINE
  8
型材断面
  6
CONTINUOUS
 62
    47
 10
-101.27293
 20
76.142135
 11
-100.87306
 21
75.742152
  0
LINE
  8
型材断面
  6
CONTINUOUS
 62
    47
 10
-100.87306
 20
74.542167
 11
-101.272908
 21
74.142147
  0
LINE
  8
型材断面
  6
CONTINUOUS
 62
    47
 10
-101.272908
 20
74.142147
 11
-100.87306
 21
73.74215
  0
LINE
  8
型材断面
  6
CONTINUOUS
 62
    47
 10
-100.873082
 20
72.542173
 11
-101.27293
 21
72.142137
  0
LINE
  8
型材断面
  6
CONTINUOUS
 62
    47
 10
-101.27293
 20
72.142137
 11
-100.87306
 21
71.742193
  0
LINE
  8
型材断面
  6
CONTINUOUS
 62
    47
 10
-100.873053
 20
70.542178
 11
-101.27293
 21
70.142135
  0
LINE
  8
型材断面
  6
CONTINUOUS
 62
    47
 10
-101.27293
 20
70.142135
 11
-100.87306
 21
69.742175
  0
LINE
  8
型材断面
  6
CONTINUOUS
 62
    47
 10
-100.873053
 20
68.542152
 11
-101.272915
 21
68.142102
  0
LINE
  8
型材断面
  6
CONTINUOUS
 62
    47
 10
-101.272915
 20
68.142102
 11
-100.873053
 21
67.74218
  0
LINE
  8
型材断面
  6
CONTINUOUS
 62
    47
 10
-100.87306
 20
69.742175
 11
-100.873053
 21
68.542152
  0
LINE
  8
型材断面
  6
CONTINUOUS
 62
    47
 10
-100.87306
 20
71.742193
 11
-100.873053
 21
70.542178
  0
LINE
  8
型材断面
  6
CONTINUOUS
 62
    47
 10
-100.87306
 20
73.74215
 11
-100.873082
 21
72.542173
  0
LINE
  8
型材断面
  6
CONTINUOUS
 62
    47
 10
-100.87306
 20
75.742152
 11
-100.87306
 21
74.542167
  0
LINE
  8
型材断面
  6
CONTINUOUS
 62
    47
 10
-97.473078
 20
79.842185
 11
-97.473078
 21
77.542205
  0
LINE
  8
型材断面
  6
CONTINUOUS
 62
    47
 10
-100.873082
 20
79.842185
 11
-100.873082
 21
76.542155
  0
LINE
  8
型材断面
  6
CONTINUOUS
 62
    47
 10
-100.873053
 20
67.74218
 11
-100.87309
 21
66.642193
  0
LINE
  8
型材断面
  6
CONTINUOUS
 62
    47
 10
-97.473063
 20
68.742178
 11
-97.473085
 21
66.642193
  0
LINE
  8
型材断面
  6
CONTINUOUS
 62
    47
 10
-94.673088
 20
79.542193
 11
-94.673095
 21
61.339228
  0
LINE
  8
型材断面
  6
CONTINUOUS
 62
    47
 10
-97.473085
 20
66.642193
 11
-98.673092
 21
66.642185
  0
LINE
  8
型材断面
  6
CONTINUOUS
 62
    47
 10
-100.87309
 20
66.642193
 11
-99.67306
 21
66.642185
  0
LINE
  8
型材断面
  6
CONTINUOUS
 62
    47
 10
-97.473085
 20
60.642185
 11
-100.87309
 21
60.642193
  0
LINE
  8
型材断面
  6
CONTINUOUS
 62
    47
 10
-100.87309
 20
60.642193
 11
-100.87309
 21
58.53923
  0
LINE
  8
型材断面
  6
CONTINUOUS
 62
    47
 10
-97.473085
 20
60.642185
 11
-97.473092
 21
58.53923
  0
LINE
  8
型材断面
  6
CONTINUOUS
 62
    47
 10
-71.173735
 20
58.539222
 11
-97.473092
 21
58.53923
  0
LINE
  8
型材断面
  6
CONTINUOUS
 62
    47
 10
-113.473218
 20
58.53924
 11
-100.87309
 21
58.53923
  0
LINE
  8
型材断面
  6
CONTINUOUS
 62
    47
 10
-113.47323
 20
61.339228
 11
-103.673095
 21
61.339228
  0
ARC
  8
型材断面
  6
CONTINUOUS
 62
    47
 10
-94.673505
 20
90.638573
 40
0.5
 50
269.999962
 51
359.999962
  0
ARC
  8
型材断面
  6
CONTINUOUS
 62
    47
 10
-103.673505
 20
90.638579
 40
0.5
 50
179.999962
 51
269.999962
  0
LINE
  8
型材断面
  6
CONTINUOUS
 62
    47
 10
-113.473412
 20
100.638717
 11
-113.473383
 21
94.13867
  0
ARC
  8
型材断面
  6
CONTINUOUS
 62
    47
 10
-112.973502
 20
94.138595
 40
0.5
 50
179.999962
 51
269.999962
  0
LINE
  8
型材断面
  6
CONTINUOUS
 62
    47
 10
-112.97338
 20
93.63872
 11
-108.673315
 21
93.638735
  0
LINE
  8
型材断面
  6
CONTINUOUS
 62
    47
 10
-106.673387
 20
88.138647
 11
-106.673373
 21
91.638762
  0
ARC
  8
型材断面
  6
CONTINUOUS
 62
    47
 10
-108.673504
 20
91.638592
 40
2.0
 50
359.999962
 51
449.999962
  0
LINE
  8
型材断面
  6
CONTINUOUS
 62
    47
 10
-93.872822
 20
88.138662
 11
-93.872853
 21
87.838647
  0
LINE
  8
型材断面
  6
CONTINUOUS
 62
    47
 10
-104.473322
 20
88.138678
 11
-104.473352
 21
87.838655
  0
LINE
  8
型材断面
  6
CONTINUOUS
 62
    47
 10
-93.872822
 20
88.138662
 11
-104.473322
 21
88.138678
  0
LINE
  8
型材断面
  6
CONTINUOUS
 62
    47
 10
-99.173365
 20
89.838702
 11
-98.87338
 21
90.138673
  0
LINE
  8
型材断面
  6
CONTINUOUS
 62
    47
 10
-99.173365
 20
89.838702
 11
-99.473395
 21
90.138597
  0
LINE
  8
型材断面
  6
CONTINUOUS
 62
    47
 10
-105.273355
 20
88.138662
 11
-105.27337
 21
87.838678
  0
LINE
  8
型材断面
  6
CONTINUOUS
 62
    47
 10
-104.473352
 20
87.838655
 11
-105.27337
 21
87.838678
  0
LINE
  8
型材断面
  6
CONTINUOUS
 62
    47
 10
-93.07288
 20
88.138662
 11
-93.072887
 21
87.838678
  0
LINE
  8
型材断面
  6
CONTINUOUS
 62
    47
 10
-93.872853
 20
87.838647
 11
-93.072887
 21
87.838678
  0
ARC
  8
型材断面
  6
CONTINUOUS
 62
    47
 10
-108.473501
 20
100.138593
 40
0.5
 50
359.999962
 51
449.999962
  0
LINE
  8
型材断面
  6
CONTINUOUS
 62
    47
 10
-107.97343
 20
100.13867
 11
-107.973415
 21
99.138702
  0
ARC
  8
型材断面
  6
CONTINUOUS
 62
    47
 10
-108.473502
 20
99.138593
 40
0.5
 50
269.999962
 51
359.999962
  0
LINE
  8
型材断面
  6
CONTINUOUS
 62
    47
 10
-94.17337
 20
90.638638
 11
-94.173333
 21
100.638695
  0
LINE
  8
型材断面
  6
CONTINUOUS
 62
    47
 10
-98.87338
 20
90.138673
 11
-94.673372
 21
90.138597
  0
LINE
  8
型材断面
  6
CONTINUOUS
 62
    47
 10
-103.673387
 20
90.138702
 11
-99.473395
 21
90.138597
  0
LINE
  8
型材断面
  6
CONTINUOUS
 62
    47
 10
-93.07288
 20
88.138662
 11
-91.673387
 21
88.138662
  0
LINE
  8
型材断面
  6
CONTINUOUS
 62
    47
 10
-105.273355
 20
88.138662
 11
-106.673387
 21
88.138647
  0
LINE
  8
型材断面
  6
CONTINUOUS
 62
    47
 10
-108.473387
 20
100.638695
 11
-113.473412
 21
100.638717
  0
ARC
  8
型材断面
  6
CONTINUOUS
 62
    47
 10
-89.673504
 20
91.138579
 40
2.0
 50
89.999962
 51
179.999962
  0
LINE
  8
型材断面
  6
CONTINUOUS
 62
    47
 10
-91.673387
 20
88.138662
 11
-91.673372
 21
91.138647
  0
LINE
  8
型材断面
  6
CONTINUOUS
 62
    47
 10
-104.173337
 20
90.63872
 11
-104.173398
 21
95.638745
  0
LINE
  8
型材断面
  6
CONTINUOUS
 62
    47
 10
-110.973445
 20
95.638662
 11
-104.173398
 21
95.638745
  0
ARC
  8
型材断面
  6
CONTINUOUS
 62
    47
 10
-83.873501
 20
100.138577
 40
0.5
 50
359.999962
 51
449.999962
  0
LINE
  8
型材断面
  6
CONTINUOUS
 62
    47
 10
-83.373437
 20
100.138647
 11
-83.37343
 21
99.13868
  0
ARC
  8
型材断面
  6
CONTINUOUS
 62
    47
 10
-83.873502
 20
99.138577
 40
0.5
 50
269.999962
 51
359.999962
  0
ARC
  8
型材断面
  6
CONTINUOUS
 62
    47
 10
-83.873503
 20
93.638576
 40
0.5
 50
269.999962
 51
359.999962
  0
ARC
  8
型材断面
  6
CONTINUOUS
 62
    47
 10
-83.873505
 20
95.138577
 40
0.5
 50
359.999962
 51
449.999962
  0
LINE
  8
型材断面
  6
CONTINUOUS
 62
    47
 10
-83.373355
 20
95.138705
 11
-83.373355
 21
93.638705
  0
LINE
  8
型材断面
  6
CONTINUOUS
 62
    47
 10
-91.673387
 20
95.638662
 11
-83.873373
 21
95.63867
  0
LINE
  8
型材断面
  6
CONTINUOUS
 62
    47
 10
-89.673295
 20
93.13868
 11
-83.873387
 21
93.13868
  0
LINE
  8
型材断面
  6
CONTINUOUS
 62
    47
 10
-83.873395
 20
98.63867
 11
-90.673337
 21
98.638647
  0
LINE
  8
型材断面
  6
CONTINUOUS
 62
    47
 10
-90.673337
 20
98.638647
 11
-90.673345
 21
97.938665
  0
LINE
  8
型材断面
  6
CONTINUOUS
 62
    47
 10
-91.673372
 20
97.93868
 11
-90.673345
 21
97.938665
  0
LINE
  8
型材断面
  6
CONTINUOUS
 62
    47
 10
-91.673387
 20
95.638662
 11
-91.673372
 21
97.93868
  0
LINE
  8
型材断面
  6
CONTINUOUS
 62
    47
 10
-109.97338
 20
97.93871
 11
-110.973348
 21
97.938695
  0
LINE
  8
型材断面
  6
CONTINUOUS
 62
    47
 10
-110.973445
 20
95.638662
 11
-110.973348
 21
97.938695
  0
LINE
  8
型材断面
  6
CONTINUOUS
 62
    47
 10
-109.97338
 20
97.93871
 11
-109.97338
 21
98.638678
  0
LINE
  8
型材断面
  6
CONTINUOUS
 62
    47
 10
-108.47338
 20
98.638662
 11
-109.97338
 21
98.638678
  0
LINE
  8
型材断面
  6
CONTINUOUS
 62
    47
 10
-86.87338
 20
100.338673
 11
-86.573373
 21
100.638673
  0
LINE
  8
型材断面
  6
CONTINUOUS
 62
    47
 10
-86.87338
 20
100.338673
 11
-87.17338
 21
100.638673
  0
LINE
  8
型材断面
  6
CONTINUOUS
 62
    47
 10
-94.173333
 20
100.638695
 11
-87.17338
 21
100.638673
  0
LINE
  8
型材断面
  6
CONTINUOUS
 62
    47
 10
-83.873358
 20
100.638658
 11
-86.573373
 21
100.638673
  0
LINE
  8
型材断面
  6
CONTINUOUS
 62
    47
 10
-65.173098
 20
103.638628
 11
-99.17314
 21
103.638673
  0
ARC
  8
型材断面
  6
CONTINUOUS
 62
    47
 10
-65.173109
 20
102.63872
 40
1.0
 50
-0.000025
 51
89.999975
  0
ARC
  8
型材断面
  6
CONTINUOUS
 62
    47
 10
-110.473311
 20
97.138742
 40
0.5
 50
89.999975
 51
179.999975
  0
LINE
  8
型材断面
  6
CONTINUOUS
 62
    47
 10
-110.973408
 20
97.138685
 11
-110.973408
 21
96.138688
  0
ARC
  8
型材断面
  6
CONTINUOUS
 62
    47
 10
-110.473311
 20
96.138742
 40
0.5
 50
179.999975
 51
269.999975
  0
ARC
  8
型材断面
  6
CONTINUOUS
 62
    47
 10
-91.173311
 20
97.138733
 40
0.5
 50
89.999975
 51
179.999975
  0
LINE
  8
型材断面
  6
CONTINUOUS
 62
    47
 10
-91.673402
 20
97.138662
 11
-91.673358
 21
96.138665
  0
ARC
  8
型材断面
  6
CONTINUOUS
 62
    47
 10
-91.173311
 20
96.138733
 40
0.5
 50
179.999975
 51
269.999975
  0
LINE
  8
型材断面
  6
CONTINUOUS
 62
    47
 10
-91.173408
 20
97.638658
 11
-84.373405
 21
97.638658
  0
LINE
  8
型材断面
  6
CONTINUOUS
 62
    47
 10
-82.873352
 20
98.338647
 11
-84.373405
 21
98.338647
  0
LINE
  8
型材断面
  6
CONTINUOUS
 62
    47
 10
-84.373405
 20
97.638658
 11
-84.373405
 21
98.338647
  0
LINE
  8
型材断面
  6
CONTINUOUS
 62
    47
 10
-108.973405
 20
98.338685
 11
-107.473405
 21
98.338678
  0
LINE
  8
型材断面
  6
CONTINUOUS
 62
    47
 10
-83.373325
 20
95.638647
 11
-83.373325
 21
95.638647
  0
ARC
  8
型材断面
  6
CONTINUOUS
 62
    47
 10
-82.673348
 20
95.638631
 40
0.7
 50
89.999922
 51
179.999922
  0
LINE
  8
型材断面
  6
CONTINUOUS
 62
    47
 10
-107.473405
 20
98.338678
 11
-107.473345
 21
101.138682
  0
LINE
  8
型材断面
  6
CONTINUOUS
 62
    47
 10
-82.873352
 20
98.338647
 11
-82.873405
 21
101.138645
  0
LINE
  8
型材断面
  6
CONTINUOUS
 62
    47
 10
-64.173197
 20
102.638675
 11
-64.173205
 21
100.438625
  0
LINE
  8
型材断面
  6
CONTINUOUS
 62
    47
 10
-64.173205
 20
100.438625
 11
-69.173207
 21
100.438625
  0
LINE
  8
型材断面
  6
CONTINUOUS
 62
    47
 10
-69.1732
 20
101.138623
 11
-69.173207
 21
100.438625
  0
LINE
  8
型材断面
  6
CONTINUOUS
 62
    47
 10
-88.773423
 20
101.138652
 11
-88.773423
 21
100.638658
  0
LINE
  8
型材断面
  6
CONTINUOUS
 62
    47
 10
-69.1732
 20
101.138623
 11
-81.173417
 21
101.138645
  0
LINE
  8
型材断面
  6
CONTINUOUS
 62
    47
 10
-82.673312
 20
96.338645
 11
-82.173333
 21
96.338645
  0
LINE
  8
型材断面
  6
CONTINUOUS
 62
    47
 10
-81.173417
 20
101.138645
 11
-81.173335
 21
97.338665
  0
ARC
  8
型材断面
  6
CONTINUOUS
 62
    47
 10
-82.173364
 20
97.33863
 40
1.0
 50
269.999922
 51
360.001176
  0
LINE
  8
型材断面
  6
CONTINUOUS
 62
    47
 10
-88.773423
 20
101.138652
 11
-82.873405
 21
101.138645
  0
LINE
  8
型材断面
  6
CONTINUOUS
 62
    47
 10
-94.173415
 20
101.13866
 11
-105.773335
 21
101.138675
  0
LINE
  8
型材断面
  6
CONTINUOUS
 62
    47
 10
-105.773335
 20
101.138675
 11
-105.773463
 21
95.638678
  0
LINE
  8
型材断面
  6
CONTINUOUS
 62
    47
 10
-109.473415
 20
95.638685
 11
-109.473415
 21
95.638685
  0
ARC
  8
型材断面
  6
CONTINUOUS
 62
    47
 10
-108.973438
 20
95.638667
 40
0.5
 50
89.999922
 51
179.999922
  0
LINE
  8
型材断面
  6
CONTINUOUS
 62
    47
 10
-108.973405
 20
96.138688
 11
-107.77336
 21
96.13868
  0
LINE
  8
型材断面
  6
CONTINUOUS
 62
    47
 10
-107.273463
 20
95.638678
 11
-107.27347
 21
95.638768
  0
ARC
  8
型材断面
  6
CONTINUOUS
 62
    47
 10
-107.773397
 20
95.638765
 40
0.4999
 50
-0.001367
 51
89.999922
  0
LINE
  8
型材断面
  6
CONTINUOUS
 62
    47
 10
-108.973405
 20
98.338685
 11
-108.973405
 21
97.938688
  0
LINE
  8
型材断面
  6
CONTINUOUS
 62
    47
 10
-110.473405
 20
97.638688
 11
-109.273405
 21
97.638688
  0
ARC
  8
型材断面
  6
CONTINUOUS
 62
    47
 10
-109.273435
 20
97.938667
 40
0.3
 50
269.999922
 51
359.999922
  0
LINE
  8
型材断面
  6
CONTINUOUS
 62
    47
 10
-85.873315
 20
95.638655
 11
-85.873315
 21
95.638655
  0
ARC
  8
型材断面
  6
CONTINUOUS
 62
    47
 10
-86.373348
 20
95.638636
 40
0.5
 50
-0.000078
 51
89.999922
  0
LINE
  8
型材断面
  6
CONTINUOUS
 62
    47
 10
-89.173337
 20
95.638655
 11
-89.17333
 21
95.63873
  0
LINE
  8
型材断面
  6
CONTINUOUS
 62
    47
 10
-86.373325
 20
96.138658
 11
-88.673433
 21
96.138658
  0
ARC
  8
型材断面
  6
CONTINUOUS
 62
    47
 10
-88.673463
 20
95.638739
 40
0.4999
 50
89.999922
 51
180.002787
  0
LINE
  8
型材断面
  6
CONTINUOUS
 62
    47
 10
-110.473352
 20
95.638685
 11
-109.473415
 21
95.638685
  0
LINE
  8
型材断面
  6
CONTINUOUS
 62
    47
 10
-107.273463
 20
95.638678
 11
-105.773463
 21
95.638678
  0
LINE
  8
型材断面
  6
CONTINUOUS
 62
    47
 10
-91.173415
 20
95.638662
 11
-89.173337
 21
95.638655
  0
LINE
  8
型材断面
  6
CONTINUOUS
 62
    47
 10
-85.873315
 20
95.638655
 11
-83.373325
 21
95.638647
  0
LINE
  8
型材断面
  6
CONTINUOUS
 62
    47
 10
-94.173415
 20
101.13866
 11
-93.673427
 21
100.638665
  0
LINE
  8
型材断面
  6
CONTINUOUS
 62
    47
 10
-88.773423
 20
100.638658
 11
-93.673427
 21
100.638665
  0
LINE
  8
型材断面
  6
CONTINUOUS
 62
    47
 10
-113.473368
 20
101.138682
 11
-112.973365
 21
100.638688
  0
LINE
  8
型材断面
  6
CONTINUOUS
 62
    47
 10
-107.473345
 20
101.138682
 11
-110.773368
 21
101.138682
  0
LINE
  8
型材断面
  6
CONTINUOUS
 62
    47
 10
-112.973365
 20
100.638688
 11
-110.773368
 21
100.638688
  0
LINE
  8
型材断面
  6
CONTINUOUS
 62
    47
 10
-113.473415
 20
101.138682
 11
-113.473368
 21
101.138682
  0
LINE
  8
型材断面
  6
CONTINUOUS
 62
    47
 10
-113.473427
 20
103.638693
 11
-99.17314
 21
103.638673
  0
LINE
  8
型材断面
  6
CONTINUOUS
 62
    47
 10
-68.6737
 20
66.339215
 11
-68.673718
 21
52.48288
  0
LINE
  8
型材断面
  6
CONTINUOUS
 62
    47
 10
-71.173735
 20
58.539222
 11
-71.173722
 21
52.48288
  0
LINE
  8
型材断面
  6
CONTINUOUS
 10
153.49935
 20
-28.440457
 11
162.159683
 21
-33.440315
  0
LINE
  8
型材断面
  6
CONTINUOUS
 10
155.49893
 20
-24.97708
 11
164.15926
 21
-29.976937
  0
LINE
  8
ガラス
  6
CONTINUOUS
 10
-71.90475
 20
-38.355757
 11
-71.905035
 21
-20.55573
  0
LINE
  8
ガラス
  6
CONTINUOUS
 10
-65.904855
 20
-31.555642
 11
-65.904945
 21
-25.55568
  0
LINE
  8
ガラス
  6
CONTINUOUS
 10
-65.904945
 20
-25.55568
 11
-71.904855
 21
-31.55574
  0
LINE
  8
ガラス
  6
CONTINUOUS
 10
-71.904953
 20
-25.555763
 11
-65.904855
 21
-31.555642
  0
LINE
  8
ガラス
  6
CONTINUOUS
 10
-105.90489
 20
-38.355728
 11
-105.904575
 21
-20.5557
  0
LINE
  8
ガラス
  6
CONTINUOUS
 10
-111.90477
 20
-31.555605
 11
-111.904673
 21
-25.555642
  0
LINE
  8
ガラス
  6
CONTINUOUS
 10
-111.904673
 20
-25.555642
 11
-105.90477
 21
-31.55571
  0
LINE
  8
ガラス
  6
CONTINUOUS
 10
-105.904665
 20
-25.555732
 11
-111.90477
 21
-31.555605
  0
LINE
  8
ガラス
  6
CONTINUOUS
 10
-71.904765
 20
-37.855763
 11
-21.904755
 21
-37.854983
  0
LINE
  8
ガラス
  6
CONTINUOUS
 10
-71.90475
 20
-38.355757
 11
-21.904748
 21
-38.354978
  0
LINE
  8
ガラス
  6
CONTINUOUS
 10
-71.904847
 20
-32.055735
 11
-21.904845
 21
-32.054962
  0
LINE
  8
ガラス
  6
CONTINUOUS
 10
-71.904855
 20
-31.55574
 11
-21.90486
 21
-31.554968
  0
LINE
  8
ガラス
  6
CONTINUOUS
 10
-71.904968
 20
-25.05576
 11
-21.904958
 21
-25.05498
  0
LINE
  8
ガラス
  6
CONTINUOUS
 10
-71.904953
 20
-25.555763
 11
-21.90495
 21
-25.55499
  0
LINE
  8
ガラス
  6
CONTINUOUS
 10
-71.905035
 20
-20.55573
 11
-21.905033
 21
-20.554958
  0
LINE
  8
ガラス
  6
CONTINUOUS
 10
-71.90502
 20
-21.055732
 11
-21.905025
 21
-21.054968
  0
LINE
  8
ガラス
  6
CONTINUOUS
 10
-105.90489
 20
-38.355728
 11
-155.904893
 21
-38.354865
  0
LINE
  8
ガラス
  6
CONTINUOUS
 10
-105.904875
 20
-37.855732
 11
-155.904885
 21
-37.85487
  0
LINE
  8
ガラス
  6
CONTINUOUS
 10
-105.90477
 20
-31.55571
 11
-155.904773
 21
-31.554855
  0
LINE
  8
ガラス
  6
CONTINUOUS
 10
-105.904777
 20
-32.055705
 11
-155.90478
 21
-32.05485
  0
LINE
  8
ガラス
  6
CONTINUOUS
 10
-105.904665
 20
-25.555732
 11
-155.904667
 21
-25.554878
  0
LINE
  8
ガラス
  6
CONTINUOUS
 10
-105.90465
 20
-25.05573
 11
-155.90466
 21
-25.054868
  0
LINE
  8
ガラス
  6
CONTINUOUS
 10
-105.90459
 20
-21.055703
 11
-155.904585
 21
-21.054855
  0
LINE
  8
ガラス
  6
CONTINUOUS
 10
-105.904575
 20
-20.5557
 11
-155.904577
 21
-20.554845
  0
LINE
  8
ガラス
  6
CONTINUOUS
 10
-82.173178
 20
81.338985
 11
-82.173287
 21
88.139003
  0
LINE
  8
ガラス
  6
CONTINUOUS
 10
-82.172988
 20
81.338985
 11
-49.502057
 21
81.339495
  0
LINE
  8
ガラス
  6
CONTINUOUS
 10
-82.173002
 20
81.83898
 11
-49.502057
 21
81.83949
  0
LINE
  8
ガラス
  6
CONTINUOUS
 10
-82.173092
 20
88.139003
 11
-49.502057
 21
88.139508
  0
LINE
  8
ガラス
  6
CONTINUOUS
 10
-82.173085
 20
87.639007
 11
-49.502057
 21
87.639512
  0
LINE
  8
ガラス
  6
CONTINUOUS
 10
154.407605
 20
-46.867325
 11
132.226162
 21
-34.06089
  0
LINE
  8
ガラス
  6
CONTINUOUS
 10
134.422322
 20
-42.25701
 11
137.422302
 21
-37.060885
  0
LINE
  8
ガラス
  6
CONTINUOUS
 10
137.422302
 20
-37.060885
 11
129.226167
 21
-39.257017
  0
LINE
  8
ガラス
  6
CONTINUOUS
 10
132.226147
 20
-34.060883
 11
134.422322
 21
-42.25701
  0
LINE
  8
ガラス
  6
CONTINUOUS
 10
72.653372
 20
-42.257015
 11
69.65339
 21
-37.060893
  0
LINE
  8
ガラス
  6
CONTINUOUS
 10
69.65339
 20
-37.060893
 11
77.849525
 21
-39.257023
  0
LINE
  8
ガラス
  6
CONTINUOUS
 10
74.849545
 20
-34.060887
 11
72.653372
 21
-42.257015
  0
LINE
  8
ガラス
  6
CONTINUOUS
 10
81.249542
 20
-45.146005
 11
72.349508
 21
-29.730745
  0
LINE
  8
ガラス
  6
CONTINUOUS
 10
125.82615
 20
-45.146
 11
134.726188
 21
-29.730738
  0
LINE
  8
ガラス
  6
CONTINUOUS
 10
72.59951
 20
-30.16376
 11
31.97647
 21
-53.617453
  0
LINE
  8
ガラス
  6
CONTINUOUS
 10
72.349508
 20
-29.730745
 11
31.726473
 21
-53.18444
  0
LINE
  8
ガラス
  6
CONTINUOUS
 10
74.849535
 20
-34.060902
 11
34.22648
 21
-57.514588
  0
LINE
  8
ガラス
  6
CONTINUOUS
 10
74.59953
 20
-33.627883
 11
33.97648
 21
-57.081575
  0
LINE
  8
ガラス
  6
CONTINUOUS
 10
77.849525
 20
-39.25702
 11
37.226465
 21
-62.71072
  0
LINE
  8
ガラス
  6
CONTINUOUS
 10
78.099525
 20
-39.690032
 11
37.476465
 21
-63.143732
  0
LINE
  8
ガラス
  6
CONTINUOUS
 10
80.999545
 20
-44.712995
 11
40.376473
 21
-68.166702
  0
LINE
  8
ガラス
  6
CONTINUOUS
 10
81.249545
 20
-45.146007
 11
40.626473
 21
-68.599712
  0
LINE
  8
ガラス
  6
CONTINUOUS
 10
125.82615
 20
-45.146
 11
166.449235
 21
-68.599695
  0
LINE
  8
ガラス
  6
CONTINUOUS
 10
126.076152
 20
-44.712987
 11
166.699235
 21
-68.166685
  0
LINE
  8
ガラス
  6
CONTINUOUS
 10
129.226167
 20
-39.257017
 11
169.849232
 21
-62.710713
  0
LINE
  8
ガラス
  6
CONTINUOUS
 10
128.976167
 20
-39.690027
 11
169.599232
 21
-63.143725
  0
LINE
  8
ガラス
  6
CONTINUOUS
 10
132.476165
 20
-33.627873
 11
173.099215
 21
-57.081557
  0
LINE
  8
ガラス
  6
CONTINUOUS
 10
134.726188
 20
-29.730738
 11
175.349225
 21
-53.184415
  0
LINE
  8
ガラス
  6
CONTINUOUS
 10
134.476185
 20
-30.163753
 11
175.099223
 21
-53.617432
  0
INSERT
  2
*GRP_0005
  8
ゴム等
  6
CONTINUOUS
 10
0.0
 20
0.0
  0
INSERT
  2
*GRP_0006
  8
ゴム等
  6
DOT
 62
    63
 10
0.0
 20
0.0
  0
INSERT
  2
*GRP_0007
  8
ゴム等
  6
CONTINUOUS
 10
0.0
 20
0.0
  0
INSERT
  2
*GRP_0008
  8
ゴム等
  6
CONTINUOUS
 10
0.0
 20
0.0
  0
INSERT
  2
*GRP_0009
  8
ゴム等
  6
CONTINUOUS
 62
    63
 10
0.0
 20
0.0
  0
INSERT
  2
*GRP_0010
  8
ゴム等
  6
CONTINUOUS
 10
0.0
 20
0.0
  0
INSERT
  2
*GRP_0011
  8
ゴム等
  6
CONTINUOUS
 10
0.0
 20
0.0
  0
INSERT
  2
*GRP_0039
  8
ゴム等
  6
DOT
 62
    63
 10
0.0
 20
0.0
  0
INSERT
  2
*GRP_0012
  8
ボルト／ビス
  6
CONTINUOUS
 62
    64
 10
0.0
 20
0.0
  0
ARC
  8
ボルト／ビス
  6
DOT
 62
    64
 10
103.53782
 20
-17.95734
 40
8.471617
 50
34.280743
 51
145.719334
  0
LINE
  8
ボルト／ビス
  6
DOT
 62
    64
 10
110.537838
 20
-13.185705
 11
96.537843
 21
-13.185713
  0
LINE
  8
ボルト／ビス
  6
DOT
 62
    64
 10
103.53784
 20
-9.485707
 11
103.537847
 21
-28.185705
  0
LINE
  8
ボルト／ビス
  6
DOT
 62
    64
 10
100.537847
 20
-27.185715
 11
106.537847
 21
-27.185707
  0
LINE
  8
ボルト／ビス
  6
DOT
 62
    64
 10
100.537847
 20
-27.185715
 11
101.537853
 21
-28.185713
  0
LINE
  8
ボルト／ビス
  6
DOT
 62
    64
 10
105.537858
 20
-28.185705
 11
106.537847
 21
-27.185707
  0
LINE
  8
ボルト／ビス
  6
DOT
 62
    64
 10
105.537858
 20
-28.185705
 11
101.537853
 21
-28.185713
  0
LINE
  8
ボルト／ビス
  6
DOT
 62
    64
 10
106.53784
 20
-13.185705
 11
106.537847
 21
-27.185707
  0
LINE
  8
ボルト／ビス
  6
DOT
 62
    64
 10
100.53784
 20
-13.185705
 11
100.537847
 21
-27.185715
  0
LINE
  8
ボルト／ビス
  6
DOT
 62
    64
 10
105.537843
 20
-13.185705
 11
105.537858
 21
-28.185705
  0
LINE
  8
ボルト／ビス
  6
DOT
 62
    64
 10
101.537838
 20
-13.185713
 11
101.537853
 21
-28.185713
  0
INSERT
  2
*GRP_0040
  8
ボルト／ビス
  6
CONTINUOUS
 62
    64
 10
0.0
 20
0.0
  0
TEXT
  7
TextStyle03
  8
文字
  6
CONTINUOUS
 10
63.75
 20
99.975
  1
ＮＳコード：ＮＳ４Ｃ　ＮＳ４ＣＫ
 40
5.0
 72
     5
 11
153.125
 21
99.975
  0
TEXT
  7
TextStyle03
  8
文字
  6
CONTINUOUS
 10
63.775
 20
120.725
  1
シリーズ：ＴＦ４・ＴＦ４Ｋ
 40
5.0
 72
     5
 11
136.275
 21
120.725
  0
TEXT
  7
TextStyle03
  8
文字
  6
CONTINUOUS
 10
63.775
 20
115.1
  1
　　　　　四角錘（上下可動・固定）
 40
5.0
 72
     5
 11
158.775
 21
115.1
  0
TEXT
  7
TextStyle03
  8
文字
  6
CONTINUOUS
 10
63.775
 20
109.475
  1
図面名　：中間フレーム・稜線フレーム断面詳細図
 40
5.0
 72
     5
 11
192.525
 21
109.475
  0
TEXT
  7
TextStyle03
  8
文字
  6
CONTINUOUS
 10
-102.325
 20
-86.15
  1
中間フレーム
 40
4.0
 72
     5
 11
-75.825
 21
-86.15
  0
TEXT
  7
TextStyle03
  8
文字
  6
CONTINUOUS
 10
-125.775
 20
-104.825
  1
※中間フレームは2000タイプのみ使用
 40
4.0
 72
     5
 11
-49.775
 21
-104.825
  0
TEXT
  7
TextStyle03
  8
文字
  6
CONTINUOUS
 10
140.1
 20
-81.125
  1
稜線フレーム
 40
4.0
 72
     5
 11
166.6
 21
-81.125
  0
POLYLINE
  8
文字
  6
CONTINUOUS
 66
     1
 70
     1
  0
VERTEX
  8
文字
 10
-47.66303
 20
107.177105
  0
VERTEX
  8
文字
 10
-119.34682
 20
107.177105
  0
VERTEX
  8
文字
 10
-119.34682
 20
43.110937
  0
VERTEX
  8
文字
 10
-47.66303
 20
43.110937
  0
SEQEND
  0
TEXT
  7
TextStyle03
  8
文字
  6
CONTINUOUS
 10
-103.475
 20
45.65
  1
シングルガラスタイプ
 40
4.0
 72
     5
 11
-58.975
 21
45.65
  0
INSERT
  2
*DIM_0013
  8
寸法
  6
CONTINUOUS
 10
0.0
 20
0.0
  0
INSERT
  2
*DIM_0014
  8
寸法
  6
CONTINUOUS
 10
0.0
 20
0.0
  0
INSERT
  2
*DIM_0015
  8
寸法
  6
CONTINUOUS
 10
0.0
 20
0.0
  0
INSERT
  2
*DIM_0016
  8
寸法
  6
CONTINUOUS
 10
0.0
 20
0.0
  0
INSERT
  2
*DIM_0017
  8
寸法
  6
CONTINUOUS
 10
0.0
 20
0.0
  0
INSERT
  2
*DIM_0018
  8
寸法
  6
CONTINUOUS
 10
0.0
 20
0.0
  0
INSERT
  2
*DIM_0019
  8
寸法
  6
CONTINUOUS
 10
0.0
 20
0.0
  0
INSERT
  2
*DIM_0020
  8
寸法
  6
CONTINUOUS
 10
0.0
 20
0.0
  0
INSERT
  2
*DIM_0021
  8
寸法
  6
CONTINUOUS
 10
0.0
 20
0.0
  0
INSERT
  2
*DIM_0022
  8
寸法
  6
CONTINUOUS
 10
0.0
 20
0.0
  0
INSERT
  2
*DIM_0023
  8
寸法
  6
CONTINUOUS
 10
0.0
 20
0.0
  0
INSERT
  2
*DIM_0024
  8
寸法
  6
CONTINUOUS
 10
0.0
 20
0.0
  0
INSERT
  2
*DIM_0025
  8
寸法
  6
CONTINUOUS
 10
0.0
 20
0.0
  0
INSERT
  2
*DIM_0026
  8
寸法
  6
CONTINUOUS
 10
0.0
 20
0.0
  0
INSERT
  2
*DIM_0027
  8
寸法
  6
CONTINUOUS
 10
0.0
 20
0.0
  0
INSERT
  2
*DIM_0028
  8
寸法
  6
CONTINUOUS
 10
0.0
 20
0.0
  0
INSERT
  2
*DIM_0029
  8
寸法
  6
CONTINUOUS
 10
0.0
 20
0.0
  0
INSERT
  2
*DIM_0030
  8
寸法
  6
CONTINUOUS
 10
0.0
 20
0.0
  0
INSERT
  2
*DIM_0031
  8
寸法
  6
CONTINUOUS
 10
0.0
 20
0.0
  0
INSERT
  2
*DIM_0032
  8
寸法
  6
CONTINUOUS
 10
0.0
 20
0.0
  0
INSERT
  2
*DIM_0033
  8
寸法
  6
CONTINUOUS
 10
0.0
 20
0.0
  0
INSERT
  2
*DIM_0034
  8
寸法
  6
CONTINUOUS
 10
0.0
 20
0.0
  0
INSERT
  2
*DIM_0035
  8
寸法
  6
CONTINUOUS
 10
0.0
 20
0.0
  0
INSERT
  2
*DIM_0036
  8
寸法
  6
CONTINUOUS
 10
0.0
 20
0.0
  0
INSERT
  2
*HAT_0001
  8
ﾊｯﾁﾝｸﾞ
 10
0.0
 20
0.0
  0
INSERT
  2
*HAT_0002
  8
ﾊｯﾁﾝｸﾞ
 10
0.0
 20
0.0
  0
INSERT
  2
*HAT_0003
  8
ﾊｯﾁﾝｸﾞ
 10
0.0
 20
0.0
  0
INSERT
  2
*HAT_0004
  8
ﾊｯﾁﾝｸﾞ
 10
0.0
 20
0.0
  0
INSERT
  2
*HAT_0005
  8
ﾊｯﾁﾝｸﾞ
 10
0.0
 20
0.0
  0
LINE
  8
St
  6
CONTINUOUS
 62
    47
 10
-110.773368
 20
101.138682
 11
-110.773368
 21
100.638688
  0
LINE
  8
その他部品等
  6
CONTINUOUS
 10
-53.90493
 20
-9.251977
 11
-53.904945
 21
-20.555452
  0
LINE
  8
その他部品等
  6
CONTINUOUS
 10
-70.90512
 20
-20.55573
 11
-70.905105
 21
-8.55195
  0
LINE
  8
その他部品等
  6
CONTINUOUS
 10
-63.904943
 20
-20.55561
 11
-63.904935
 21
-8.551965
  0
LINE
  8
その他部品等
  6
CONTINUOUS
 10
-63.904935
 20
-8.551965
 11
-70.90512
 21
-20.55573
  0
LINE
  8
その他部品等
  6
CONTINUOUS
 10
-123.904658
 20
-9.251918
 11
-123.904665
 21
-20.555393
  0
LINE
  8
その他部品等
  6
CONTINUOUS
 10
-106.90449
 20
-20.5557
 11
-106.904483
 21
-8.55192
  0
LINE
  8
その他部品等
  6
CONTINUOUS
 10
-113.904667
 20
-20.555573
 11
-113.904652
 21
-8.551927
  0
LINE
  8
その他部品等
  6
CONTINUOUS
 10
-113.904652
 20
-8.551927
 11
-106.90449
 21
-20.5557
  0
INSERT
  2
*GRP_0041
  8
その他部品等
  6
CONTINUOUS
 10
0.0
 20
0.0
  0
LINE
  8
その他部品等
  6
CONTINUOUS
 10
-64.173197
 20
100.438617
 11
-64.173215
 21
88.13928
  0
LINE
  8
その他部品等
  6
CONTINUOUS
 10
-74.173203
 20
101.13863
 11
-74.17321
 21
88.139125
  0
LINE
  8
その他部品等
  6
CONTINUOUS
 10
-81.173372
 20
101.138645
 11
-81.173387
 21
88.139018
  0
LINE
  8
その他部品等
  6
CONTINUOUS
 10
-74.173203
 20
101.13863
 11
-81.173387
 21
88.139018
  0
LINE
  8
その他部品等
  6
CONTINUOUS
 10
53.576315
 20
-28.440495
 11
58.828448
 21
-37.53712
  0
LINE
  8
その他部品等
  6
CONTINUOUS
 10
67.488625
 20
-32.536985
 11
61.236542
 21
-21.708463
  0
LINE
  8
その他部品等
  6
CONTINUOUS
 10
153.499373
 20
-28.440485
 11
148.24725
 21
-37.537108
  0
LINE
  8
その他部品等
  6
CONTINUOUS
 10
139.587068
 20
-32.536978
 11
145.839145
 21
-21.708445
  0
LINE
  8
その他部品等
  6
CONTINUOUS
 10
139.587068
 20
-32.536978
 11
145.839145
 21
-21.708445
  0
LINE
  8
その他部品等
  6
CONTINUOUS
 10
72.349378
 20
-29.730523
 11
66.097298
 21
-18.901995
  0
LINE
  8
その他部品等
  6
CONTINUOUS
 10
66.097298
 20
-18.901995
 11
67.488625
 21
-32.536985
  0
LINE
  8
その他部品等
  6
CONTINUOUS
 10
134.726312
 20
-29.730518
 11
140.978392
 21
-18.901987
  0
LINE
  8
その他部品等
  6
CONTINUOUS
 10
140.978392
 20
-18.901987
 11
139.587068
 21
-32.536978
  0
ENDSEC
  0
EOF
