  0
SECTION
  2
HEADER
  9
$EXTMIN
 10
-210.0
 20
-148.5
  9
$EXTMAX
 10
210.0
 20
148.5
  9
$PDMODE
 70
    32
  9
$PDSIZE
 40
1.5
  9
$LTSCALE
 40
10.0
  0
ENDSEC
  0
SECTION
  2
TABLES
  0
TABLE
  2
LTYPE
 70
    15
  0
LTYPE
  2
CONTINUOUS
 70
    64
  3
実線
 72
    65
 73
     0
 40
0.0
  0
LTYPE
  2
DASHED
 70
    64
  3
破線A
 72
    65
 73
     2
 40
0.6
 49
0.4
 49
-0.2
  0
LTYPE
  2
DASHEDX2
 70
    64
  3
破線B
 72
    65
 73
     2
 40
1.3
 49
0.9
 49
-0.4
  0
LTYPE
  2
DASHDOT
 70
    64
  3
１点鎖線A
 72
    65
 73
     4
 40
0.5375
 49
0.375
 49
-0.05
 49
0.0625
 49
-0.05
  0
LTYPE
  2
DASHDOTX2
 70
    64
  3
１点鎖線B
 72
    65
 73
     4
 40
1.075
 49
0.75
 49
-0.1
 49
0.125
 49
-0.1
  0
LTYPE
  2
DIVIDE2
 70
    64
  3
２点鎖線A
 72
    65
 73
     6
 40
0.5125
 49
0.3
 49
-0.0375
 49
0.05
 49
-0.0375
 49
0.05
 49
-0.0375
  0
LTYPE
  2
DIVIDE
 70
    64
  3
２点鎖線B
 72
    65
 73
     6
 40
1.05
 49
0.55
 49
-0.1
 49
0.1
 49
-0.1
 49
0.1
 49
-0.1
  0
LTYPE
  2
DOT
 70
    64
  3
点線A
 72
    65
 73
     2
 40
0.1125
 49
0.0625
 49
-0.05
  0
LTYPE
  2
DOTX2
 70
    64
  3
点線B
 72
    65
 73
     2
 40
0.275
 49
0.15
 49
-0.125
  0
LTYPE
  2
CONTINUOUS
 70
    64
  3
実線
 72
    65
 73
     0
 40
0.0
  0
LTYPE
  2
CONTINUOUS
 70
    64
  3
実線
 72
    65
 73
     0
 40
0.0
  0
LTYPE
  2
CONTINUOUS
 70
    64
  3
実線
 72
    65
 73
     0
 40
0.0
  0
LTYPE
  2
CONTINUOUS
 70
    64
  3
実線
 72
    65
 73
     0
 40
0.0
  0
LTYPE
  2
CONTINUOUS
 70
    64
  3
実線
 72
    65
 73
     0
 40
0.0
  0
LTYPE
  2
CONTINUOUS
 70
    64
  3
実線
 72
    65
 73
     0
 40
0.0
  0
ENDTAB
  0
TABLE
  2
LAYER
 70
    34
  0
LAYER
  2
通り芯
 70
     0
 62
    15
  6
CONTINUOUS
  0
LAYER
  2
補助線
 70
     0
 62
    16
  6
DOT
  0
LAYER
  2
躯体
 70
     0
 62
    31
  6
CONTINUOUS
  0
LAYER
  2
型材
 70
     0
 62
    32
  6
CONTINUOUS
  0
LAYER
  2
型材断面
 70
     0
 62
    47
  6
CONTINUOUS
  0
LAYER
  2
ガラス
 70
     0
 62
    48
  6
CONTINUOUS
  0
LAYER
  2
ゴム等
 70
     0
 62
    63
  6
CONTINUOUS
  0
LAYER
  2
ボルト／ビス
 70
     0
 62
    64
  6
CONTINUOUS
  0
LAYER
  2
文字
 70
     0
 62
    79
  6
CONTINUOUS
  0
LAYER
  2
寸法
 70
     0
 62
    80
  6
CONTINUOUS
  0
LAYER
  2
ﾊｯﾁﾝｸﾞ
 70
     0
 62
    95
  6
CONTINUOUS
  0
LAYER
  2
別途部材
 70
     0
 62
    96
  6
CONTINUOUS
  0
LAYER
  2
曲げ物
 70
     0
 62
   111
  6
CONTINUOUS
  0
LAYER
  2
鉄骨等
 70
     0
 62
   112
  6
CONTINUOUS
  0
LAYER
  2
St
 70
     0
 62
   127
  6
CONTINUOUS
  0
LAYER
  2
その他部品等
 70
     0
 62
   128
  6
CONTINUOUS
  0
LAYER
  2
ｶﾞｽｹｯﾄ
 70
     0
 62
   143
  6
CONTINUOUS
  0
LAYER
  2
ｽｹｯﾁ
 70
     0
 62
    14
  6
CONTINUOUS
  0
LAYER
  2
0
 70
     0
 62
    17
  6
CONTINUOUS
  0
LAYER
  2
1
 70
     0
 62
    30
  6
CONTINUOUS
  0
LAYER
  2
4
 70
     0
 62
    33
  6
CONTINUOUS
  0
LAYER
  2
ﾚｲﾔ3
 70
     0
 62
    46
  6
CONTINUOUS
  0
LAYER
  2
外形線
 70
     0
 62
    49
  6
CONTINUOUS
  0
LAYER
  2
部品
 70
     0
 62
    14
  6
CONTINUOUS
  0
LAYER
  2
サッシ芯
 70
     0
 62
    17
  6
DASHDOTX2
  0
LAYER
  2
寸法線
 70
     0
 62
    62
  6
CONTINUOUS
  0
LAYER
  2
姿図外形線
 70
     0
 62
    65
  6
CONTINUOUS
  0
LAYER
  2
姿補助線
 70
     0
 62
    30
  6
CONTINUOUS
  0
LAYER
  2
透視線
 70
     0
 62
    78
  6
DOT
  0
LAYER
  2
用紙
 70
     0
 62
    81
  6
CONTINUOUS
  0
LAYER
  2
実線図枠
 70
     0
 62
    94
  6
CONTINUOUS
  0
LAYER
  2
補助図枠
 70
     0
 62
    97
  6
CONTINUOUS
  0
LAYER
  2
建具記号
 70
     0
 62
   110
  6
CONTINUOUS
  0
LAYER
  2
補助文字
 70
     0
 62
   113
  6
CONTINUOUS
  0
ENDTAB
  0
TABLE
  2
STYLE
 70
    10
  0
STYLE
  2
STANDARD
 70
     0
 40
1.0
 41
1.0
 42
1.0
 50
0.0
 71
     0
  3
TXT
  4
BIGFONT
  0
STYLE
  2
TATE
 70
     4
 40
1.0
 41
1.0
 42
1.0
 50
0.0
 71
     0
  3
TXT
  4
BIGFONT
  0
STYLE
  2
TextStyle03
 70
     0
 40
1.0
 41
1.0
 42
1.0
 50
0.0
 71
     0
  3
MONOTXT
  4
BIGFONT
  0
STYLE
  2
TextStyle04
 70
     0
 40
1.0
 41
1.0
 42
1.0
 50
0.0
 71
     0
  3
MONOTXT
  4
BIGFONT
  0
STYLE
  2
TextStyle05
 70
     0
 40
1.0
 41
1.0
 42
1.0
 50
0.0
 71
     0
  3
MONOTXT
  4
BIGFONT
  0
STYLE
  2
TextStyle06
 70
     0
 40
1.0
 41
1.0
 42
1.0
 50
0.0
 71
     0
  3
MONOTXT
  4
BIGFONT
  0
STYLE
  2
TextStyle07
 70
     0
 40
1.0
 41
1.0
 42
1.0
 50
0.0
 71
     0
  3
MONOTXT
  4
BIGFONT
  0
STYLE
  2
TextStyle08
 70
     0
 40
1.0
 41
1.0
 42
1.0
 50
0.0
 71
     0
  3
MONOTXT
  4
BIGFONT
  0
STYLE
  2
TextStyle09
 70
     0
 40
1.0
 41
1.0
 42
1.0
 50
0.0
 71
     0
  3
MONOTXT
  4
BIGFONT
  0
STYLE
  2
TextStyle10
 70
     0
 40
1.0
 41
1.0
 42
1.0
 50
0.0
 71
     0
  3
MONOTXT
  4
BIGFONT
  0
ENDTAB
  0
ENDSEC
  0
SECTION
  2
BLOCKS
  0
BLOCK
  2
*GRP_0001
 70
    65
 10
0.0
 20
0.0
  0
LINE
  8
型材断面
  6
CONTINUOUS
 10
195.0
 20
133.5
 11
195.0
 21
-133.5
  0
LINE
  8
型材断面
  6
CONTINUOUS
 10
195.0
 20
-133.5
 11
-185.0
 21
-133.5
  0
LINE
  8
型材断面
  6
CONTINUOUS
 10
-185.0
 20
-133.5
 11
-185.0
 21
133.5
  0
LINE
  8
型材断面
  6
CONTINUOUS
 10
195.0
 20
133.5
 11
-185.0
 21
133.5
  0
LINE
  8
型材断面
  6
CONTINUOUS
 10
145.0
 20
-133.5
 11
145.0
 21
-118.5
  0
LINE
  8
型材断面
  6
CONTINUOUS
 10
195.0
 20
-118.5
 11
145.0
 21
-118.5
  0
ENDBLK
  0
BLOCK
  2
*DIM_0002
 70
    65
 10
0.0
 20
0.0
  0
LINE
  8
寸法
  6
BYBLOCK
 62
     0
 10
-95.755937
 20
-35.080245
 11
-95.755937
 21
-33.416065
  0
LINE
  8
寸法
  6
BYBLOCK
 62
     0
 10
-30.755937
 20
-35.080245
 11
-30.755937
 21
-33.416065
  0
LINE
  8
寸法
  6
BYBLOCK
 62
     0
 10
-95.755937
 20
-33.416065
 11
-30.755937
 21
-33.416065
  0
POINT
  8
寸法
 62
     0
 10
-95.755937
 20
-33.416065
  0
POINT
  8
寸法
 62
     0
 10
-30.755937
 20
-33.416065
  0
TEXT
  7
TextStyle03
  8
寸法
  6
CONTINUOUS
 62
     0
 10
-74.99375
 20
-33.05
  1
呼称寸法　1300
 40
3.0
 72
     5
 11
-51.55625
 21
-33.05
  0
ENDBLK
  0
BLOCK
  2
*DIM_0003
 70
    65
 10
0.0
 20
0.0
  0
LINE
  8
寸法
  6
BYBLOCK
 62
     0
 10
-80.755937
 20
82.238818
 11
-80.755937
 21
92.594355
  0
LINE
  8
寸法
  6
BYBLOCK
 62
     0
 10
-45.755937
 20
82.238818
 11
-45.755937
 21
92.594355
  0
LINE
  8
寸法
  6
BYBLOCK
 62
     0
 10
-80.755937
 20
92.594355
 11
-45.755937
 21
92.594355
  0
POINT
  8
寸法
 62
     0
 10
-80.755937
 20
92.594355
  0
POINT
  8
寸法
 62
     0
 10
-45.755937
 20
92.594355
  0
TEXT
  7
TextStyle03
  8
寸法
  6
CONTINUOUS
 62
     0
 10
-65.7125
 20
92.975
  1
700
 40
3.0
 72
     5
 11
-60.8375
 21
92.975
  0
ENDBLK
  0
BLOCK
  2
*DIM_0004
 70
    65
 10
0.0
 20
0.0
  0
LINE
  8
寸法
  6
BYBLOCK
 62
     0
 10
-123.904373
 20
44.370385
 11
-134.25991
 21
44.370385
  0
LINE
  8
寸法
  6
BYBLOCK
 62
     0
 10
-123.904375
 20
9.370385
 11
-134.259912
 21
9.370385
  0
LINE
  8
寸法
  6
BYBLOCK
 62
     0
 10
-134.25991
 20
44.370385
 11
-134.259912
 21
9.370385
  0
POINT
  8
寸法
 62
     0
 10
-134.25991
 20
44.370385
  0
POINT
  8
寸法
 62
     0
 10
-134.259912
 20
9.370385
  0
TEXT
  7
TextStyle03
  8
寸法
  6
CONTINUOUS
 62
     0
 10
-134.65
 20
24.4375
  1
700
 40
3.0
 50
90.0
 72
     5
 11
-134.65
 21
29.3125
  0
ENDBLK
  0
BLOCK
  2
*DIM_0005
 70
    65
 10
0.0
 20
0.0
  0
LINE
  8
寸法
  6
BYBLOCK
 62
     0
 10
-26.005933
 20
-71.57023
 11
-26.005933
 21
-33.416065
  0
LINE
  8
寸法
  6
BYBLOCK
 62
     0
 10
-30.755937
 20
-33.416065
 11
-26.005933
 21
-33.416065
  0
POINT
  8
寸法
 62
     0
 10
-30.755937
 20
-33.416065
  0
POINT
  8
寸法
 62
     0
 10
-26.005933
 20
-33.416065
  0
TEXT
  7
TextStyle03
  8
寸法
  6
CONTINUOUS
 62
     0
 10
-29.99375
 20
-33.05
  1
95
 40
3.0
 72
     5
 11
-26.80625
 21
-33.05
  0
ENDBLK
  0
BLOCK
  2
*DIM_0006
 70
    65
 10
0.0
 20
0.0
  0
LINE
  8
寸法
  6
BYBLOCK
 62
     0
 10
-100.505943
 20
-71.57023
 11
-100.505943
 21
-33.416065
  0
LINE
  8
寸法
  6
BYBLOCK
 62
     0
 10
-95.755937
 20
-33.416065
 11
-100.505943
 21
-33.416065
  0
POINT
  8
寸法
 62
     0
 10
-95.755937
 20
-33.416065
  0
POINT
  8
寸法
 62
     0
 10
-100.505943
 20
-33.416065
  0
TEXT
  7
TextStyle03
  8
寸法
  6
CONTINUOUS
 62
     0
 10
-99.74375
 20
-33.05
  1
95
 40
3.0
 72
     5
 11
-96.55625
 21
-33.05
  0
ENDBLK
  0
BLOCK
  2
*DIM_0007
 70
    65
 10
0.0
 20
0.0
  0
LINE
  8
寸法
  6
BYBLOCK
 62
     0
 10
170.054785
 20
74.307477
 11
179.869732
 21
74.307477
  0
LINE
  8
寸法
  6
BYBLOCK
 62
     0
 10
170.054785
 20
9.807477
 11
179.869732
 21
9.807477
  0
LINE
  8
寸法
  6
BYBLOCK
 62
     0
 10
179.869732
 20
74.307477
 11
179.869732
 21
9.807477
  0
POINT
  8
寸法
 62
     0
 10
179.869732
 20
74.307477
  0
POINT
  8
寸法
 62
     0
 10
179.869732
 20
9.807477
  0
TEXT
  7
TextStyle03
  8
寸法
  6
CONTINUOUS
 62
     0
 10
179.475
 20
38.76875
  1
1290
 40
3.0
 50
90.0
 72
     5
 11
179.475
 21
45.33125
  0
ENDBLK
  0
BLOCK
  2
*DIM_0008
 70
    65
 10
0.0
 20
0.0
  0
LINE
  8
寸法
  6
BYBLOCK
 62
     0
 10
167.054785
 20
77.307477
 11
167.054785
 21
87.122425
  0
LINE
  8
寸法
  6
BYBLOCK
 62
     0
 10
102.554785
 20
77.307477
 11
102.554785
 21
87.122425
  0
LINE
  8
寸法
  6
BYBLOCK
 62
     0
 10
167.054785
 20
87.122425
 11
102.554785
 21
87.122425
  0
POINT
  8
寸法
 62
     0
 10
167.054785
 20
87.122425
  0
POINT
  8
寸法
 62
     0
 10
102.554785
 20
87.122425
  0
TEXT
  7
TextStyle03
  8
寸法
  6
CONTINUOUS
 62
     0
 10
131.51875
 20
87.475
  1
1290
 40
3.0
 72
     5
 11
138.08125
 21
87.475
  0
ENDBLK
  0
BLOCK
  2
*DIM_0009
 70
    65
 10
0.0
 20
0.0
  0
LINE
  8
寸法
  6
CONTINUOUS
 10
-9.630663
 20
-76.045153
 11
-9.630663
 21
-69.59515
  0
POINT
  8
寸法
 10
-9.630663
 20
-76.045153
  0
POINT
  8
寸法
 10
-9.630663
 20
-69.59515
  0
TEXT
  7
TextStyle03
  8
寸法
  6
CONTINUOUS
 10
-10.05
 20
-75.3125
  1
129
 40
3.0
 50
90.0
 72
     5
 11
-10.05
 21
-70.4375
  0
ENDBLK
  0
ENDSEC
  0
SECTION
  2
ENTITIES
  0
POLYLINE
  8
通り芯
  6
CONTINUOUS
 66
     1
 70
     1
  0
VERTEX
  8
通り芯
 10
-210.0
 20
-148.5
  0
VERTEX
  8
通り芯
 10
210.0
 20
-148.5
  0
VERTEX
  8
通り芯
 10
210.0
 20
148.5
  0
VERTEX
  8
通り芯
 10
-210.0
 20
148.5
  0
SEQEND
  0
INSERT
  2
*GRP_0001
  8
型材断面
  6
CONTINUOUS
 10
0.0
 20
0.0
  0
LINE
  8
型材断面
  6
DASHDOT
 10
-30.755937
 20
-85.083888
 11
-30.755937
 21
59.370383
  0
LINE
  8
型材断面
  6
DASHDOT
 10
-95.755937
 20
-85.083888
 11
-95.755937
 21
59.370383
  0
LINE
  8
型材断面
  6
DASHDOT
 10
-63.255937
 20
-85.083888
 11
-63.255937
 21
59.370383
  0
LINE
  8
型材断面
  6
DASHDOT
 10
-95.755937
 20
26.870383
 11
-30.755937
 21
26.870383
  0
LINE
  8
型材断面
  6
CONTINUOUS
 10
-22.732063
 20
26.870383
 11
-18.846303
 21
24.626937
  0
LINE
  8
型材断面
  6
CONTINUOUS
 10
-22.732063
 20
26.870383
 11
-18.846303
 21
29.113827
  0
LINE
  8
型材断面
  6
CONTINUOUS
 10
-18.846303
 20
29.113827
 11
-18.846303
 21
24.626937
  0
LINE
  8
型材断面
  6
CONTINUOUS
 10
-63.255937
 20
67.394257
 11
-65.499382
 21
71.280018
  0
LINE
  8
型材断面
  6
CONTINUOUS
 10
-63.255937
 20
67.394257
 11
-61.012493
 21
71.280018
  0
LINE
  8
型材断面
  6
CONTINUOUS
 10
-61.012493
 20
71.280018
 11
-65.499382
 21
71.280018
  0
LINE
  8
型材断面
  6
CONTINUOUS
 10
-63.255937
 20
-13.653492
 11
-65.499382
 21
-17.539253
  0
LINE
  8
型材断面
  6
CONTINUOUS
 10
-63.255937
 20
-13.653492
 11
-61.012493
 21
-17.539253
  0
LINE
  8
型材断面
  6
CONTINUOUS
 10
-61.012493
 20
-17.539253
 11
-65.499382
 21
-17.539253
  0
LINE
  8
型材断面
  6
CONTINUOUS
 10
-103.779813
 20
26.870383
 11
-107.665572
 21
24.626937
  0
LINE
  8
型材断面
  6
CONTINUOUS
 10
-103.779813
 20
26.870383
 11
-107.665572
 21
29.113827
  0
LINE
  8
型材断面
  6
CONTINUOUS
 10
-107.665572
 20
29.113827
 11
-107.665572
 21
24.626937
  0
LINE
  8
型材断面
  6
CONTINUOUS
 10
-10.615835
 20
-11.415415
 11
-12.85928
 21
-15.301175
  0
LINE
  8
型材断面
  6
CONTINUOUS
 10
-10.615835
 20
-11.415415
 11
-8.37239
 21
-15.301175
  0
LINE
  8
型材断面
  6
CONTINUOUS
 10
-8.37239
 20
-15.301175
 11
-12.85928
 21
-15.301175
  0
LINE
  8
型材断面
  6
CONTINUOUS
 10
-19.649715
 20
-16.709068
 11
33.006965
 21
-16.709068
  0
LINE
  8
型材断面
  6
CONTINUOUS
 10
-19.649715
 20
-23.381848
 11
33.006965
 21
-23.381848
  0
LINE
  8
型材断面
  6
CONTINUOUS
 10
-100.50594
 20
-10.37962
 11
-100.50594
 21
26.870383
  0
LINE
  8
型材断面
  6
CONTINUOUS
 10
-100.50594
 20
-10.37962
 11
-63.255937
 21
-10.37962
  0
LINE
  8
型材断面
  6
CONTINUOUS
 10
-100.50594
 20
64.120385
 11
-100.50594
 21
26.870383
  0
LINE
  8
型材断面
  6
CONTINUOUS
 10
-100.50594
 20
64.120385
 11
-63.255937
 21
64.120385
  0
LINE
  8
型材断面
  6
CONTINUOUS
 10
-26.005935
 20
-10.37962
 11
-26.005935
 21
26.870383
  0
LINE
  8
型材断面
  6
CONTINUOUS
 10
-26.005935
 20
-10.37962
 11
-63.255937
 21
-10.37962
  0
LINE
  8
型材断面
  6
CONTINUOUS
 10
-26.005935
 20
64.120385
 11
-26.005935
 21
26.870383
  0
LINE
  8
型材断面
  6
CONTINUOUS
 10
-26.005935
 20
64.120385
 11
-63.255937
 21
64.120385
  0
LINE
  8
型材断面
  6
CONTINUOUS
 62
    47
 10
-99.75595
 20
-76.54515
 11
-99.75595
 21
-76.045153
  0
LINE
  8
型材断面
  6
CONTINUOUS
 62
    47
 10
-100.070938
 20
-76.045153
 11
-100.505937
 21
-76.045153
  0
LINE
  8
型材断面
  6
CONTINUOUS
 62
    47
 10
-100.505937
 20
-76.045153
 11
-100.505937
 21
-75.295153
  0
LINE
  8
型材断面
  6
CONTINUOUS
 62
    47
 10
-100.505937
 20
-75.295153
 11
-97.595938
 21
-75.074675
  0
LINE
  8
型材断面
  6
CONTINUOUS
 62
    47
 10
-97.595938
 20
-74.330148
 11
-97.595938
 21
-72.095153
  0
LINE
  8
型材断面
  6
CONTINUOUS
 62
    47
 10
-97.595938
 20
-74.360148
 11
-97.595938
 21
-75.074675
  0
LINE
  8
型材断面
  6
CONTINUOUS
 62
    47
 10
-26.755925
 20
-76.54515
 11
-26.755925
 21
-76.045153
  0
LINE
  8
型材断面
  6
CONTINUOUS
 62
    47
 10
-26.440938
 20
-76.045153
 11
-26.005937
 21
-76.045153
  0
LINE
  8
型材断面
  6
CONTINUOUS
 62
    47
 10
-26.005937
 20
-76.045153
 11
-26.005937
 21
-75.295153
  0
LINE
  8
型材断面
  6
CONTINUOUS
 62
    47
 10
-26.005937
 20
-75.295153
 11
-28.915938
 21
-75.074675
  0
LINE
  8
型材断面
  6
CONTINUOUS
 62
    47
 10
-28.915938
 20
-74.330148
 11
-28.915938
 21
-72.095153
  0
LINE
  8
型材断面
  6
CONTINUOUS
 62
    47
 10
-28.915938
 20
-74.360148
 11
-28.915938
 21
-75.074675
  0
LINE
  8
型材断面
  6
CONTINUOUS
 10
-100.505937
 20
-76.045153
 11
-63.255937
 21
-76.045153
  0
LINE
  8
型材断面
  6
CONTINUOUS
 10
-99.75595
 20
-76.54515
 11
-63.255937
 21
-76.54515
  0
LINE
  8
型材断面
  6
CONTINUOUS
 10
-97.595938
 20
-75.074675
 11
-63.255937
 21
-75.074675
  0
LINE
  8
型材断面
  6
CONTINUOUS
 10
-100.505937
 20
-75.295153
 11
-63.255937
 21
-75.295153
  0
LINE
  8
型材断面
  6
CONTINUOUS
 10
-98.140938
 20
-72.095153
 11
-63.255937
 21
-72.095153
  0
LINE
  8
型材断面
  6
CONTINUOUS
 10
-98.140938
 20
-69.59515
 11
-63.255937
 21
-69.59515
  0
LINE
  8
型材断面
  6
CONTINUOUS
 10
-98.37572
 20
-69.845153
 11
-63.255937
 21
-69.845153
  0
LINE
  8
型材断面
  6
CONTINUOUS
 10
-26.755925
 20
-76.54515
 11
-63.255937
 21
-76.54515
  0
LINE
  8
型材断面
  6
CONTINUOUS
 10
-26.005937
 20
-76.045153
 11
-63.255937
 21
-76.045153
  0
LINE
  8
型材断面
  6
CONTINUOUS
 10
-28.915938
 20
-75.074675
 11
-63.255937
 21
-75.074675
  0
LINE
  8
型材断面
  6
CONTINUOUS
 10
-26.005937
 20
-75.295153
 11
-63.255937
 21
-75.295153
  0
LINE
  8
型材断面
  6
CONTINUOUS
 10
-28.370938
 20
-72.095153
 11
-63.255937
 21
-72.095153
  0
LINE
  8
型材断面
  6
CONTINUOUS
 10
-28.370938
 20
-69.59515
 11
-63.255937
 21
-69.59515
  0
LINE
  8
型材断面
  6
CONTINUOUS
 10
-28.136155
 20
-69.845153
 11
-63.255937
 21
-69.845153
  0
LINE
  8
型材断面
  6
DASHDOT
 10
-95.755937
 20
59.370383
 11
-30.755937
 21
59.370383
  0
LINE
  8
型材断面
  6
DASHDOT
 10
-95.755937
 20
-5.629618
 11
-30.755937
 21
-5.629618
  0
LINE
  8
型材断面
  6
CONTINUOUS
 10
-28.489703
 20
-8.249402
 11
-28.136153
 21
-7.895853
  0
LINE
  8
型材断面
  6
CONTINUOUS
 10
-31.886147
 20
-4.145845
 11
-32.239703
 21
-4.499405
  0
LINE
  8
型材断面
  6
CONTINUOUS
 10
-28.489703
 20
61.990167
 11
-28.136153
 21
61.636617
  0
LINE
  8
型材断面
  6
CONTINUOUS
 10
-98.022173
 20
61.990167
 11
-98.375723
 21
61.636617
  0
LINE
  8
型材断面
  6
CONTINUOUS
 10
-98.022173
 20
-8.249402
 11
-98.375723
 21
-7.895853
  0
LINE
  8
型材断面
  6
CONTINUOUS
 10
-28.136155
 20
26.245383
 11
-31.886155
 21
26.245383
  0
LINE
  8
型材断面
  6
CONTINUOUS
 10
-28.136155
 20
27.495383
 11
-31.886155
 21
27.495383
  0
LINE
  8
型材断面
  6
CONTINUOUS
 10
-63.881157
 20
61.990385
 11
-63.881157
 21
58.240385
  0
LINE
  8
型材断面
  6
CONTINUOUS
 10
-62.631157
 20
61.990385
 11
-62.631157
 21
58.240385
  0
LINE
  8
型材断面
  6
CONTINUOUS
 10
-98.37594
 20
27.495602
 11
-94.62594
 21
27.495602
  0
LINE
  8
型材断面
  6
CONTINUOUS
 10
-98.37594
 20
26.245602
 11
-94.62594
 21
26.245602
  0
LINE
  8
型材断面
  6
CONTINUOUS
 10
-62.630498
 20
-8.24984
 11
-62.630498
 21
-4.49984
  0
LINE
  8
型材断面
  6
CONTINUOUS
 10
-63.880498
 20
-8.24984
 11
-63.880498
 21
-4.49984
  0
LINE
  8
型材断面
  6
CONTINUOUS
 10
-31.886155
 20
26.245383
 11
-31.886155
 21
-4.145845
  0
LINE
  8
型材断面
  6
CONTINUOUS
 10
-62.630498
 20
-4.49962
 11
-32.23948
 21
-4.49962
  0
LINE
  8
型材断面
  6
CONTINUOUS
 10
-32.23948
 20
-4.49962
 11
-28.489483
 21
-8.24962
  0
LINE
  8
型材断面
  6
CONTINUOUS
 10
-31.886155
 20
-4.145845
 11
-28.136155
 21
-7.895848
  0
LINE
  8
型材断面
  6
CONTINUOUS
 10
-26.005935
 20
-10.37962
 11
-28.312928
 21
-8.072627
  0
LINE
  8
型材断面
  6
CONTINUOUS
 10
-31.886155
 20
27.495383
 11
-31.886155
 21
57.886617
  0
LINE
  8
型材断面
  6
CONTINUOUS
 10
-31.886155
 20
57.886617
 11
-32.239917
 21
58.240385
  0
LINE
  8
型材断面
  6
CONTINUOUS
 10
-62.630498
 20
58.240385
 11
-32.239917
 21
58.240385
  0
LINE
  8
型材断面
  6
CONTINUOUS
 10
-31.886153
 20
57.886613
 11
-28.136155
 21
61.636613
  0
LINE
  8
型材断面
  6
CONTINUOUS
 10
-28.136155
 20
-7.895848
 11
-28.136155
 21
61.636613
  0
LINE
  8
型材断面
  6
CONTINUOUS
 10
-32.239697
 20
58.240167
 11
-28.489483
 21
61.990385
  0
LINE
  8
型材断面
  6
CONTINUOUS
 10
-26.005935
 20
64.120385
 11
-28.312928
 21
61.813393
  0
LINE
  8
型材断面
  6
CONTINUOUS
 10
-63.880498
 20
58.240385
 11
-94.272395
 21
58.240385
  0
LINE
  8
型材断面
  6
CONTINUOUS
 10
-94.272173
 20
58.24017
 11
-94.62572
 21
57.886617
  0
LINE
  8
型材断面
  6
CONTINUOUS
 10
-94.62572
 20
27.495383
 11
-94.62572
 21
57.886617
  0
LINE
  8
型材断面
  6
CONTINUOUS
 10
-94.272395
 20
58.240385
 11
-98.022393
 21
61.990385
  0
LINE
  8
型材断面
  6
CONTINUOUS
 10
-28.489483
 20
61.990385
 11
-98.022393
 21
61.990385
  0
LINE
  8
型材断面
  6
CONTINUOUS
 10
-94.625723
 20
57.886613
 11
-98.37572
 21
61.636613
  0
LINE
  8
型材断面
  6
CONTINUOUS
 10
-100.50594
 20
64.120385
 11
-98.198948
 21
61.813393
  0
LINE
  8
型材断面
  6
CONTINUOUS
 10
-63.880498
 20
-4.49962
 11
-94.271958
 21
-4.49962
  0
LINE
  8
型材断面
  6
CONTINUOUS
 10
-94.271958
 20
-4.49962
 11
-94.62572
 21
-4.145853
  0
LINE
  8
型材断面
  6
CONTINUOUS
 10
-94.62572
 20
26.245383
 11
-94.62572
 21
-4.145853
  0
LINE
  8
型材断面
  6
CONTINUOUS
 10
-94.272177
 20
-4.499402
 11
-98.022393
 21
-8.24962
  0
LINE
  8
型材断面
  6
CONTINUOUS
 10
-28.489483
 20
-8.24962
 11
-98.022393
 21
-8.24962
  0
LINE
  8
型材断面
  6
CONTINUOUS
 10
-94.625723
 20
-4.145848
 11
-98.37572
 21
-7.895848
  0
LINE
  8
型材断面
  6
CONTINUOUS
 10
-98.37572
 20
61.636613
 11
-98.37572
 21
-7.895848
  0
LINE
  8
型材断面
  6
CONTINUOUS
 10
-100.50594
 20
-10.37962
 11
-98.198948
 21
-8.072627
  0
LINE
  8
ガラス
  6
CONTINUOUS
 10
102.554785
 20
74.307477
 11
102.554785
 21
9.807477
  0
LINE
  8
ガラス
  6
CONTINUOUS
 10
102.554785
 20
74.307477
 11
167.054785
 21
74.307477
  0
LINE
  8
ガラス
  6
CONTINUOUS
 10
102.554785
 20
9.807477
 11
167.054785
 21
9.807477
  0
LINE
  8
ガラス
  6
CONTINUOUS
 10
167.054785
 20
74.307477
 11
167.054785
 21
9.807477
  0
LINE
  8
ボルト／ビス
  6
CONTINUOUS
 62
    47
 10
-97.595938
 20
-74.195147
 11
-97.595938
 21
-74.495147
  0
LINE
  8
ボルト／ビス
  6
CONTINUOUS
 62
    47
 10
-97.595938
 20
-74.195147
 11
-97.620938
 21
-74.22015
  0
LINE
  8
ボルト／ビス
  6
CONTINUOUS
 62
    47
 10
-97.595938
 20
-74.495147
 11
-97.620938
 21
-74.47015
  0
LINE
  8
ボルト／ビス
  6
CONTINUOUS
 62
    47
 10
-97.620938
 20
-74.22015
 11
-97.620938
 21
-74.47015
  0
LINE
  8
ボルト／ビス
  6
CONTINUOUS
 62
    47
 10
-28.915938
 20
-74.195147
 11
-28.915938
 21
-74.495147
  0
LINE
  8
ボルト／ビス
  6
CONTINUOUS
 62
    47
 10
-28.915938
 20
-74.195147
 11
-28.890938
 21
-74.22015
  0
LINE
  8
ボルト／ビス
  6
CONTINUOUS
 62
    47
 10
-28.915938
 20
-74.495147
 11
-28.890938
 21
-74.47015
  0
LINE
  8
ボルト／ビス
  6
CONTINUOUS
 62
    47
 10
-28.890938
 20
-74.22015
 11
-28.890938
 21
-74.47015
  0
TEXT
  7
TextStyle03
  8
文字
  6
CONTINUOUS
 10
-6.35
 20
-14.95
  1
は排水穴位置を示す
 40
3.0
 72
     5
 11
23.65
 21
-14.95
  0
TEXT
  7
TextStyle03
  8
文字
  6
CONTINUOUS
 10
-110.25
 20
86.3
  1
アンカーピッチ
 40
3.0
 72
     5
 11
-87.0
 21
86.3
  0
TEXT
  7
TextStyle03
  8
文字
  6
CONTINUOUS
 10
-127.25
 20
-16.5
  1
アンカーピッチ
 40
3.0
 50
90.0
 72
     5
 11
-127.25
 21
6.75
  0
TEXT
  7
TextStyle03
  8
文字
  6
CONTINUOUS
 10
-11.95
 20
-21.975
  1
アンカー数量　８ヶ所
 40
3.0
 72
     5
 11
21.425
 21
-21.975
  0
TEXT
  7
TextStyle03
  8
文字
  6
CONTINUOUS
 10
146.1
 20
18.8
  1
網入り6.8t
 40
3.0
 72
     5
 11
162.7875
 21
18.8
  0
TEXT
  7
TextStyle03
  8
文字
  6
CONTINUOUS
 10
152.725
 20
13.55
  1
×１枚
 40
3.0
 72
     5
 11
162.475
 21
13.55
  0
TEXT
  7
TextStyle03
  8
文字
  6
CONTINUOUS
 10
63.175
 20
99.375
  1
ＮＳコード：ＮＳＦＫ
 40
5.0
 72
     5
 11
118.8
 21
99.375
  0
LINE
  8
文字
  6
CONTINUOUS
 10
-9.630663
 20
-69.59515
 11
-26.449472
 21
-69.59515
  0
LINE
  8
文字
  6
CONTINUOUS
 10
-9.630663
 20
-76.045153
 11
-24.50838
 21
-76.045153
  0
TEXT
  7
TextStyle03
  8
文字
  6
CONTINUOUS
 10
63.7
 20
120.7
  1
シリーズ：ＴＦＦＫ
 40
5.0
 72
     5
 11
113.7
 21
120.7
  0
TEXT
  7
TextStyle03
  8
文字
  6
CONTINUOUS
 10
63.7
 20
115.075
  1
　　　　　（固定）1300×1300タイプ
 40
5.0
 72
     5
 11
158.7
 21
115.075
  0
TEXT
  7
TextStyle03
  8
文字
  6
CONTINUOUS
 10
63.7
 20
109.45
  1
図面名　：外観姿図
 40
5.0
 72
     5
 11
113.7
 21
109.45
  0
TEXT
  7
TextStyle03
  8
文字
  6
CONTINUOUS
 10
63.7
 20
103.825
  1
　　　　　　
 40
5.0
 72
     5
 11
96.825
 21
103.825
  0
INSERT
  2
*DIM_0002
  8
寸法
  6
CONTINUOUS
 10
0.0
 20
0.0
  0
INSERT
  2
*DIM_0003
  8
寸法
  6
CONTINUOUS
 10
0.0
 20
0.0
  0
INSERT
  2
*DIM_0004
  8
寸法
  6
CONTINUOUS
 10
0.0
 20
0.0
  0
INSERT
  2
*DIM_0005
  8
寸法
  6
CONTINUOUS
 10
0.0
 20
0.0
  0
INSERT
  2
*DIM_0006
  8
寸法
  6
CONTINUOUS
 10
0.0
 20
0.0
  0
INSERT
  2
*DIM_0007
  8
寸法
  6
CONTINUOUS
 10
0.0
 20
0.0
  0
INSERT
  2
*DIM_0008
  8
寸法
  6
CONTINUOUS
 10
0.0
 20
0.0
  0
INSERT
  2
*DIM_0009
  8
寸法
  6
CONTINUOUS
 10
0.0
 20
0.0
  0
LINE
  8
別途部材
  6
CONTINUOUS
 62
    47
 10
-98.37572
 20
-69.845153
 11
-98.30072
 21
-69.845153
  0
LINE
  8
別途部材
  6
CONTINUOUS
 62
    47
 10
-98.37572
 20
-69.74515
 11
-98.37572
 21
-69.845153
  0
ARC
  8
別途部材
  6
CONTINUOUS
 62
    47
 10
-98.22572
 20
-69.745153
 40
0.15
 50
90.0
 51
180.0
  0
LINE
  8
別途部材
  6
CONTINUOUS
 62
    47
 10
-98.22572
 20
-69.59515
 11
-94.67572
 21
-69.59515
  0
LINE
  8
別途部材
  6
CONTINUOUS
 62
    47
 10
-98.140938
 20
-69.845153
 11
-98.140938
 21
-72.095153
  0
LINE
  8
別途部材
  6
CONTINUOUS
 62
    47
 10
-28.136155
 20
-69.845153
 11
-28.211155
 21
-69.845153
  0
LINE
  8
別途部材
  6
CONTINUOUS
 62
    47
 10
-28.136155
 20
-69.74515
 11
-28.136155
 21
-69.845153
  0
ARC
  8
別途部材
  6
CONTINUOUS
 62
    47
 10
-28.286155
 20
-69.745153
 40
0.15
 50
0.0
 51
90.0
  0
LINE
  8
別途部材
  6
CONTINUOUS
 62
    47
 10
-28.286155
 20
-69.59515
 11
-31.836155
 21
-69.59515
  0
LINE
  8
別途部材
  6
CONTINUOUS
 62
    47
 10
-28.370938
 20
-69.845153
 11
-28.370938
 21
-72.095153
  0
LINE
  8
曲げ物
  6
CONTINUOUS
 10
-60.35615
 20
29.617785
 11
-65.899118
 21
24.074818
  0
LINE
  8
曲げ物
  6
CONTINUOUS
 10
-61.411355
 20
27.31362
 11
-63.59495
 21
25.130025
  0
LINE
  8
曲げ物
  6
CONTINUOUS
 10
-62.660315
 20
28.56258
 11
-64.84391
 21
26.378985
  0
ENDSEC
  0
EOF
