  0
SECTION
  2
HEADER
  9
$EXTMIN
 10
-210.0
 20
-148.5
  9
$EXTMAX
 10
210.0
 20
148.5
  9
$PDMODE
 70
    32
  9
$PDSIZE
 40
1.5
  9
$LTSCALE
 40
10.0
  0
ENDSEC
  0
SECTION
  2
TABLES
  0
TABLE
  2
LTYPE
 70
    15
  0
LTYPE
  2
CONTINUOUS
 70
    64
  3
実線
 72
    65
 73
     0
 40
0.0
  0
LTYPE
  2
DASHED
 70
    64
  3
破線A
 72
    65
 73
     2
 40
0.6
 49
0.4
 49
-0.2
  0
LTYPE
  2
DASHEDX2
 70
    64
  3
破線B
 72
    65
 73
     2
 40
1.3
 49
0.9
 49
-0.4
  0
LTYPE
  2
DASHDOT
 70
    64
  3
１点鎖線A
 72
    65
 73
     4
 40
0.5375
 49
0.375
 49
-0.05
 49
0.0625
 49
-0.05
  0
LTYPE
  2
DASHDOTX2
 70
    64
  3
１点鎖線B
 72
    65
 73
     4
 40
1.075
 49
0.75
 49
-0.1
 49
0.125
 49
-0.1
  0
LTYPE
  2
DIVIDE2
 70
    64
  3
２点鎖線A
 72
    65
 73
     6
 40
0.5125
 49
0.3
 49
-0.0375
 49
0.05
 49
-0.0375
 49
0.05
 49
-0.0375
  0
LTYPE
  2
DIVIDE
 70
    64
  3
２点鎖線B
 72
    65
 73
     6
 40
1.05
 49
0.55
 49
-0.1
 49
0.1
 49
-0.1
 49
0.1
 49
-0.1
  0
LTYPE
  2
DOT
 70
    64
  3
点線A
 72
    65
 73
     2
 40
0.1125
 49
0.0625
 49
-0.05
  0
LTYPE
  2
DOTX2
 70
    64
  3
点線B
 72
    65
 73
     2
 40
0.275
 49
0.15
 49
-0.125
  0
LTYPE
  2
CONTINUOUS
 70
    64
  3
実線
 72
    65
 73
     0
 40
0.0
  0
LTYPE
  2
CONTINUOUS
 70
    64
  3
実線
 72
    65
 73
     0
 40
0.0
  0
LTYPE
  2
CONTINUOUS
 70
    64
  3
実線
 72
    65
 73
     0
 40
0.0
  0
LTYPE
  2
CONTINUOUS
 70
    64
  3
実線
 72
    65
 73
     0
 40
0.0
  0
LTYPE
  2
CONTINUOUS
 70
    64
  3
実線
 72
    65
 73
     0
 40
0.0
  0
LTYPE
  2
CONTINUOUS
 70
    64
  3
実線
 72
    65
 73
     0
 40
0.0
  0
ENDTAB
  0
TABLE
  2
LAYER
 70
    34
  0
LAYER
  2
通り芯
 70
     0
 62
    15
  6
CONTINUOUS
  0
LAYER
  2
補助線
 70
     0
 62
    16
  6
DOT
  0
LAYER
  2
躯体
 70
     0
 62
    31
  6
CONTINUOUS
  0
LAYER
  2
型材
 70
     0
 62
    32
  6
CONTINUOUS
  0
LAYER
  2
型材断面
 70
     0
 62
    47
  6
CONTINUOUS
  0
LAYER
  2
ガラス
 70
     0
 62
    48
  6
CONTINUOUS
  0
LAYER
  2
ゴム等
 70
     0
 62
    63
  6
CONTINUOUS
  0
LAYER
  2
ボルト／ビス
 70
     0
 62
    64
  6
CONTINUOUS
  0
LAYER
  2
文字
 70
     0
 62
    79
  6
CONTINUOUS
  0
LAYER
  2
寸法
 70
     0
 62
    80
  6
CONTINUOUS
  0
LAYER
  2
ﾊｯﾁﾝｸﾞ
 70
     0
 62
    95
  6
CONTINUOUS
  0
LAYER
  2
別途部材
 70
     0
 62
    96
  6
CONTINUOUS
  0
LAYER
  2
曲げ物
 70
     0
 62
   111
  6
CONTINUOUS
  0
LAYER
  2
鉄骨等
 70
     0
 62
   112
  6
CONTINUOUS
  0
LAYER
  2
St
 70
     0
 62
   127
  6
CONTINUOUS
  0
LAYER
  2
その他部品等
 70
     0
 62
   128
  6
CONTINUOUS
  0
LAYER
  2
ｶﾞｽｹｯﾄ
 70
     0
 62
   143
  6
CONTINUOUS
  0
LAYER
  2
ｽｹｯﾁ
 70
     0
 62
    14
  6
CONTINUOUS
  0
LAYER
  2
0
 70
     0
 62
    17
  6
CONTINUOUS
  0
LAYER
  2
1
 70
     0
 62
    30
  6
CONTINUOUS
  0
LAYER
  2
4
 70
     0
 62
    33
  6
CONTINUOUS
  0
LAYER
  2
ﾚｲﾔ3
 70
     0
 62
    46
  6
CONTINUOUS
  0
LAYER
  2
外形線
 70
     0
 62
    49
  6
CONTINUOUS
  0
LAYER
  2
部品
 70
     0
 62
    14
  6
CONTINUOUS
  0
LAYER
  2
サッシ芯
 70
     0
 62
    17
  6
DASHDOTX2
  0
LAYER
  2
寸法線
 70
     0
 62
    62
  6
CONTINUOUS
  0
LAYER
  2
姿図外形線
 70
     0
 62
    65
  6
CONTINUOUS
  0
LAYER
  2
姿補助線
 70
     0
 62
    30
  6
CONTINUOUS
  0
LAYER
  2
透視線
 70
     0
 62
    78
  6
DOT
  0
LAYER
  2
用紙
 70
     0
 62
    81
  6
CONTINUOUS
  0
LAYER
  2
実線図枠
 70
     0
 62
    94
  6
CONTINUOUS
  0
LAYER
  2
補助図枠
 70
     0
 62
    97
  6
CONTINUOUS
  0
LAYER
  2
建具記号
 70
     0
 62
   110
  6
CONTINUOUS
  0
LAYER
  2
補助文字
 70
     0
 62
   113
  6
CONTINUOUS
  0
ENDTAB
  0
TABLE
  2
STYLE
 70
    10
  0
STYLE
  2
STANDARD
 70
     0
 40
1.0
 41
1.0
 42
1.0
 50
0.0
 71
     0
  3
TXT
  4
BIGFONT
  0
STYLE
  2
TATE
 70
     4
 40
1.0
 41
1.0
 42
1.0
 50
0.0
 71
     0
  3
TXT
  4
BIGFONT
  0
STYLE
  2
TextStyle03
 70
     0
 40
1.0
 41
1.0
 42
1.0
 50
0.0
 71
     0
  3
MONOTXT
  4
BIGFONT
  0
STYLE
  2
TextStyle04
 70
     0
 40
1.0
 41
1.0
 42
1.0
 50
0.0
 71
     0
  3
MONOTXT
  4
BIGFONT
  0
STYLE
  2
TextStyle05
 70
     0
 40
1.0
 41
1.0
 42
1.0
 50
0.0
 71
     0
  3
MONOTXT
  4
BIGFONT
  0
STYLE
  2
TextStyle06
 70
     0
 40
1.0
 41
1.0
 42
1.0
 50
0.0
 71
     0
  3
MONOTXT
  4
BIGFONT
  0
STYLE
  2
TextStyle07
 70
     0
 40
1.0
 41
1.0
 42
1.0
 50
0.0
 71
     0
  3
MONOTXT
  4
BIGFONT
  0
STYLE
  2
TextStyle08
 70
     0
 40
1.0
 41
1.0
 42
1.0
 50
0.0
 71
     0
  3
MONOTXT
  4
BIGFONT
  0
STYLE
  2
TextStyle09
 70
     0
 40
1.0
 41
1.0
 42
1.0
 50
0.0
 71
     0
  3
MONOTXT
  4
BIGFONT
  0
STYLE
  2
TextStyle10
 70
     0
 40
1.0
 41
1.0
 42
1.0
 50
0.0
 71
     0
  3
MONOTXT
  4
BIGFONT
  0
ENDTAB
  0
ENDSEC
  0
SECTION
  2
BLOCKS
  0
BLOCK
  2
*GRP_0001
 70
    65
 10
0.0
 20
0.0
  0
LINE
  8
型材断面
  6
CONTINUOUS
 10
195.0
 20
133.5
 11
195.0
 21
-133.5
  0
LINE
  8
型材断面
  6
CONTINUOUS
 10
195.0
 20
-133.5
 11
-185.0
 21
-133.5
  0
LINE
  8
型材断面
  6
CONTINUOUS
 10
-185.0
 20
-133.5
 11
-185.0
 21
133.5
  0
LINE
  8
型材断面
  6
CONTINUOUS
 10
195.0
 20
133.5
 11
-185.0
 21
133.5
  0
LINE
  8
型材断面
  6
CONTINUOUS
 10
145.0
 20
-133.5
 11
145.0
 21
-118.5
  0
LINE
  8
型材断面
  6
CONTINUOUS
 10
195.0
 20
-118.5
 11
145.0
 21
-118.5
  0
ENDBLK
  0
BLOCK
  2
*DIM_0002
 70
    65
 10
0.0
 20
0.0
  0
LINE
  8
寸法
  6
BYBLOCK
 62
     0
 10
170.054785
 20
74.307477
 11
177.972725
 21
74.307477
  0
LINE
  8
寸法
  6
BYBLOCK
 62
     0
 10
170.054785
 20
44.807477
 11
177.972725
 21
44.807477
  0
LINE
  8
寸法
  6
BYBLOCK
 62
     0
 10
177.972725
 20
74.307477
 11
177.972725
 21
44.807477
  0
POINT
  8
寸法
 62
     0
 10
177.972725
 20
74.307477
  0
POINT
  8
寸法
 62
     0
 10
177.972725
 20
44.807477
  0
TEXT
  7
TextStyle03
  8
寸法
  6
CONTINUOUS
 62
     0
 10
177.575
 20
57.1125
  1
590
 40
3.0
 50
90.0
 72
     5
 11
177.575
 21
61.9875
  0
ENDBLK
  0
BLOCK
  2
*DIM_0003
 70
    65
 10
0.0
 20
0.0
  0
LINE
  8
寸法
  6
BYBLOCK
 62
     0
 10
137.554785
 20
77.307477
 11
137.554785
 21
85.225418
  0
LINE
  8
寸法
  6
BYBLOCK
 62
     0
 10
167.054785
 20
77.307477
 11
167.054785
 21
85.225418
  0
LINE
  8
寸法
  6
BYBLOCK
 62
     0
 10
137.554785
 20
85.225418
 11
167.054785
 21
85.225418
  0
POINT
  8
寸法
 62
     0
 10
137.554785
 20
85.225418
  0
POINT
  8
寸法
 62
     0
 10
167.054785
 20
85.225418
  0
TEXT
  7
TextStyle03
  8
寸法
  6
CONTINUOUS
 62
     0
 10
149.8625
 20
85.6
  1
590
 40
3.0
 72
     5
 11
154.7375
 21
85.6
  0
ENDBLK
  0
BLOCK
  2
*DIM_0004
 70
    65
 10
0.0
 20
0.0
  0
LINE
  8
寸法
  6
BYBLOCK
 62
     0
 10
-92.435405
 20
-26.094458
 11
-62.435405
 21
-26.094458
  0
POINT
  8
寸法
 62
     0
 10
-92.435405
 20
-26.094458
  0
POINT
  8
寸法
 62
     0
 10
-62.435405
 20
-26.094458
  0
TEXT
  7
TextStyle03
  8
寸法
  6
CONTINUOUS
 62
     0
 10
-88.325
 20
-25.725
  1
呼称寸法　600
 40
3.0
 72
     5
 11
-66.575
 21
-25.725
  0
ENDBLK
  0
BLOCK
  2
*DIM_0005
 70
    65
 10
0.0
 20
0.0
  0
LINE
  8
寸法
  6
BYBLOCK
 62
     0
 10
-87.435402
 20
32.691993
 11
-87.435402
 21
52.281172
  0
LINE
  8
寸法
  6
BYBLOCK
 62
     0
 10
-67.435402
 20
32.691993
 11
-67.435402
 21
52.281172
  0
LINE
  8
寸法
  6
BYBLOCK
 62
     0
 10
-87.435402
 20
52.281172
 11
-67.435402
 21
52.281172
  0
POINT
  8
寸法
 62
     0
 10
-87.435402
 20
52.281172
  0
POINT
  8
寸法
 62
     0
 10
-67.435402
 20
52.281172
  0
TEXT
  7
TextStyle03
  8
寸法
  6
CONTINUOUS
 62
     0
 10
-79.8875
 20
52.675
  1
400
 40
3.0
 72
     5
 11
-75.0125
 21
52.675
  0
ENDBLK
  0
BLOCK
  2
*DIM_0006
 70
    65
 10
0.0
 20
0.0
  0
LINE
  8
寸法
  6
BYBLOCK
 62
     0
 10
-57.685402
 20
-64.998622
 11
-57.685402
 21
-26.094458
  0
LINE
  8
寸法
  6
BYBLOCK
 62
     0
 10
-62.435405
 20
-26.094458
 11
-57.685402
 21
-26.094458
  0
POINT
  8
寸法
 62
     0
 10
-62.435405
 20
-26.094458
  0
POINT
  8
寸法
 62
     0
 10
-57.685402
 20
-26.094458
  0
TEXT
  7
TextStyle03
  8
寸法
  6
CONTINUOUS
 62
     0
 10
-61.66875
 20
-25.725
  1
95
 40
3.0
 72
     5
 11
-58.48125
 21
-25.725
  0
ENDBLK
  0
BLOCK
  2
*DIM_0007
 70
    65
 10
0.0
 20
0.0
  0
LINE
  8
寸法
  6
BYBLOCK
 62
     0
 10
-97.185408
 20
-64.248622
 11
-97.185408
 21
-26.094458
  0
LINE
  8
寸法
  6
BYBLOCK
 62
     0
 10
-92.435405
 20
-26.094458
 11
-97.185408
 21
-26.094458
  0
POINT
  8
寸法
 62
     0
 10
-92.435405
 20
-26.094458
  0
POINT
  8
寸法
 62
     0
 10
-97.185408
 20
-26.094458
  0
TEXT
  7
TextStyle03
  8
寸法
  6
CONTINUOUS
 62
     0
 10
-96.41875
 20
-25.725
  1
95
 40
3.0
 72
     5
 11
-93.23125
 21
-25.725
  0
ENDBLK
  0
BLOCK
  2
*DIM_0008
 70
    65
 10
0.0
 20
0.0
  0
LINE
  8
寸法
  6
CONTINUOUS
 10
-41.31013
 20
-66.647117
 11
-41.31013
 21
-60.197115
  0
POINT
  8
寸法
 10
-41.31013
 20
-66.647117
  0
POINT
  8
寸法
 10
-41.31013
 20
-60.197115
  0
TEXT
  7
TextStyle03
  8
寸法
  6
CONTINUOUS
 10
-41.7
 20
-65.8875
  1
129
 40
3.0
 50
90.0
 72
     5
 11
-41.7
 21
-61.0125
  0
ENDBLK
  0
ENDSEC
  0
SECTION
  2
ENTITIES
  0
POLYLINE
  8
通り芯
  6
CONTINUOUS
 66
     1
 70
     1
  0
VERTEX
  8
通り芯
 10
-210.0
 20
-148.5
  0
VERTEX
  8
通り芯
 10
210.0
 20
-148.5
  0
VERTEX
  8
通り芯
 10
210.0
 20
148.5
  0
VERTEX
  8
通り芯
 10
-210.0
 20
148.5
  0
SEQEND
  0
INSERT
  2
*GRP_0001
  8
型材断面
  6
CONTINUOUS
 10
0.0
 20
0.0
  0
LINE
  8
型材断面
  6
CONTINUOUS
 10
-35.48472
 20
-6.182028
 11
-37.728165
 21
-10.067788
  0
LINE
  8
型材断面
  6
CONTINUOUS
 10
-35.48472
 20
-6.182028
 11
-33.241275
 21
-10.067788
  0
LINE
  8
型材断面
  6
CONTINUOUS
 10
-33.241275
 20
-10.067788
 11
-37.728165
 21
-10.067788
  0
LINE
  8
型材断面
  6
CONTINUOUS
 10
-44.5186
 20
-11.47568
 11
8.13808
 21
-11.47568
  0
LINE
  8
型材断面
  6
CONTINUOUS
 10
-44.5186
 20
-18.48279
 11
8.13808
 21
-18.48279
  0
LINE
  8
型材断面
  6
DASHDOT
 10
-92.435405
 20
-77.76228
 11
-92.435405
 21
31.69199
  0
LINE
  8
型材断面
  6
DASHDOT
 10
-77.435405
 20
-77.76228
 11
-77.435405
 21
31.69199
  0
LINE
  8
型材断面
  6
DASHDOT
 10
-62.435405
 20
-77.76228
 11
-62.435405
 21
31.69199
  0
LINE
  8
型材断面
  6
DASHDOT
 10
-92.435405
 20
16.69199
 11
-62.435405
 21
16.69199
  0
LINE
  8
型材断面
  6
CONTINUOUS
 10
-100.459278
 20
16.69199
 11
-104.345038
 21
14.448545
  0
LINE
  8
型材断面
  6
CONTINUOUS
 10
-100.459278
 20
16.69199
 11
-104.345038
 21
18.935435
  0
LINE
  8
型材断面
  6
CONTINUOUS
 10
-104.345038
 20
18.935435
 11
-104.345038
 21
14.448545
  0
LINE
  8
型材断面
  6
CONTINUOUS
 10
-54.411528
 20
16.69199
 11
-50.525767
 21
14.448545
  0
LINE
  8
型材断面
  6
CONTINUOUS
 10
-54.411528
 20
16.69199
 11
-50.525767
 21
18.935435
  0
LINE
  8
型材断面
  6
CONTINUOUS
 10
-50.525767
 20
18.935435
 11
-50.525767
 21
14.448545
  0
LINE
  8
型材断面
  6
CONTINUOUS
 10
-77.435405
 20
39.715863
 11
-79.67885
 21
43.601622
  0
LINE
  8
型材断面
  6
CONTINUOUS
 10
-77.435405
 20
39.715863
 11
-75.19196
 21
43.601622
  0
LINE
  8
型材断面
  6
CONTINUOUS
 10
-75.19196
 20
43.601622
 11
-79.67885
 21
43.601622
  0
LINE
  8
型材断面
  6
CONTINUOUS
 10
-77.435405
 20
-6.331887
 11
-79.67885
 21
-10.217648
  0
LINE
  8
型材断面
  6
CONTINUOUS
 10
-77.435405
 20
-6.331887
 11
-75.19196
 21
-10.217648
  0
LINE
  8
型材断面
  6
CONTINUOUS
 10
-75.19196
 20
-10.217648
 11
-79.67885
 21
-10.217648
  0
LINE
  8
型材断面
  6
CONTINUOUS
 10
-97.185405
 20
-3.05801
 11
-77.435405
 21
-3.05801
  0
LINE
  8
型材断面
  6
CONTINUOUS
 10
-97.185405
 20
-3.05801
 11
-97.185405
 21
16.69199
  0
LINE
  8
型材断面
  6
CONTINUOUS
 10
-97.185405
 20
36.44199
 11
-77.435405
 21
36.44199
  0
LINE
  8
型材断面
  6
CONTINUOUS
 10
-97.185405
 20
36.44199
 11
-97.185405
 21
16.69199
  0
LINE
  8
型材断面
  6
CONTINUOUS
 10
-57.685405
 20
-3.05801
 11
-77.435405
 21
-3.05801
  0
LINE
  8
型材断面
  6
CONTINUOUS
 10
-57.685405
 20
-3.05801
 11
-57.685405
 21
16.69199
  0
LINE
  8
型材断面
  6
CONTINUOUS
 10
-57.685405
 20
36.44199
 11
-77.435405
 21
36.44199
  0
LINE
  8
型材断面
  6
CONTINUOUS
 10
-57.685405
 20
36.44199
 11
-57.685405
 21
16.69199
  0
LINE
  8
型材断面
  6
CONTINUOUS
 62
    47
 10
-96.435418
 20
-67.147115
 11
-96.435418
 21
-66.647117
  0
LINE
  8
型材断面
  6
CONTINUOUS
 62
    47
 10
-96.750405
 20
-66.647117
 11
-97.185405
 21
-66.647117
  0
LINE
  8
型材断面
  6
CONTINUOUS
 62
    47
 10
-97.185405
 20
-66.647117
 11
-97.185405
 21
-65.897117
  0
LINE
  8
型材断面
  6
CONTINUOUS
 62
    47
 10
-97.185405
 20
-65.897117
 11
-94.275405
 21
-65.67664
  0
LINE
  8
型材断面
  6
CONTINUOUS
 62
    47
 10
-94.275405
 20
-64.932113
 11
-94.275405
 21
-62.697117
  0
LINE
  8
型材断面
  6
CONTINUOUS
 62
    47
 10
-94.275405
 20
-64.962112
 11
-94.275405
 21
-65.67664
  0
LINE
  8
型材断面
  6
CONTINUOUS
 10
-94.275405
 20
-65.67664
 11
-77.435405
 21
-65.67664
  0
LINE
  8
型材断面
  6
CONTINUOUS
 10
-97.185405
 20
-65.897117
 11
-77.435405
 21
-65.897117
  0
LINE
  8
型材断面
  6
CONTINUOUS
 10
-97.185405
 20
-66.647117
 11
-77.435405
 21
-66.647117
  0
LINE
  8
型材断面
  6
CONTINUOUS
 10
-96.435418
 20
-67.147115
 11
-77.435405
 21
-67.147115
  0
LINE
  8
型材断面
  6
CONTINUOUS
 10
-94.820405
 20
-62.697117
 11
-77.435405
 21
-62.697117
  0
LINE
  8
型材断面
  6
CONTINUOUS
 10
-95.055188
 20
-60.447117
 11
-77.435405
 21
-60.447117
  0
LINE
  8
型材断面
  6
CONTINUOUS
 10
-94.820405
 20
-60.197115
 11
-77.435405
 21
-60.197115
  0
LINE
  8
型材断面
  6
CONTINUOUS
 62
    47
 10
-58.435393
 20
-67.147115
 11
-58.435393
 21
-66.647117
  0
LINE
  8
型材断面
  6
CONTINUOUS
 62
    47
 10
-58.120405
 20
-66.647117
 11
-57.685405
 21
-66.647117
  0
LINE
  8
型材断面
  6
CONTINUOUS
 62
    47
 10
-57.685405
 20
-66.647117
 11
-57.685405
 21
-65.897117
  0
LINE
  8
型材断面
  6
CONTINUOUS
 62
    47
 10
-57.685405
 20
-65.897117
 11
-60.595405
 21
-65.67664
  0
LINE
  8
型材断面
  6
CONTINUOUS
 62
    47
 10
-60.595405
 20
-64.932113
 11
-60.595405
 21
-62.697117
  0
LINE
  8
型材断面
  6
CONTINUOUS
 62
    47
 10
-60.595405
 20
-64.962112
 11
-60.595405
 21
-65.67664
  0
LINE
  8
型材断面
  6
CONTINUOUS
 10
-60.595405
 20
-65.67664
 11
-77.435405
 21
-65.67664
  0
LINE
  8
型材断面
  6
CONTINUOUS
 10
-57.685405
 20
-65.897117
 11
-77.435405
 21
-65.897117
  0
LINE
  8
型材断面
  6
CONTINUOUS
 10
-57.685405
 20
-66.647117
 11
-77.435405
 21
-66.647117
  0
LINE
  8
型材断面
  6
CONTINUOUS
 10
-58.435393
 20
-67.147115
 11
-77.435405
 21
-67.147115
  0
LINE
  8
型材断面
  6
CONTINUOUS
 10
-60.050405
 20
-62.697117
 11
-77.435405
 21
-62.697117
  0
LINE
  8
型材断面
  6
CONTINUOUS
 10
-59.815622
 20
-60.447117
 11
-77.435405
 21
-60.447117
  0
LINE
  8
型材断面
  6
CONTINUOUS
 10
-60.050405
 20
-60.197115
 11
-77.435405
 21
-60.197115
  0
LINE
  8
型材断面
  6
DASHDOT
 10
-92.435405
 20
1.69199
 11
-62.435405
 21
1.69199
  0
LINE
  8
型材断面
  6
DASHDOT
 10
-92.435405
 20
31.69199
 11
-62.435405
 21
31.69199
  0
LINE
  8
型材断面
  6
CONTINUOUS
 10
-60.169175
 20
-0.927787
 11
-59.815625
 21
-0.574237
  0
LINE
  8
型材断面
  6
CONTINUOUS
 10
-60.169175
 20
34.311773
 11
-59.815625
 21
33.958223
  0
LINE
  8
型材断面
  6
CONTINUOUS
 10
-63.565622
 20
16.06699
 11
-59.815622
 21
16.06699
  0
LINE
  8
型材断面
  6
CONTINUOUS
 10
-63.565622
 20
17.316993
 11
-59.815622
 21
17.316993
  0
LINE
  8
型材断面
  6
CONTINUOUS
 10
-63.565622
 20
17.316993
 11
-63.565622
 21
30.208215
  0
LINE
  8
型材断面
  6
CONTINUOUS
 10
-63.565622
 20
30.208215
 11
-63.919172
 21
30.561773
  0
LINE
  8
型材断面
  6
CONTINUOUS
 10
-63.565622
 20
30.208223
 11
-59.815622
 21
33.958225
  0
LINE
  8
型材断面
  6
CONTINUOUS
 10
-63.919172
 20
30.561773
 11
-60.169175
 21
34.311773
  0
LINE
  8
型材断面
  6
CONTINUOUS
 10
-57.685405
 20
36.44199
 11
-59.992397
 21
34.134997
  0
LINE
  8
型材断面
  6
CONTINUOUS
 10
-63.919172
 20
2.822213
 11
-60.169172
 21
-0.927793
  0
LINE
  8
型材断面
  6
CONTINUOUS
 10
-63.565622
 20
3.175763
 11
-59.815622
 21
-0.574243
  0
LINE
  8
型材断面
  6
CONTINUOUS
 10
-59.815622
 20
33.958225
 11
-59.815622
 21
-0.574243
  0
LINE
  8
型材断面
  6
CONTINUOUS
 10
-57.685405
 20
-3.05801
 11
-59.9924
 21
-0.751012
  0
LINE
  8
型材断面
  6
CONTINUOUS
 10
-63.919175
 20
2.822207
 11
-63.565622
 21
3.17577
  0
LINE
  8
型材断面
  6
CONTINUOUS
 10
-63.565622
 20
16.06699
 11
-63.565622
 21
3.17577
  0
LINE
  8
型材断面
  6
CONTINUOUS
 10
-94.701635
 20
-0.927787
 11
-95.055185
 21
-0.574237
  0
LINE
  8
型材断面
  6
CONTINUOUS
 10
-94.701635
 20
34.311773
 11
-95.055185
 21
33.958223
  0
LINE
  8
型材断面
  6
CONTINUOUS
 10
-91.305188
 20
30.208215
 11
-90.951638
 21
30.561773
  0
LINE
  8
型材断面
  6
CONTINUOUS
 10
-76.810397
 20
2.822228
 11
-76.810402
 21
-0.927772
  0
LINE
  8
型材断面
  6
CONTINUOUS
 10
-78.0604
 20
2.82223
 11
-78.060405
 21
-0.92777
  0
LINE
  8
型材断面
  6
CONTINUOUS
 10
-91.305167
 20
17.316998
 11
-95.055167
 21
17.316993
  0
LINE
  8
型材断面
  6
CONTINUOUS
 10
-91.305165
 20
16.066995
 11
-95.055165
 21
16.06699
  0
LINE
  8
型材断面
  6
CONTINUOUS
 10
-78.060412
 20
30.561752
 11
-78.060408
 21
34.311752
  0
LINE
  8
型材断面
  6
CONTINUOUS
 10
-76.81041
 20
30.56175
 11
-76.810405
 21
34.31175
  0
LINE
  8
型材断面
  6
CONTINUOUS
 10
-76.810397
 20
2.822207
 11
-63.919175
 21
2.822207
  0
LINE
  8
型材断面
  6
CONTINUOUS
 10
-76.81036
 20
30.561773
 11
-63.919172
 21
30.561773
  0
LINE
  8
型材断面
  6
CONTINUOUS
 10
-78.060362
 20
30.561773
 11
-90.951638
 21
30.561773
  0
LINE
  8
型材断面
  6
CONTINUOUS
 10
-90.951638
 20
30.561773
 11
-94.701635
 21
34.311773
  0
LINE
  8
型材断面
  6
CONTINUOUS
 10
-60.169175
 20
34.311773
 11
-94.701635
 21
34.311773
  0
LINE
  8
型材断面
  6
CONTINUOUS
 10
-91.305188
 20
30.208223
 11
-95.055188
 21
33.958225
  0
LINE
  8
型材断面
  6
CONTINUOUS
 10
-97.185405
 20
36.44199
 11
-94.878413
 21
34.134995
  0
LINE
  8
型材断面
  6
CONTINUOUS
 10
-91.305188
 20
17.316998
 11
-91.305188
 21
30.208223
  0
LINE
  8
型材断面
  6
CONTINUOUS
 10
-78.0604
 20
2.822207
 11
-90.951635
 21
2.822207
  0
LINE
  8
型材断面
  6
CONTINUOUS
 10
-90.951635
 20
2.822207
 11
-91.305188
 21
3.17577
  0
LINE
  8
型材断面
  6
CONTINUOUS
 10
-91.305188
 20
16.066995
 11
-91.305188
 21
3.17577
  0
LINE
  8
型材断面
  6
CONTINUOUS
 10
-90.951638
 20
2.822213
 11
-94.701638
 21
-0.927793
  0
LINE
  8
型材断面
  6
CONTINUOUS
 10
-60.169172
 20
-0.927793
 11
-94.701638
 21
-0.927793
  0
LINE
  8
型材断面
  6
CONTINUOUS
 10
-91.305188
 20
3.175763
 11
-95.055188
 21
-0.574243
  0
LINE
  8
型材断面
  6
CONTINUOUS
 10
-95.055188
 20
33.958225
 11
-95.055188
 21
-0.574243
  0
LINE
  8
型材断面
  6
CONTINUOUS
 10
-97.185405
 20
-3.05801
 11
-94.878407
 21
-0.751012
  0
LINE
  8
ガラス
  6
CONTINUOUS
 10
167.054785
 20
74.307477
 11
137.554785
 21
74.307477
  0
LINE
  8
ガラス
  6
CONTINUOUS
 10
137.554785
 20
74.307477
 11
137.554785
 21
44.807477
  0
LINE
  8
ガラス
  6
CONTINUOUS
 10
137.554785
 20
44.807477
 11
167.054785
 21
44.807477
  0
LINE
  8
ガラス
  6
CONTINUOUS
 10
167.054785
 20
74.307477
 11
167.054785
 21
44.807477
  0
LINE
  8
ボルト／ビス
  6
CONTINUOUS
 62
    47
 10
-94.275405
 20
-64.797112
 11
-94.275405
 21
-65.097113
  0
LINE
  8
ボルト／ビス
  6
CONTINUOUS
 62
    47
 10
-94.275405
 20
-64.797112
 11
-94.300405
 21
-64.822115
  0
LINE
  8
ボルト／ビス
  6
CONTINUOUS
 62
    47
 10
-94.275405
 20
-65.097113
 11
-94.300405
 21
-65.072115
  0
LINE
  8
ボルト／ビス
  6
CONTINUOUS
 62
    47
 10
-94.300405
 20
-64.822115
 11
-94.300405
 21
-65.072115
  0
LINE
  8
ボルト／ビス
  6
CONTINUOUS
 62
    47
 10
-60.595405
 20
-64.797112
 11
-60.595405
 21
-65.097113
  0
LINE
  8
ボルト／ビス
  6
CONTINUOUS
 62
    47
 10
-60.595405
 20
-64.797112
 11
-60.570405
 21
-64.822115
  0
LINE
  8
ボルト／ビス
  6
CONTINUOUS
 62
    47
 10
-60.595405
 20
-65.097113
 11
-60.570405
 21
-65.072115
  0
LINE
  8
ボルト／ビス
  6
CONTINUOUS
 62
    47
 10
-60.570405
 20
-64.822115
 11
-60.570405
 21
-65.072115
  0
TEXT
  7
TextStyle03
  8
文字
  6
CONTINUOUS
 10
-31.2
 20
-9.7
  1
は排水穴位置を示す
 40
3.0
 72
     5
 11
-1.2
 21
-9.7
  0
TEXT
  7
TextStyle03
  8
文字
  6
CONTINUOUS
 10
-36.8
 20
-17.05
  1
アンカー数量　４ヶ所
 40
3.0
 72
     5
 11
-3.425
 21
-17.05
  0
TEXT
  7
TextStyle03
  8
文字
  6
CONTINUOUS
 10
146.1
 20
53.8
  1
網入り6.8t
 40
3.0
 72
     5
 11
162.7875
 21
53.8
  0
TEXT
  7
TextStyle03
  8
文字
  6
CONTINUOUS
 10
152.725
 20
48.55
  1
×１枚
 40
3.0
 72
     5
 11
162.475
 21
48.55
  0
TEXT
  7
TextStyle03
  8
文字
  6
CONTINUOUS
 10
-98.825
 20
58.1
  1
アンカーピッチ
 40
3.0
 72
     5
 11
-75.575
 21
58.1
  0
LINE
  8
文字
  6
CONTINUOUS
 10
-41.31013
 20
-60.197115
 11
-58.12894
 21
-60.197115
  0
LINE
  8
文字
  6
CONTINUOUS
 10
-41.31013
 20
-66.647117
 11
-56.187848
 21
-66.647117
  0
TEXT
  7
TextStyle03
  8
文字
  6
CONTINUOUS
 10
59.375
 20
120.7
  1
シリーズ：ＴＦＦＫ
 40
5.0
 72
     5
 11
109.375
 21
120.7
  0
TEXT
  7
TextStyle03
  8
文字
  6
CONTINUOUS
 10
59.375
 20
115.075
  1
　　　　　（固定）600×600タイプ
 40
5.0
 72
     5
 11
148.75
 21
115.075
  0
TEXT
  7
TextStyle03
  8
文字
  6
CONTINUOUS
 10
59.375
 20
109.45
  1
図面名　：外観姿図
 40
5.0
 72
     5
 11
109.375
 21
109.45
  0
TEXT
  7
TextStyle03
  8
文字
  6
CONTINUOUS
 10
59.375
 20
103.825
  1
　　　　　　
 40
5.0
 72
     5
 11
92.5
 21
103.825
  0
INSERT
  2
*DIM_0002
  8
寸法
  6
CONTINUOUS
 10
0.0
 20
0.0
  0
INSERT
  2
*DIM_0003
  8
寸法
  6
CONTINUOUS
 10
0.0
 20
0.0
  0
INSERT
  2
*DIM_0004
  8
寸法
  6
CONTINUOUS
 10
0.0
 20
0.0
  0
INSERT
  2
*DIM_0005
  8
寸法
  6
CONTINUOUS
 10
0.0
 20
0.0
  0
INSERT
  2
*DIM_0006
  8
寸法
  6
CONTINUOUS
 10
0.0
 20
0.0
  0
INSERT
  2
*DIM_0007
  8
寸法
  6
CONTINUOUS
 10
0.0
 20
0.0
  0
INSERT
  2
*DIM_0008
  8
寸法
  6
CONTINUOUS
 10
0.0
 20
0.0
  0
LINE
  8
別途部材
  6
CONTINUOUS
 62
    47
 10
-95.055188
 20
-60.447117
 11
-94.980188
 21
-60.447117
  0
LINE
  8
別途部材
  6
CONTINUOUS
 62
    47
 10
-95.055188
 20
-60.347115
 11
-95.055188
 21
-60.447117
  0
ARC
  8
別途部材
  6
CONTINUOUS
 62
    47
 10
-94.905188
 20
-60.347115
 40
0.15
 50
90.0
 51
180.0
  0
LINE
  8
別途部材
  6
CONTINUOUS
 62
    47
 10
-94.905188
 20
-60.197115
 11
-91.355188
 21
-60.197115
  0
LINE
  8
別途部材
  6
CONTINUOUS
 62
    47
 10
-94.820405
 20
-60.447117
 11
-94.820405
 21
-62.697117
  0
LINE
  8
別途部材
  6
CONTINUOUS
 62
    47
 10
-59.815622
 20
-60.447117
 11
-59.890622
 21
-60.447117
  0
LINE
  8
別途部材
  6
CONTINUOUS
 62
    47
 10
-59.815622
 20
-60.347115
 11
-59.815622
 21
-60.447117
  0
ARC
  8
別途部材
  6
CONTINUOUS
 62
    47
 10
-59.965622
 20
-60.347115
 40
0.15
 50
0.0
 51
90.0
  0
LINE
  8
別途部材
  6
CONTINUOUS
 62
    47
 10
-59.965622
 20
-60.197115
 11
-63.515622
 21
-60.197115
  0
LINE
  8
別途部材
  6
CONTINUOUS
 62
    47
 10
-60.050405
 20
-60.447117
 11
-60.050405
 21
-62.697117
  0
LINE
  8
曲げ物
  6
CONTINUOUS
 10
-74.535617
 20
19.439393
 11
-80.078585
 21
13.896425
  0
LINE
  8
曲げ物
  6
CONTINUOUS
 10
-75.590823
 20
17.135227
 11
-77.774417
 21
14.951633
  0
LINE
  8
曲げ物
  6
CONTINUOUS
 10
-76.839782
 20
18.384188
 11
-79.023377
 21
16.200592
  0
ENDSEC
  0
EOF
