  0
SECTION
  2
HEADER
  9
$EXTMIN
 10
-210.0
 20
-148.5
  9
$EXTMAX
 10
210.0
 20
148.5
  9
$PDMODE
 70
    32
  9
$PDSIZE
 40
1.5
  9
$LTSCALE
 40
10.0
  0
ENDSEC
  0
SECTION
  2
TABLES
  0
TABLE
  2
LTYPE
 70
    15
  0
LTYPE
  2
CONTINUOUS
 70
    64
  3
実線
 72
    65
 73
     0
 40
0.0
  0
LTYPE
  2
DASHED
 70
    64
  3
破線A
 72
    65
 73
     2
 40
0.6
 49
0.4
 49
-0.2
  0
LTYPE
  2
DASHEDX2
 70
    64
  3
破線B
 72
    65
 73
     2
 40
1.3
 49
0.9
 49
-0.4
  0
LTYPE
  2
DASHDOT
 70
    64
  3
１点鎖線A
 72
    65
 73
     4
 40
0.5375
 49
0.375
 49
-0.05
 49
0.0625
 49
-0.05
  0
LTYPE
  2
DASHDOTX2
 70
    64
  3
１点鎖線B
 72
    65
 73
     4
 40
1.075
 49
0.75
 49
-0.1
 49
0.125
 49
-0.1
  0
LTYPE
  2
DIVIDE2
 70
    64
  3
２点鎖線A
 72
    65
 73
     6
 40
0.5125
 49
0.3
 49
-0.0375
 49
0.05
 49
-0.0375
 49
0.05
 49
-0.0375
  0
LTYPE
  2
DIVIDE
 70
    64
  3
２点鎖線B
 72
    65
 73
     6
 40
1.05
 49
0.55
 49
-0.1
 49
0.1
 49
-0.1
 49
0.1
 49
-0.1
  0
LTYPE
  2
DOT
 70
    64
  3
点線A
 72
    65
 73
     2
 40
0.1125
 49
0.0625
 49
-0.05
  0
LTYPE
  2
DOTX2
 70
    64
  3
点線B
 72
    65
 73
     2
 40
0.275
 49
0.15
 49
-0.125
  0
LTYPE
  2
CONTINUOUS
 70
    64
  3
実線
 72
    65
 73
     0
 40
0.0
  0
LTYPE
  2
CONTINUOUS
 70
    64
  3
実線
 72
    65
 73
     0
 40
0.0
  0
LTYPE
  2
CONTINUOUS
 70
    64
  3
実線
 72
    65
 73
     0
 40
0.0
  0
LTYPE
  2
CONTINUOUS
 70
    64
  3
実線
 72
    65
 73
     0
 40
0.0
  0
LTYPE
  2
CONTINUOUS
 70
    64
  3
実線
 72
    65
 73
     0
 40
0.0
  0
LTYPE
  2
CONTINUOUS
 70
    64
  3
実線
 72
    65
 73
     0
 40
0.0
  0
ENDTAB
  0
TABLE
  2
LAYER
 70
    34
  0
LAYER
  2
通り芯
 70
     0
 62
    15
  6
CONTINUOUS
  0
LAYER
  2
補助線
 70
     0
 62
    16
  6
DOT
  0
LAYER
  2
躯体
 70
     0
 62
    31
  6
CONTINUOUS
  0
LAYER
  2
型材
 70
     0
 62
    32
  6
CONTINUOUS
  0
LAYER
  2
型材断面
 70
     0
 62
    47
  6
CONTINUOUS
  0
LAYER
  2
ガラス
 70
     0
 62
    48
  6
CONTINUOUS
  0
LAYER
  2
ゴム等
 70
     0
 62
    63
  6
CONTINUOUS
  0
LAYER
  2
ボルト／ビス
 70
     0
 62
    64
  6
CONTINUOUS
  0
LAYER
  2
文字
 70
     0
 62
    79
  6
CONTINUOUS
  0
LAYER
  2
寸法
 70
     0
 62
    80
  6
CONTINUOUS
  0
LAYER
  2
ﾊｯﾁﾝｸﾞ
 70
     0
 62
    95
  6
CONTINUOUS
  0
LAYER
  2
別途部材
 70
     0
 62
    96
  6
CONTINUOUS
  0
LAYER
  2
曲げ物
 70
     0
 62
   111
  6
CONTINUOUS
  0
LAYER
  2
鉄骨等
 70
     0
 62
   112
  6
CONTINUOUS
  0
LAYER
  2
St
 70
     0
 62
   127
  6
CONTINUOUS
  0
LAYER
  2
その他部品等
 70
     0
 62
   128
  6
CONTINUOUS
  0
LAYER
  2
ｶﾞｽｹｯﾄ
 70
     0
 62
   143
  6
CONTINUOUS
  0
LAYER
  2
ｽｹｯﾁ
 70
     0
 62
    14
  6
CONTINUOUS
  0
LAYER
  2
0
 70
     0
 62
    17
  6
CONTINUOUS
  0
LAYER
  2
1
 70
     0
 62
    30
  6
CONTINUOUS
  0
LAYER
  2
4
 70
     0
 62
    33
  6
CONTINUOUS
  0
LAYER
  2
ﾚｲﾔ3
 70
     0
 62
    46
  6
CONTINUOUS
  0
LAYER
  2
外形線
 70
     0
 62
    49
  6
CONTINUOUS
  0
LAYER
  2
部品
 70
     0
 62
    14
  6
CONTINUOUS
  0
LAYER
  2
サッシ芯
 70
     0
 62
    17
  6
DASHDOTX2
  0
LAYER
  2
寸法線
 70
     0
 62
    62
  6
CONTINUOUS
  0
LAYER
  2
姿図外形線
 70
     0
 62
    65
  6
CONTINUOUS
  0
LAYER
  2
姿補助線
 70
     0
 62
    30
  6
CONTINUOUS
  0
LAYER
  2
透視線
 70
     0
 62
    78
  6
DOT
  0
LAYER
  2
用紙
 70
     0
 62
    81
  6
CONTINUOUS
  0
LAYER
  2
実線図枠
 70
     0
 62
    94
  6
CONTINUOUS
  0
LAYER
  2
補助図枠
 70
     0
 62
    97
  6
CONTINUOUS
  0
LAYER
  2
建具記号
 70
     0
 62
   110
  6
CONTINUOUS
  0
LAYER
  2
補助文字
 70
     0
 62
   113
  6
CONTINUOUS
  0
ENDTAB
  0
TABLE
  2
STYLE
 70
    10
  0
STYLE
  2
STANDARD
 70
     0
 40
1.0
 41
1.0
 42
1.0
 50
0.0
 71
     0
  3
TXT
  4
BIGFONT
  0
STYLE
  2
TATE
 70
     4
 40
1.0
 41
1.0
 42
1.0
 50
0.0
 71
     0
  3
TXT
  4
BIGFONT
  0
STYLE
  2
TextStyle03
 70
     0
 40
1.0
 41
1.0
 42
1.0
 50
0.0
 71
     0
  3
MONOTXT
  4
BIGFONT
  0
STYLE
  2
TextStyle04
 70
     0
 40
1.0
 41
1.0
 42
1.0
 50
0.0
 71
     0
  3
MONOTXT
  4
BIGFONT
  0
STYLE
  2
TextStyle05
 70
     0
 40
1.0
 41
1.0
 42
1.0
 50
0.0
 71
     0
  3
MONOTXT
  4
BIGFONT
  0
STYLE
  2
TextStyle06
 70
     0
 40
1.0
 41
1.0
 42
1.0
 50
0.0
 71
     0
  3
MONOTXT
  4
BIGFONT
  0
STYLE
  2
TextStyle07
 70
     0
 40
1.0
 41
1.0
 42
1.0
 50
0.0
 71
     0
  3
MONOTXT
  4
BIGFONT
  0
STYLE
  2
TextStyle08
 70
     0
 40
1.0
 41
1.0
 42
1.0
 50
0.0
 71
     0
  3
MONOTXT
  4
BIGFONT
  0
STYLE
  2
TextStyle09
 70
     0
 40
1.0
 41
1.0
 42
1.0
 50
0.0
 71
     0
  3
MONOTXT
  4
BIGFONT
  0
STYLE
  2
TextStyle10
 70
     0
 40
1.0
 41
1.0
 42
1.0
 50
0.0
 71
     0
  3
MONOTXT
  4
BIGFONT
  0
ENDTAB
  0
ENDSEC
  0
SECTION
  2
BLOCKS
  0
BLOCK
  2
*HAT_0001
 70
    65
 10
0.0
 20
0.0
  0
LINE
  8
その他部品等
 10
0.225
 20
38.475
 11
-0.45
 21
39.15
  0
LINE
  8
その他部品等
 10
2.775
 20
38.475
 11
-0.45
 21
41.7
  0
LINE
  8
その他部品等
 10
5.325
 20
38.475
 11
-0.45
 21
44.25
  0
LINE
  8
その他部品等
 10
7.575
 20
38.775
 11
-0.45
 21
46.8
  0
LINE
  8
その他部品等
 10
7.575
 20
41.325
 11
1.65
 21
47.25
  0
LINE
  8
その他部品等
 10
7.575
 20
43.875
 11
4.2
 21
47.25
  0
LINE
  8
その他部品等
 10
7.575
 20
46.425
 11
6.675
 21
47.25
  0
LINE
  8
その他部品等
 10
7.575
 20
40.2
 11
5.85
 21
38.475
  0
LINE
  8
その他部品等
 10
7.575
 20
42.75
 11
3.3
 21
38.475
  0
LINE
  8
その他部品等
 10
7.575
 20
45.3
 11
0.75
 21
38.475
  0
LINE
  8
その他部品等
 10
7.05
 20
47.25
 11
-0.45
 21
39.825
  0
LINE
  8
その他部品等
 10
4.5
 20
47.25
 11
-0.45
 21
42.375
  0
LINE
  8
その他部品等
 10
1.95
 20
47.25
 11
-0.45
 21
44.925
  0
ENDBLK
  0
BLOCK
  2
*GRP_0001
 70
    65
 10
0.0
 20
0.0
  0
LINE
  8
型材断面
  6
CONTINUOUS
 10
195.0
 20
133.5
 11
195.0
 21
-133.5
  0
LINE
  8
型材断面
  6
CONTINUOUS
 10
195.0
 20
-133.5
 11
-185.0
 21
-133.5
  0
LINE
  8
型材断面
  6
CONTINUOUS
 10
-185.0
 20
-133.5
 11
-185.0
 21
133.5
  0
LINE
  8
型材断面
  6
CONTINUOUS
 10
195.0
 20
133.5
 11
-185.0
 21
133.5
  0
LINE
  8
型材断面
  6
CONTINUOUS
 10
145.0
 20
-133.5
 11
145.0
 21
-118.5
  0
LINE
  8
型材断面
  6
CONTINUOUS
 10
195.0
 20
-118.5
 11
145.0
 21
-118.5
  0
ENDBLK
  0
BLOCK
  2
*GRP_0002
 70
    65
 10
0.0
 20
0.0
  0
LINE
  8
型材断面
  6
CONTINUOUS
 10
1.741152
 20
-12.124145
 11
0.541152
 21
-12.124145
  0
LINE
  8
型材断面
  6
CONTINUOUS
 10
-25.058845
 20
8.975852
 11
-25.058845
 21
7.475852
  0
LINE
  8
型材断面
  6
CONTINUOUS
 10
-25.058845
 20
7.475852
 11
-27.25885
 21
7.475852
  0
LINE
  8
型材断面
  6
CONTINUOUS
 10
-25.058845
 20
8.975852
 11
-29.258845
 21
8.975852
  0
LINE
  8
型材断面
  6
CONTINUOUS
 10
-29.258845
 20
8.975852
 11
-29.258845
 21
-10.524147
  0
LINE
  8
型材断面
  6
CONTINUOUS
 10
-27.25885
 20
7.475852
 11
-27.25885
 21
-8.524145
  0
LINE
  8
型材断面
  6
CONTINUOUS
 10
0.541152
 20
-6.524143
 11
1.741152
 21
-6.524143
  0
LINE
  8
型材断面
  6
CONTINUOUS
 10
-29.258845
 20
-10.524147
 11
0.541152
 21
-10.524147
  0
LINE
  8
型材断面
  6
CONTINUOUS
 10
0.541152
 20
-6.524143
 11
0.541152
 21
-8.524145
  0
LINE
  8
型材断面
  6
CONTINUOUS
 10
-20.05885
 20
-8.524145
 11
-20.05885
 21
-6.224143
  0
LINE
  8
型材断面
  6
CONTINUOUS
 10
-18.55885
 20
-8.524145
 11
-18.55885
 21
-4.724143
  0
LINE
  8
型材断面
  6
CONTINUOUS
 10
-18.55885
 20
-4.724143
 11
-22.558847
 21
-4.724143
  0
LINE
  8
型材断面
  6
CONTINUOUS
 10
-22.558847
 20
-4.724143
 11
-22.558847
 21
-6.224143
  0
LINE
  8
型材断面
  6
CONTINUOUS
 10
-20.05885
 20
-6.224143
 11
-22.558847
 21
-6.224143
  0
LINE
  8
型材断面
  6
CONTINUOUS
 10
-27.25885
 20
-8.524145
 11
-20.05885
 21
-8.524145
  0
LINE
  8
型材断面
  6
CONTINUOUS
 10
-18.55885
 20
-8.524145
 11
0.541152
 21
-8.524145
  0
LINE
  8
型材断面
  6
CONTINUOUS
 10
1.741152
 20
-6.524143
 11
1.741152
 21
-12.124145
  0
LINE
  8
型材断面
  6
CONTINUOUS
 10
0.541152
 20
-10.524147
 11
0.541152
 21
-12.124145
  0
ENDBLK
  0
BLOCK
  2
*GRP_0003
 70
    65
 10
0.0
 20
0.0
  0
LINE
  8
型材
  6
CONTINUOUS
 62
    47
 10
-2.761982
 20
5.075748
 11
-2.761982
 21
4.175748
  0
LINE
  8
型材
  6
CONTINUOUS
 62
    47
 10
-2.161982
 20
5.675748
 11
-2.761982
 21
5.075748
  0
LINE
  8
型材
  6
CONTINUOUS
 62
    47
 10
-2.761982
 20
4.175748
 11
-0.261978
 21
4.175763
  0
LINE
  8
型材
  6
CONTINUOUS
 62
    47
 10
-2.161982
 20
5.675748
 11
1.238023
 21
5.675755
  0
LINE
  8
型材
  6
CONTINUOUS
 62
    47
 10
1.238023
 20
2.675755
 11
-6.661877
 21
-5.224145
  0
LINE
  8
型材
  6
CONTINUOUS
 62
    47
 10
1.238023
 20
5.675763
 11
1.238038
 21
2.67577
  0
LINE
  8
型材
  6
CONTINUOUS
 62
    47
 10
-0.261978
 20
4.175755
 11
-0.261978
 21
3.297077
  0
LINE
  8
型材
  6
CONTINUOUS
 62
    47
 10
-8.261867
 20
-5.924143
 11
-8.261867
 21
-4.702812
  0
LINE
  8
型材
  6
CONTINUOUS
 62
    47
 10
-6.661863
 20
-7.424143
 11
-6.661863
 21
-5.22413
  0
LINE
  8
型材
  6
CONTINUOUS
 62
    47
 10
-7.761978
 20
5.075733
 11
-7.761978
 21
4.175733
  0
LINE
  8
型材
  6
CONTINUOUS
 62
    47
 10
-7.761978
 20
5.075733
 11
-8.361978
 21
5.675725
  0
LINE
  8
型材
  6
CONTINUOUS
 62
    47
 10
-8.361978
 20
5.675725
 11
-11.761982
 21
5.675718
  0
LINE
  8
型材
  6
CONTINUOUS
 62
    47
 10
-7.761978
 20
4.175733
 11
-10.261967
 21
4.175718
  0
LINE
  8
型材
  6
CONTINUOUS
 62
    47
 10
-10.761873
 20
-8.524137
 11
-10.761873
 21
-5.924143
  0
LINE
  8
型材
  6
CONTINUOUS
 62
    47
 10
-9.261873
 20
-8.524137
 11
-9.261873
 21
-7.424143
  0
LINE
  8
型材
  6
CONTINUOUS
 62
    47
 10
-9.261873
 20
-8.524137
 11
-10.761873
 21
-8.524137
  0
LINE
  8
型材
  6
CONTINUOUS
 62
    47
 10
-8.261867
 20
-5.924143
 11
-10.761873
 21
-5.924143
  0
LINE
  8
型材
  6
CONTINUOUS
 62
    47
 10
-20.562212
 20
-6.52415
 11
-22.558847
 21
-6.52415
  0
LINE
  8
型材
  6
CONTINUOUS
 62
    47
 10
-20.562212
 20
-6.52415
 11
-20.562212
 21
-8.524145
  0
LINE
  8
型材
  6
CONTINUOUS
 62
    47
 10
-20.562212
 20
-8.524145
 11
-24.058847
 21
-8.524145
  0
LINE
  8
型材
  6
CONTINUOUS
 62
    47
 10
-24.058847
 20
-8.524145
 11
-24.058847
 21
5.675687
  0
LINE
  8
型材
  6
CONTINUOUS
 62
    47
 10
-24.058847
 20
5.675687
 11
-22.558847
 21
5.675695
  0
LINE
  8
型材
  6
CONTINUOUS
 62
    47
 10
-8.261867
 20
-4.702812
 11
-4.383317
 21
-0.82427
  0
LINE
  8
型材
  6
CONTINUOUS
 62
    47
 10
-0.261992
 20
3.297062
 11
-2.883317
 21
0.675737
  0
LINE
  8
型材
  6
CONTINUOUS
 62
    47
 10
-10.261967
 20
4.17577
 11
-10.261967
 21
0.675722
  0
LINE
  8
型材
  6
CONTINUOUS
 62
    47
 10
-22.558847
 20
5.675695
 11
-22.558847
 21
0.6757
  0
LINE
  8
型材
  6
CONTINUOUS
 62
    47
 10
-4.383317
 20
-0.82427
 11
-22.558847
 21
-0.824308
  0
LINE
  8
型材
  6
CONTINUOUS
 62
    47
 10
-22.558847
 20
-6.52415
 11
-22.558847
 21
-0.824308
  0
LINE
  8
型材
  6
CONTINUOUS
 62
    47
 10
-11.761982
 20
5.67577
 11
-11.761953
 21
0.675722
  0
LINE
  8
型材
  6
CONTINUOUS
 62
    47
 10
-2.883317
 20
0.675737
 11
-10.261967
 21
0.675722
  0
LINE
  8
型材
  6
CONTINUOUS
 62
    47
 10
-16.062212
 20
0.375715
 11
-16.362212
 21
0.675715
  0
LINE
  8
型材
  6
CONTINUOUS
 62
    47
 10
-16.062212
 20
0.375715
 11
-15.762212
 21
0.675715
  0
LINE
  8
型材
  6
CONTINUOUS
 62
    47
 10
-11.761953
 20
0.675722
 11
-15.762212
 21
0.675715
  0
LINE
  8
型材
  6
CONTINUOUS
 62
    47
 10
-16.362212
 20
0.675715
 11
-22.558847
 21
0.6757
  0
LINE
  8
型材
  6
CONTINUOUS
 62
    47
 10
-9.261873
 20
-7.424143
 11
-6.661863
 21
-7.424143
  0
ENDBLK
  0
BLOCK
  2
*GRP_0004
 70
    65
 10
0.0
 20
0.0
  0
POLYLINE
  8
ガラス
  6
CONTINUOUS
 66
     1
 70
     4
  0
VERTEX
  8
ガラス
 10
2.475
 20
-9.225
 70
     8
  0
VERTEX
  8
ガラス
 10
2.475
 20
-9.15
 70
     8
  0
VERTEX
  8
ガラス
 10
2.5
 20
-9.1
 70
     8
  0
VERTEX
  8
ガラス
 10
2.525
 20
-9.025
 70
     8
  0
VERTEX
  8
ガラス
 10
2.55
 20
-8.975
 70
     8
  0
VERTEX
  8
ガラス
 10
2.55
 20
-8.9
 70
     8
  0
VERTEX
  8
ガラス
 10
2.575
 20
-8.85
 70
     8
  0
VERTEX
  8
ガラス
 10
2.6
 20
-8.8
 70
     8
  0
VERTEX
  8
ガラス
 10
2.625
 20
-8.725
 70
     8
  0
VERTEX
  8
ガラス
 10
2.65
 20
-8.675
 70
     8
  0
VERTEX
  8
ガラス
 10
2.675
 20
-8.6
 70
     8
  0
VERTEX
  8
ガラス
 10
2.7
 20
-8.55
 70
     8
  0
VERTEX
  8
ガラス
 10
2.725
 20
-8.5
 70
     8
  0
VERTEX
  8
ガラス
 10
2.75
 20
-8.45
 70
     8
  0
VERTEX
  8
ガラス
 10
2.775
 20
-8.4
 70
     8
  0
VERTEX
  8
ガラス
 10
2.8
 20
-8.325
 70
     8
  0
VERTEX
  8
ガラス
 10
2.825
 20
-8.275
 70
     8
  0
VERTEX
  8
ガラス
 10
2.85
 20
-8.225
 70
     8
  0
VERTEX
  8
ガラス
 10
2.9
 20
-8.2
 70
     8
  0
VERTEX
  8
ガラス
 10
2.925
 20
-8.15
 70
     8
  0
VERTEX
  8
ガラス
 10
2.975
 20
-8.1
 70
     8
  0
VERTEX
  8
ガラス
 10
3.0
 20
-8.05
 70
     8
  0
VERTEX
  8
ガラス
 10
3.05
 20
-8.025
 70
     8
  0
VERTEX
  8
ガラス
 10
3.1
 20
-7.975
 70
     8
  0
VERTEX
  8
ガラス
 10
3.15
 20
-7.95
 70
     8
  0
VERTEX
  8
ガラス
 10
3.175
 20
-7.9
 70
     8
  0
VERTEX
  8
ガラス
 10
3.225
 20
-7.875
 70
     8
  0
VERTEX
  8
ガラス
 10
3.275
 20
-7.85
 70
     8
  0
VERTEX
  8
ガラス
 10
3.35
 20
-7.825
 70
     8
  0
VERTEX
  8
ガラス
 10
3.4
 20
-7.8
 70
     8
  0
VERTEX
  8
ガラス
 10
3.45
 20
-7.75
 70
     8
  0
VERTEX
  8
ガラス
 10
3.5
 20
-7.725
 70
     8
  0
VERTEX
  8
ガラス
 10
3.575
 20
-7.7
 70
     8
  0
VERTEX
  8
ガラス
 10
3.625
 20
-7.675
 70
     8
  0
VERTEX
  8
ガラス
 10
3.675
 20
-7.675
 70
     8
  0
VERTEX
  8
ガラス
 10
3.75
 20
-7.65
 70
     8
  0
VERTEX
  8
ガラス
 10
3.8
 20
-7.625
 70
     8
  0
VERTEX
  8
ガラス
 10
3.85
 20
-7.6
 70
     8
  0
VERTEX
  8
ガラス
 10
3.925
 20
-7.575
 70
     8
  0
VERTEX
  8
ガラス
 10
3.975
 20
-7.55
 70
     8
  0
VERTEX
  8
ガラス
 10
4.05
 20
-7.525
 70
     8
  0
SEQEND
  0
POLYLINE
  8
ガラス
  6
CONTINUOUS
 66
     1
 70
     4
  0
VERTEX
  8
ガラス
 10
4.05
 20
-7.525
 70
     8
  0
VERTEX
  8
ガラス
 10
4.025
 20
-7.575
 70
     8
  0
VERTEX
  8
ガラス
 10
4.025
 20
-7.625
 70
     8
  0
VERTEX
  8
ガラス
 10
4.0
 20
-7.65
 70
     8
  0
VERTEX
  8
ガラス
 10
4.0
 20
-7.7
 70
     8
  0
VERTEX
  8
ガラス
 10
3.975
 20
-7.75
 70
     8
  0
VERTEX
  8
ガラス
 10
3.975
 20
-7.775
 70
     8
  0
VERTEX
  8
ガラス
 10
3.975
 20
-7.825
 70
     8
  0
VERTEX
  8
ガラス
 10
3.95
 20
-7.875
 70
     8
  0
VERTEX
  8
ガラス
 10
3.95
 20
-7.9
 70
     8
  0
VERTEX
  8
ガラス
 10
3.925
 20
-7.95
 70
     8
  0
VERTEX
  8
ガラス
 10
3.925
 20
-8.0
 70
     8
  0
VERTEX
  8
ガラス
 10
3.9
 20
-8.025
 70
     8
  0
VERTEX
  8
ガラス
 10
3.9
 20
-8.075
 70
     8
  0
VERTEX
  8
ガラス
 10
3.9
 20
-8.125
 70
     8
  0
VERTEX
  8
ガラス
 10
3.875
 20
-8.15
 70
     8
  0
VERTEX
  8
ガラス
 10
3.875
 20
-8.2
 70
     8
  0
VERTEX
  8
ガラス
 10
3.875
 20
-8.25
 70
     8
  0
VERTEX
  8
ガラス
 10
3.85
 20
-8.275
 70
     8
  0
VERTEX
  8
ガラス
 10
3.85
 20
-8.325
 70
     8
  0
VERTEX
  8
ガラス
 10
3.85
 20
-8.375
 70
     8
  0
VERTEX
  8
ガラス
 10
3.85
 20
-8.4
 70
     8
  0
VERTEX
  8
ガラス
 10
3.825
 20
-8.45
 70
     8
  0
VERTEX
  8
ガラス
 10
3.825
 20
-8.5
 70
     8
  0
VERTEX
  8
ガラス
 10
3.825
 20
-8.55
 70
     8
  0
VERTEX
  8
ガラス
 10
3.825
 20
-8.575
 70
     8
  0
VERTEX
  8
ガラス
 10
3.825
 20
-8.625
 70
     8
  0
VERTEX
  8
ガラス
 10
3.825
 20
-8.675
 70
     8
  0
VERTEX
  8
ガラス
 10
3.825
 20
-8.7
 70
     8
  0
VERTEX
  8
ガラス
 10
3.8
 20
-8.75
 70
     8
  0
VERTEX
  8
ガラス
 10
3.8
 20
-8.8
 70
     8
  0
VERTEX
  8
ガラス
 10
3.8
 20
-8.825
 70
     8
  0
VERTEX
  8
ガラス
 10
3.8
 20
-8.875
 70
     8
  0
VERTEX
  8
ガラス
 10
3.8
 20
-8.925
 70
     8
  0
VERTEX
  8
ガラス
 10
3.8
 20
-8.975
 70
     8
  0
VERTEX
  8
ガラス
 10
3.8
 20
-9.0
 70
     8
  0
VERTEX
  8
ガラス
 10
3.8
 20
-9.05
 70
     8
  0
VERTEX
  8
ガラス
 10
3.8
 20
-9.1
 70
     8
  0
VERTEX
  8
ガラス
 10
3.8
 20
-9.15
 70
     8
  0
VERTEX
  8
ガラス
 10
3.8
 20
-9.175
 70
     8
  0
VERTEX
  8
ガラス
 10
3.8
 20
-9.225
 70
     8
  0
SEQEND
  0
ARC
  8
ガラス
  6
CONTINUOUS
 10
3.150777
 20
-9.212536
 40
0.668594
 50
180.0
 51
360.0
  0
ENDBLK
  0
BLOCK
  2
*GRP_0005
 70
    65
 10
0.0
 20
0.0
  0
POLYLINE
  8
ガラス
  6
CONTINUOUS
 66
     1
 70
     4
  0
VERTEX
  8
ガラス
 10
2.475
 20
-24.925
 70
     8
  0
VERTEX
  8
ガラス
 10
2.475
 20
-24.85
 70
     8
  0
VERTEX
  8
ガラス
 10
2.5
 20
-24.8
 70
     8
  0
VERTEX
  8
ガラス
 10
2.525
 20
-24.725
 70
     8
  0
VERTEX
  8
ガラス
 10
2.55
 20
-24.675
 70
     8
  0
VERTEX
  8
ガラス
 10
2.55
 20
-24.6
 70
     8
  0
VERTEX
  8
ガラス
 10
2.575
 20
-24.55
 70
     8
  0
VERTEX
  8
ガラス
 10
2.6
 20
-24.475
 70
     8
  0
VERTEX
  8
ガラス
 10
2.625
 20
-24.425
 70
     8
  0
VERTEX
  8
ガラス
 10
2.65
 20
-24.35
 70
     8
  0
VERTEX
  8
ガラス
 10
2.675
 20
-24.3
 70
     8
  0
VERTEX
  8
ガラス
 10
2.7
 20
-24.25
 70
     8
  0
VERTEX
  8
ガラス
 10
2.725
 20
-24.2
 70
     8
  0
VERTEX
  8
ガラス
 10
2.75
 20
-24.125
 70
     8
  0
VERTEX
  8
ガラス
 10
2.775
 20
-24.075
 70
     8
  0
VERTEX
  8
ガラス
 10
2.8
 20
-24.025
 70
     8
  0
VERTEX
  8
ガラス
 10
2.825
 20
-23.975
 70
     8
  0
VERTEX
  8
ガラス
 10
2.85
 20
-23.925
 70
     8
  0
VERTEX
  8
ガラス
 10
2.9
 20
-23.875
 70
     8
  0
VERTEX
  8
ガラス
 10
2.925
 20
-23.825
 70
     8
  0
VERTEX
  8
ガラス
 10
2.975
 20
-23.8
 70
     8
  0
VERTEX
  8
ガラス
 10
3.0
 20
-23.75
 70
     8
  0
VERTEX
  8
ガラス
 10
3.05
 20
-23.7
 70
     8
  0
VERTEX
  8
ガラス
 10
3.1
 20
-23.675
 70
     8
  0
VERTEX
  8
ガラス
 10
3.15
 20
-23.625
 70
     8
  0
VERTEX
  8
ガラス
 10
3.175
 20
-23.6
 70
     8
  0
VERTEX
  8
ガラス
 10
3.225
 20
-23.575
 70
     8
  0
VERTEX
  8
ガラス
 10
3.275
 20
-23.525
 70
     8
  0
VERTEX
  8
ガラス
 10
3.35
 20
-23.5
 70
     8
  0
VERTEX
  8
ガラス
 10
3.4
 20
-23.475
 70
     8
  0
VERTEX
  8
ガラス
 10
3.45
 20
-23.45
 70
     8
  0
VERTEX
  8
ガラス
 10
3.5
 20
-23.425
 70
     8
  0
VERTEX
  8
ガラス
 10
3.575
 20
-23.4
 70
     8
  0
VERTEX
  8
ガラス
 10
3.625
 20
-23.375
 70
     8
  0
VERTEX
  8
ガラス
 10
3.675
 20
-23.35
 70
     8
  0
VERTEX
  8
ガラス
 10
3.75
 20
-23.325
 70
     8
  0
VERTEX
  8
ガラス
 10
3.8
 20
-23.3
 70
     8
  0
VERTEX
  8
ガラス
 10
3.85
 20
-23.275
 70
     8
  0
VERTEX
  8
ガラス
 10
3.925
 20
-23.275
 70
     8
  0
VERTEX
  8
ガラス
 10
3.975
 20
-23.25
 70
     8
  0
VERTEX
  8
ガラス
 10
4.05
 20
-23.225
 70
     8
  0
SEQEND
  0
POLYLINE
  8
ガラス
  6
CONTINUOUS
 66
     1
 70
     4
  0
VERTEX
  8
ガラス
 10
4.05
 20
-23.225
 70
     8
  0
VERTEX
  8
ガラス
 10
4.025
 20
-23.275
 70
     8
  0
VERTEX
  8
ガラス
 10
4.025
 20
-23.3
 70
     8
  0
VERTEX
  8
ガラス
 10
4.0
 20
-23.35
 70
     8
  0
VERTEX
  8
ガラス
 10
4.0
 20
-23.4
 70
     8
  0
VERTEX
  8
ガラス
 10
3.975
 20
-23.425
 70
     8
  0
VERTEX
  8
ガラス
 10
3.975
 20
-23.475
 70
     8
  0
VERTEX
  8
ガラス
 10
3.975
 20
-23.525
 70
     8
  0
VERTEX
  8
ガラス
 10
3.95
 20
-23.55
 70
     8
  0
VERTEX
  8
ガラス
 10
3.95
 20
-23.6
 70
     8
  0
VERTEX
  8
ガラス
 10
3.925
 20
-23.65
 70
     8
  0
VERTEX
  8
ガラス
 10
3.925
 20
-23.675
 70
     8
  0
VERTEX
  8
ガラス
 10
3.9
 20
-23.725
 70
     8
  0
VERTEX
  8
ガラス
 10
3.9
 20
-23.775
 70
     8
  0
VERTEX
  8
ガラス
 10
3.9
 20
-23.8
 70
     8
  0
VERTEX
  8
ガラス
 10
3.875
 20
-23.85
 70
     8
  0
VERTEX
  8
ガラス
 10
3.875
 20
-23.9
 70
     8
  0
VERTEX
  8
ガラス
 10
3.875
 20
-23.925
 70
     8
  0
VERTEX
  8
ガラス
 10
3.85
 20
-23.975
 70
     8
  0
VERTEX
  8
ガラス
 10
3.85
 20
-24.025
 70
     8
  0
VERTEX
  8
ガラス
 10
3.85
 20
-24.05
 70
     8
  0
VERTEX
  8
ガラス
 10
3.85
 20
-24.1
 70
     8
  0
VERTEX
  8
ガラス
 10
3.825
 20
-24.15
 70
     8
  0
VERTEX
  8
ガラス
 10
3.825
 20
-24.175
 70
     8
  0
VERTEX
  8
ガラス
 10
3.825
 20
-24.225
 70
     8
  0
VERTEX
  8
ガラス
 10
3.825
 20
-24.275
 70
     8
  0
VERTEX
  8
ガラス
 10
3.825
 20
-24.325
 70
     8
  0
VERTEX
  8
ガラス
 10
3.825
 20
-24.35
 70
     8
  0
VERTEX
  8
ガラス
 10
3.825
 20
-24.4
 70
     8
  0
VERTEX
  8
ガラス
 10
3.8
 20
-24.45
 70
     8
  0
VERTEX
  8
ガラス
 10
3.8
 20
-24.475
 70
     8
  0
VERTEX
  8
ガラス
 10
3.8
 20
-24.525
 70
     8
  0
VERTEX
  8
ガラス
 10
3.8
 20
-24.575
 70
     8
  0
VERTEX
  8
ガラス
 10
3.8
 20
-24.625
 70
     8
  0
VERTEX
  8
ガラス
 10
3.8
 20
-24.65
 70
     8
  0
VERTEX
  8
ガラス
 10
3.8
 20
-24.7
 70
     8
  0
VERTEX
  8
ガラス
 10
3.8
 20
-24.75
 70
     8
  0
VERTEX
  8
ガラス
 10
3.8
 20
-24.775
 70
     8
  0
VERTEX
  8
ガラス
 10
3.8
 20
-24.825
 70
     8
  0
VERTEX
  8
ガラス
 10
3.8
 20
-24.875
 70
     8
  0
VERTEX
  8
ガラス
 10
3.8
 20
-24.925
 70
     8
  0
SEQEND
  0
ARC
  8
ガラス
  6
CONTINUOUS
 10
3.150777
 20
-24.903184
 40
0.668594
 50
180.0
 51
360.0
  0
ENDBLK
  0
BLOCK
  2
*GRP_0006
 70
    65
 10
0.0
 20
0.0
  0
POLYLINE
  8
ガラス
  6
CONTINUOUS
 66
     1
 70
     4
  0
VERTEX
  8
ガラス
 10
-4.5
 20
-32.35
 70
     8
  0
VERTEX
  8
ガラス
 10
-4.425
 20
-32.35
 70
     8
  0
VERTEX
  8
ガラス
 10
-4.375
 20
-32.35
 70
     8
  0
VERTEX
  8
ガラス
 10
-4.3
 20
-32.325
 70
     8
  0
VERTEX
  8
ガラス
 10
-4.25
 20
-32.325
 70
     8
  0
VERTEX
  8
ガラス
 10
-4.175
 20
-32.325
 70
     8
  0
VERTEX
  8
ガラス
 10
-4.1
 20
-32.325
 70
     8
  0
VERTEX
  8
ガラス
 10
-4.05
 20
-32.325
 70
     8
  0
VERTEX
  8
ガラス
 10
-3.975
 20
-32.325
 70
     8
  0
VERTEX
  8
ガラス
 10
-3.925
 20
-32.325
 70
     8
  0
VERTEX
  8
ガラス
 10
-3.85
 20
-32.325
 70
     8
  0
VERTEX
  8
ガラス
 10
-3.8
 20
-32.325
 70
     8
  0
VERTEX
  8
ガラス
 10
-3.725
 20
-32.325
 70
     8
  0
VERTEX
  8
ガラス
 10
-3.675
 20
-32.325
 70
     8
  0
VERTEX
  8
ガラス
 10
-3.6
 20
-32.325
 70
     8
  0
VERTEX
  8
ガラス
 10
-3.55
 20
-32.325
 70
     8
  0
VERTEX
  8
ガラス
 10
-3.5
 20
-32.35
 70
     8
  0
VERTEX
  8
ガラス
 10
-3.425
 20
-32.35
 70
     8
  0
VERTEX
  8
ガラス
 10
-3.375
 20
-32.375
 70
     8
  0
VERTEX
  8
ガラス
 10
-3.325
 20
-32.4
 70
     8
  0
VERTEX
  8
ガラス
 10
-3.275
 20
-32.4
 70
     8
  0
VERTEX
  8
ガラス
 10
-3.225
 20
-32.425
 70
     8
  0
VERTEX
  8
ガラス
 10
-3.175
 20
-32.45
 70
     8
  0
VERTEX
  8
ガラス
 10
-3.1
 20
-32.475
 70
     8
  0
VERTEX
  8
ガラス
 10
-3.05
 20
-32.525
 70
     8
  0
VERTEX
  8
ガラス
 10
-3.025
 20
-32.55
 70
     8
  0
VERTEX
  8
ガラス
 10
-2.975
 20
-32.575
 70
     8
  0
VERTEX
  8
ガラス
 10
-2.925
 20
-32.625
 70
     8
  0
VERTEX
  8
ガラス
 10
-2.875
 20
-32.65
 70
     8
  0
VERTEX
  8
ガラス
 10
-2.825
 20
-32.7
 70
     8
  0
VERTEX
  8
ガラス
 10
-2.775
 20
-32.75
 70
     8
  0
VERTEX
  8
ガラス
 10
-2.725
 20
-32.775
 70
     8
  0
VERTEX
  8
ガラス
 10
-2.7
 20
-32.825
 70
     8
  0
VERTEX
  8
ガラス
 10
-2.65
 20
-32.875
 70
     8
  0
VERTEX
  8
ガラス
 10
-2.6
 20
-32.925
 70
     8
  0
VERTEX
  8
ガラス
 10
-2.55
 20
-32.975
 70
     8
  0
VERTEX
  8
ガラス
 10
-2.525
 20
-33.025
 70
     8
  0
VERTEX
  8
ガラス
 10
-2.475
 20
-33.075
 70
     8
  0
VERTEX
  8
ガラス
 10
-2.425
 20
-33.125
 70
     8
  0
VERTEX
  8
ガラス
 10
-2.4
 20
-33.175
 70
     8
  0
VERTEX
  8
ガラス
 10
-2.35
 20
-33.225
 70
     8
  0
SEQEND
  0
POLYLINE
  8
ガラス
  6
CONTINUOUS
 66
     1
 70
     4
  0
VERTEX
  8
ガラス
 10
-2.35
 20
-33.225
 70
     8
  0
VERTEX
  8
ガラス
 10
-2.4
 20
-33.225
 70
     8
  0
VERTEX
  8
ガラス
 10
-2.425
 20
-33.225
 70
     8
  0
VERTEX
  8
ガラス
 10
-2.475
 20
-33.225
 70
     8
  0
VERTEX
  8
ガラス
 10
-2.525
 20
-33.225
 70
     8
  0
VERTEX
  8
ガラス
 10
-2.575
 20
-33.225
 70
     8
  0
VERTEX
  8
ガラス
 10
-2.6
 20
-33.225
 70
     8
  0
VERTEX
  8
ガラス
 10
-2.65
 20
-33.25
 70
     8
  0
VERTEX
  8
ガラス
 10
-2.7
 20
-33.25
 70
     8
  0
VERTEX
  8
ガラス
 10
-2.725
 20
-33.25
 70
     8
  0
VERTEX
  8
ガラス
 10
-2.775
 20
-33.25
 70
     8
  0
VERTEX
  8
ガラス
 10
-2.825
 20
-33.25
 70
     8
  0
VERTEX
  8
ガラス
 10
-2.875
 20
-33.275
 70
     8
  0
VERTEX
  8
ガラス
 10
-2.9
 20
-33.275
 70
     8
  0
VERTEX
  8
ガラス
 10
-2.95
 20
-33.275
 70
     8
  0
VERTEX
  8
ガラス
 10
-3.0
 20
-33.275
 70
     8
  0
VERTEX
  8
ガラス
 10
-3.025
 20
-33.3
 70
     8
  0
VERTEX
  8
ガラス
 10
-3.075
 20
-33.3
 70
     8
  0
VERTEX
  8
ガラス
 10
-3.125
 20
-33.3
 70
     8
  0
VERTEX
  8
ガラス
 10
-3.15
 20
-33.325
 70
     8
  0
VERTEX
  8
ガラス
 10
-3.2
 20
-33.325
 70
     8
  0
VERTEX
  8
ガラス
 10
-3.25
 20
-33.325
 70
     8
  0
VERTEX
  8
ガラス
 10
-3.275
 20
-33.35
 70
     8
  0
VERTEX
  8
ガラス
 10
-3.325
 20
-33.35
 70
     8
  0
VERTEX
  8
ガラス
 10
-3.375
 20
-33.375
 70
     8
  0
VERTEX
  8
ガラス
 10
-3.4
 20
-33.375
 70
     8
  0
VERTEX
  8
ガラス
 10
-3.45
 20
-33.4
 70
     8
  0
VERTEX
  8
ガラス
 10
-3.5
 20
-33.4
 70
     8
  0
VERTEX
  8
ガラス
 10
-3.525
 20
-33.425
 70
     8
  0
VERTEX
  8
ガラス
 10
-3.575
 20
-33.425
 70
     8
  0
VERTEX
  8
ガラス
 10
-3.6
 20
-33.45
 70
     8
  0
VERTEX
  8
ガラス
 10
-3.65
 20
-33.45
 70
     8
  0
VERTEX
  8
ガラス
 10
-3.7
 20
-33.475
 70
     8
  0
VERTEX
  8
ガラス
 10
-3.725
 20
-33.5
 70
     8
  0
VERTEX
  8
ガラス
 10
-3.775
 20
-33.5
 70
     8
  0
VERTEX
  8
ガラス
 10
-3.825
 20
-33.525
 70
     8
  0
VERTEX
  8
ガラス
 10
-3.85
 20
-33.55
 70
     8
  0
VERTEX
  8
ガラス
 10
-3.9
 20
-33.55
 70
     8
  0
VERTEX
  8
ガラス
 10
-3.925
 20
-33.575
 70
     8
  0
VERTEX
  8
ガラス
 10
-3.975
 20
-33.575
 70
     8
  0
VERTEX
  8
ガラス
 10
-4.025
 20
-33.6
 70
     8
  0
SEQEND
  0
ARC
  8
ガラス
  6
CONTINUOUS
 10
-4.244028
 20
-32.965483
 40
0.668594
 50
111.203091
 51
291.203091
  0
ENDBLK
  0
BLOCK
  2
*GRP_0007
 70
    65
 10
0.0
 20
0.0
  0
POLYLINE
  8
ガラス
  6
CONTINUOUS
 66
     1
 70
     4
  0
VERTEX
  8
ガラス
 10
-18.725
 20
-32.35
 70
     8
  0
VERTEX
  8
ガラス
 10
-18.675
 20
-32.35
 70
     8
  0
VERTEX
  8
ガラス
 10
-18.6
 20
-32.35
 70
     8
  0
VERTEX
  8
ガラス
 10
-18.525
 20
-32.325
 70
     8
  0
VERTEX
  8
ガラス
 10
-18.475
 20
-32.325
 70
     8
  0
VERTEX
  8
ガラス
 10
-18.4
 20
-32.325
 70
     8
  0
VERTEX
  8
ガラス
 10
-18.35
 20
-32.325
 70
     8
  0
VERTEX
  8
ガラス
 10
-18.275
 20
-32.325
 70
     8
  0
VERTEX
  8
ガラス
 10
-18.225
 20
-32.325
 70
     8
  0
VERTEX
  8
ガラス
 10
-18.15
 20
-32.325
 70
     8
  0
VERTEX
  8
ガラス
 10
-18.1
 20
-32.325
 70
     8
  0
VERTEX
  8
ガラス
 10
-18.025
 20
-32.325
 70
     8
  0
VERTEX
  8
ガラス
 10
-17.975
 20
-32.325
 70
     8
  0
VERTEX
  8
ガラス
 10
-17.9
 20
-32.325
 70
     8
  0
VERTEX
  8
ガラス
 10
-17.85
 20
-32.325
 70
     8
  0
VERTEX
  8
ガラス
 10
-17.775
 20
-32.325
 70
     8
  0
VERTEX
  8
ガラス
 10
-17.725
 20
-32.35
 70
     8
  0
VERTEX
  8
ガラス
 10
-17.675
 20
-32.35
 70
     8
  0
VERTEX
  8
ガラス
 10
-17.6
 20
-32.375
 70
     8
  0
VERTEX
  8
ガラス
 10
-17.55
 20
-32.4
 70
     8
  0
VERTEX
  8
ガラス
 10
-17.5
 20
-32.4
 70
     8
  0
VERTEX
  8
ガラス
 10
-17.45
 20
-32.425
 70
     8
  0
VERTEX
  8
ガラス
 10
-17.4
 20
-32.45
 70
     8
  0
VERTEX
  8
ガラス
 10
-17.35
 20
-32.475
 70
     8
  0
VERTEX
  8
ガラス
 10
-17.3
 20
-32.525
 70
     8
  0
VERTEX
  8
ガラス
 10
-17.25
 20
-32.55
 70
     8
  0
VERTEX
  8
ガラス
 10
-17.2
 20
-32.575
 70
     8
  0
VERTEX
  8
ガラス
 10
-17.15
 20
-32.625
 70
     8
  0
VERTEX
  8
ガラス
 10
-17.1
 20
-32.65
 70
     8
  0
VERTEX
  8
ガラス
 10
-17.05
 20
-32.7
 70
     8
  0
VERTEX
  8
ガラス
 10
-17.0
 20
-32.75
 70
     8
  0
VERTEX
  8
ガラス
 10
-16.975
 20
-32.775
 70
     8
  0
VERTEX
  8
ガラス
 10
-16.925
 20
-32.825
 70
     8
  0
VERTEX
  8
ガラス
 10
-16.875
 20
-32.875
 70
     8
  0
VERTEX
  8
ガラス
 10
-16.825
 20
-32.925
 70
     8
  0
VERTEX
  8
ガラス
 10
-16.8
 20
-32.975
 70
     8
  0
VERTEX
  8
ガラス
 10
-16.75
 20
-33.025
 70
     8
  0
VERTEX
  8
ガラス
 10
-16.7
 20
-33.075
 70
     8
  0
VERTEX
  8
ガラス
 10
-16.675
 20
-33.125
 70
     8
  0
VERTEX
  8
ガラス
 10
-16.625
 20
-33.175
 70
     8
  0
VERTEX
  8
ガラス
 10
-16.575
 20
-33.225
 70
     8
  0
SEQEND
  0
POLYLINE
  8
ガラス
  6
CONTINUOUS
 66
     1
 70
     4
  0
VERTEX
  8
ガラス
 10
-16.575
 20
-33.225
 70
     8
  0
VERTEX
  8
ガラス
 10
-16.625
 20
-33.225
 70
     8
  0
VERTEX
  8
ガラス
 10
-16.675
 20
-33.225
 70
     8
  0
VERTEX
  8
ガラス
 10
-16.7
 20
-33.225
 70
     8
  0
VERTEX
  8
ガラス
 10
-16.75
 20
-33.225
 70
     8
  0
VERTEX
  8
ガラス
 10
-16.8
 20
-33.225
 70
     8
  0
VERTEX
  8
ガラス
 10
-16.85
 20
-33.225
 70
     8
  0
VERTEX
  8
ガラス
 10
-16.875
 20
-33.25
 70
     8
  0
VERTEX
  8
ガラス
 10
-16.925
 20
-33.25
 70
     8
  0
VERTEX
  8
ガラス
 10
-16.975
 20
-33.25
 70
     8
  0
VERTEX
  8
ガラス
 10
-17.0
 20
-33.25
 70
     8
  0
VERTEX
  8
ガラス
 10
-17.05
 20
-33.25
 70
     8
  0
VERTEX
  8
ガラス
 10
-17.1
 20
-33.275
 70
     8
  0
VERTEX
  8
ガラス
 10
-17.15
 20
-33.275
 70
     8
  0
VERTEX
  8
ガラス
 10
-17.175
 20
-33.275
 70
     8
  0
VERTEX
  8
ガラス
 10
-17.225
 20
-33.275
 70
     8
  0
VERTEX
  8
ガラス
 10
-17.275
 20
-33.3
 70
     8
  0
VERTEX
  8
ガラス
 10
-17.3
 20
-33.3
 70
     8
  0
VERTEX
  8
ガラス
 10
-17.35
 20
-33.3
 70
     8
  0
VERTEX
  8
ガラス
 10
-17.4
 20
-33.325
 70
     8
  0
VERTEX
  8
ガラス
 10
-17.425
 20
-33.325
 70
     8
  0
VERTEX
  8
ガラス
 10
-17.475
 20
-33.325
 70
     8
  0
VERTEX
  8
ガラス
 10
-17.525
 20
-33.35
 70
     8
  0
VERTEX
  8
ガラス
 10
-17.55
 20
-33.35
 70
     8
  0
VERTEX
  8
ガラス
 10
-17.6
 20
-33.375
 70
     8
  0
VERTEX
  8
ガラス
 10
-17.65
 20
-33.375
 70
     8
  0
VERTEX
  8
ガラス
 10
-17.675
 20
-33.4
 70
     8
  0
VERTEX
  8
ガラス
 10
-17.725
 20
-33.4
 70
     8
  0
VERTEX
  8
ガラス
 10
-17.775
 20
-33.425
 70
     8
  0
VERTEX
  8
ガラス
 10
-17.8
 20
-33.425
 70
     8
  0
VERTEX
  8
ガラス
 10
-17.85
 20
-33.45
 70
     8
  0
VERTEX
  8
ガラス
 10
-17.875
 20
-33.45
 70
     8
  0
VERTEX
  8
ガラス
 10
-17.925
 20
-33.475
 70
     8
  0
VERTEX
  8
ガラス
 10
-17.975
 20
-33.5
 70
     8
  0
VERTEX
  8
ガラス
 10
-18.0
 20
-33.5
 70
     8
  0
VERTEX
  8
ガラス
 10
-18.05
 20
-33.525
 70
     8
  0
VERTEX
  8
ガラス
 10
-18.075
 20
-33.55
 70
     8
  0
VERTEX
  8
ガラス
 10
-18.125
 20
-33.55
 70
     8
  0
VERTEX
  8
ガラス
 10
-18.175
 20
-33.575
 70
     8
  0
VERTEX
  8
ガラス
 10
-18.2
 20
-33.575
 70
     8
  0
VERTEX
  8
ガラス
 10
-18.25
 20
-33.6
 70
     8
  0
SEQEND
  0
ARC
  8
ガラス
  6
CONTINUOUS
 10
-18.476107
 20
-32.965483
 40
0.668594
 50
111.203091
 51
291.203091
  0
ENDBLK
  0
BLOCK
  2
*GRP_0008
 70
    65
 10
0.0
 20
0.0
  0
POLYLINE
  8
ガラス
  6
CONTINUOUS
 66
     1
 70
     4
  0
VERTEX
  8
ガラス
 10
-31.55
 20
-32.35
 70
     8
  0
VERTEX
  8
ガラス
 10
-31.475
 20
-32.35
 70
     8
  0
VERTEX
  8
ガラス
 10
-31.425
 20
-32.35
 70
     8
  0
VERTEX
  8
ガラス
 10
-31.35
 20
-32.325
 70
     8
  0
VERTEX
  8
ガラス
 10
-31.3
 20
-32.325
 70
     8
  0
VERTEX
  8
ガラス
 10
-31.225
 20
-32.325
 70
     8
  0
VERTEX
  8
ガラス
 10
-31.15
 20
-32.325
 70
     8
  0
VERTEX
  8
ガラス
 10
-31.1
 20
-32.325
 70
     8
  0
VERTEX
  8
ガラス
 10
-31.025
 20
-32.325
 70
     8
  0
VERTEX
  8
ガラス
 10
-30.975
 20
-32.325
 70
     8
  0
VERTEX
  8
ガラス
 10
-30.9
 20
-32.325
 70
     8
  0
VERTEX
  8
ガラス
 10
-30.85
 20
-32.325
 70
     8
  0
VERTEX
  8
ガラス
 10
-30.775
 20
-32.325
 70
     8
  0
VERTEX
  8
ガラス
 10
-30.725
 20
-32.325
 70
     8
  0
VERTEX
  8
ガラス
 10
-30.65
 20
-32.325
 70
     8
  0
VERTEX
  8
ガラス
 10
-30.6
 20
-32.325
 70
     8
  0
VERTEX
  8
ガラス
 10
-30.55
 20
-32.35
 70
     8
  0
VERTEX
  8
ガラス
 10
-30.475
 20
-32.35
 70
     8
  0
VERTEX
  8
ガラス
 10
-30.425
 20
-32.375
 70
     8
  0
VERTEX
  8
ガラス
 10
-30.375
 20
-32.4
 70
     8
  0
VERTEX
  8
ガラス
 10
-30.325
 20
-32.4
 70
     8
  0
VERTEX
  8
ガラス
 10
-30.275
 20
-32.425
 70
     8
  0
VERTEX
  8
ガラス
 10
-30.225
 20
-32.45
 70
     8
  0
VERTEX
  8
ガラス
 10
-30.15
 20
-32.475
 70
     8
  0
VERTEX
  8
ガラス
 10
-30.1
 20
-32.525
 70
     8
  0
VERTEX
  8
ガラス
 10
-30.075
 20
-32.55
 70
     8
  0
VERTEX
  8
ガラス
 10
-30.025
 20
-32.575
 70
     8
  0
VERTEX
  8
ガラス
 10
-29.975
 20
-32.625
 70
     8
  0
VERTEX
  8
ガラス
 10
-29.925
 20
-32.65
 70
     8
  0
VERTEX
  8
ガラス
 10
-29.875
 20
-32.7
 70
     8
  0
VERTEX
  8
ガラス
 10
-29.825
 20
-32.75
 70
     8
  0
VERTEX
  8
ガラス
 10
-29.775
 20
-32.775
 70
     8
  0
VERTEX
  8
ガラス
 10
-29.75
 20
-32.825
 70
     8
  0
VERTEX
  8
ガラス
 10
-29.7
 20
-32.875
 70
     8
  0
VERTEX
  8
ガラス
 10
-29.65
 20
-32.925
 70
     8
  0
VERTEX
  8
ガラス
 10
-29.6
 20
-32.975
 70
     8
  0
VERTEX
  8
ガラス
 10
-29.575
 20
-33.025
 70
     8
  0
VERTEX
  8
ガラス
 10
-29.525
 20
-33.075
 70
     8
  0
VERTEX
  8
ガラス
 10
-29.475
 20
-33.125
 70
     8
  0
VERTEX
  8
ガラス
 10
-29.45
 20
-33.175
 70
     8
  0
VERTEX
  8
ガラス
 10
-29.4
 20
-33.225
 70
     8
  0
SEQEND
  0
POLYLINE
  8
ガラス
  6
CONTINUOUS
 66
     1
 70
     4
  0
VERTEX
  8
ガラス
 10
-29.4
 20
-33.225
 70
     8
  0
VERTEX
  8
ガラス
 10
-29.45
 20
-33.225
 70
     8
  0
VERTEX
  8
ガラス
 10
-29.475
 20
-33.225
 70
     8
  0
VERTEX
  8
ガラス
 10
-29.525
 20
-33.225
 70
     8
  0
VERTEX
  8
ガラス
 10
-29.575
 20
-33.225
 70
     8
  0
VERTEX
  8
ガラス
 10
-29.625
 20
-33.225
 70
     8
  0
VERTEX
  8
ガラス
 10
-29.65
 20
-33.225
 70
     8
  0
VERTEX
  8
ガラス
 10
-29.7
 20
-33.25
 70
     8
  0
VERTEX
  8
ガラス
 10
-29.75
 20
-33.25
 70
     8
  0
VERTEX
  8
ガラス
 10
-29.775
 20
-33.25
 70
     8
  0
VERTEX
  8
ガラス
 10
-29.825
 20
-33.25
 70
     8
  0
VERTEX
  8
ガラス
 10
-29.875
 20
-33.25
 70
     8
  0
VERTEX
  8
ガラス
 10
-29.925
 20
-33.275
 70
     8
  0
VERTEX
  8
ガラス
 10
-29.95
 20
-33.275
 70
     8
  0
VERTEX
  8
ガラス
 10
-30.0
 20
-33.275
 70
     8
  0
VERTEX
  8
ガラス
 10
-30.05
 20
-33.275
 70
     8
  0
VERTEX
  8
ガラス
 10
-30.075
 20
-33.3
 70
     8
  0
VERTEX
  8
ガラス
 10
-30.125
 20
-33.3
 70
     8
  0
VERTEX
  8
ガラス
 10
-30.175
 20
-33.3
 70
     8
  0
VERTEX
  8
ガラス
 10
-30.2
 20
-33.325
 70
     8
  0
VERTEX
  8
ガラス
 10
-30.25
 20
-33.325
 70
     8
  0
VERTEX
  8
ガラス
 10
-30.3
 20
-33.325
 70
     8
  0
VERTEX
  8
ガラス
 10
-30.325
 20
-33.35
 70
     8
  0
VERTEX
  8
ガラス
 10
-30.375
 20
-33.35
 70
     8
  0
VERTEX
  8
ガラス
 10
-30.425
 20
-33.375
 70
     8
  0
VERTEX
  8
ガラス
 10
-30.45
 20
-33.375
 70
     8
  0
VERTEX
  8
ガラス
 10
-30.5
 20
-33.4
 70
     8
  0
VERTEX
  8
ガラス
 10
-30.55
 20
-33.4
 70
     8
  0
VERTEX
  8
ガラス
 10
-30.575
 20
-33.425
 70
     8
  0
VERTEX
  8
ガラス
 10
-30.625
 20
-33.425
 70
     8
  0
VERTEX
  8
ガラス
 10
-30.65
 20
-33.45
 70
     8
  0
VERTEX
  8
ガラス
 10
-30.7
 20
-33.45
 70
     8
  0
VERTEX
  8
ガラス
 10
-30.75
 20
-33.475
 70
     8
  0
VERTEX
  8
ガラス
 10
-30.775
 20
-33.5
 70
     8
  0
VERTEX
  8
ガラス
 10
-30.825
 20
-33.5
 70
     8
  0
VERTEX
  8
ガラス
 10
-30.875
 20
-33.525
 70
     8
  0
VERTEX
  8
ガラス
 10
-30.9
 20
-33.55
 70
     8
  0
VERTEX
  8
ガラス
 10
-30.95
 20
-33.55
 70
     8
  0
VERTEX
  8
ガラス
 10
-30.975
 20
-33.575
 70
     8
  0
VERTEX
  8
ガラス
 10
-31.025
 20
-33.575
 70
     8
  0
VERTEX
  8
ガラス
 10
-31.075
 20
-33.6
 70
     8
  0
SEQEND
  0
ARC
  8
ガラス
  6
CONTINUOUS
 10
-31.294162
 20
-32.965483
 40
0.668594
 50
111.203091
 51
291.203091
  0
ENDBLK
  0
BLOCK
  2
*GRP_0009
 70
    65
 10
0.0
 20
0.0
  0
POLYLINE
  8
ガラス
  6
CONTINUOUS
 66
     1
 70
     4
  0
VERTEX
  8
ガラス
 10
-47.075
 20
-32.35
 70
     8
  0
VERTEX
  8
ガラス
 10
-47.0
 20
-32.35
 70
     8
  0
VERTEX
  8
ガラス
 10
-46.95
 20
-32.35
 70
     8
  0
VERTEX
  8
ガラス
 10
-46.875
 20
-32.325
 70
     8
  0
VERTEX
  8
ガラス
 10
-46.825
 20
-32.325
 70
     8
  0
VERTEX
  8
ガラス
 10
-46.75
 20
-32.325
 70
     8
  0
VERTEX
  8
ガラス
 10
-46.675
 20
-32.325
 70
     8
  0
VERTEX
  8
ガラス
 10
-46.625
 20
-32.325
 70
     8
  0
VERTEX
  8
ガラス
 10
-46.55
 20
-32.325
 70
     8
  0
VERTEX
  8
ガラス
 10
-46.5
 20
-32.325
 70
     8
  0
VERTEX
  8
ガラス
 10
-46.425
 20
-32.325
 70
     8
  0
VERTEX
  8
ガラス
 10
-46.375
 20
-32.325
 70
     8
  0
VERTEX
  8
ガラス
 10
-46.3
 20
-32.325
 70
     8
  0
VERTEX
  8
ガラス
 10
-46.25
 20
-32.325
 70
     8
  0
VERTEX
  8
ガラス
 10
-46.2
 20
-32.325
 70
     8
  0
VERTEX
  8
ガラス
 10
-46.125
 20
-32.325
 70
     8
  0
VERTEX
  8
ガラス
 10
-46.075
 20
-32.35
 70
     8
  0
VERTEX
  8
ガラス
 10
-46.025
 20
-32.35
 70
     8
  0
VERTEX
  8
ガラス
 10
-45.95
 20
-32.375
 70
     8
  0
VERTEX
  8
ガラス
 10
-45.9
 20
-32.4
 70
     8
  0
VERTEX
  8
ガラス
 10
-45.85
 20
-32.4
 70
     8
  0
VERTEX
  8
ガラス
 10
-45.8
 20
-32.425
 70
     8
  0
VERTEX
  8
ガラス
 10
-45.75
 20
-32.45
 70
     8
  0
VERTEX
  8
ガラス
 10
-45.7
 20
-32.475
 70
     8
  0
VERTEX
  8
ガラス
 10
-45.65
 20
-32.525
 70
     8
  0
VERTEX
  8
ガラス
 10
-45.6
 20
-32.55
 70
     8
  0
VERTEX
  8
ガラス
 10
-45.55
 20
-32.575
 70
     8
  0
VERTEX
  8
ガラス
 10
-45.5
 20
-32.625
 70
     8
  0
VERTEX
  8
ガラス
 10
-45.45
 20
-32.65
 70
     8
  0
VERTEX
  8
ガラス
 10
-45.4
 20
-32.7
 70
     8
  0
VERTEX
  8
ガラス
 10
-45.35
 20
-32.75
 70
     8
  0
VERTEX
  8
ガラス
 10
-45.325
 20
-32.775
 70
     8
  0
VERTEX
  8
ガラス
 10
-45.275
 20
-32.825
 70
     8
  0
VERTEX
  8
ガラス
 10
-45.225
 20
-32.875
 70
     8
  0
VERTEX
  8
ガラス
 10
-45.175
 20
-32.925
 70
     8
  0
VERTEX
  8
ガラス
 10
-45.15
 20
-32.975
 70
     8
  0
VERTEX
  8
ガラス
 10
-45.1
 20
-33.025
 70
     8
  0
VERTEX
  8
ガラス
 10
-45.05
 20
-33.075
 70
     8
  0
VERTEX
  8
ガラス
 10
-45.025
 20
-33.125
 70
     8
  0
VERTEX
  8
ガラス
 10
-44.975
 20
-33.175
 70
     8
  0
VERTEX
  8
ガラス
 10
-44.925
 20
-33.225
 70
     8
  0
SEQEND
  0
POLYLINE
  8
ガラス
  6
CONTINUOUS
 66
     1
 70
     4
  0
VERTEX
  8
ガラス
 10
-44.925
 20
-33.225
 70
     8
  0
VERTEX
  8
ガラス
 10
-44.975
 20
-33.225
 70
     8
  0
VERTEX
  8
ガラス
 10
-45.025
 20
-33.225
 70
     8
  0
VERTEX
  8
ガラス
 10
-45.05
 20
-33.225
 70
     8
  0
VERTEX
  8
ガラス
 10
-45.1
 20
-33.225
 70
     8
  0
VERTEX
  8
ガラス
 10
-45.15
 20
-33.225
 70
     8
  0
VERTEX
  8
ガラス
 10
-45.175
 20
-33.225
 70
     8
  0
VERTEX
  8
ガラス
 10
-45.225
 20
-33.25
 70
     8
  0
VERTEX
  8
ガラス
 10
-45.275
 20
-33.25
 70
     8
  0
VERTEX
  8
ガラス
 10
-45.325
 20
-33.25
 70
     8
  0
VERTEX
  8
ガラス
 10
-45.35
 20
-33.25
 70
     8
  0
VERTEX
  8
ガラス
 10
-45.4
 20
-33.25
 70
     8
  0
VERTEX
  8
ガラス
 10
-45.45
 20
-33.275
 70
     8
  0
VERTEX
  8
ガラス
 10
-45.475
 20
-33.275
 70
     8
  0
VERTEX
  8
ガラス
 10
-45.525
 20
-33.275
 70
     8
  0
VERTEX
  8
ガラス
 10
-45.575
 20
-33.275
 70
     8
  0
VERTEX
  8
ガラス
 10
-45.6
 20
-33.3
 70
     8
  0
VERTEX
  8
ガラス
 10
-45.65
 20
-33.3
 70
     8
  0
VERTEX
  8
ガラス
 10
-45.7
 20
-33.3
 70
     8
  0
VERTEX
  8
ガラス
 10
-45.75
 20
-33.325
 70
     8
  0
VERTEX
  8
ガラス
 10
-45.775
 20
-33.325
 70
     8
  0
VERTEX
  8
ガラス
 10
-45.825
 20
-33.325
 70
     8
  0
VERTEX
  8
ガラス
 10
-45.875
 20
-33.35
 70
     8
  0
VERTEX
  8
ガラス
 10
-45.9
 20
-33.35
 70
     8
  0
VERTEX
  8
ガラス
 10
-45.95
 20
-33.375
 70
     8
  0
VERTEX
  8
ガラス
 10
-45.975
 20
-33.375
 70
     8
  0
VERTEX
  8
ガラス
 10
-46.025
 20
-33.4
 70
     8
  0
VERTEX
  8
ガラス
 10
-46.075
 20
-33.4
 70
     8
  0
VERTEX
  8
ガラス
 10
-46.1
 20
-33.425
 70
     8
  0
VERTEX
  8
ガラス
 10
-46.15
 20
-33.425
 70
     8
  0
VERTEX
  8
ガラス
 10
-46.2
 20
-33.45
 70
     8
  0
VERTEX
  8
ガラス
 10
-46.225
 20
-33.45
 70
     8
  0
VERTEX
  8
ガラス
 10
-46.275
 20
-33.475
 70
     8
  0
VERTEX
  8
ガラス
 10
-46.3
 20
-33.5
 70
     8
  0
VERTEX
  8
ガラス
 10
-46.35
 20
-33.5
 70
     8
  0
VERTEX
  8
ガラス
 10
-46.4
 20
-33.525
 70
     8
  0
VERTEX
  8
ガラス
 10
-46.425
 20
-33.55
 70
     8
  0
VERTEX
  8
ガラス
 10
-46.475
 20
-33.55
 70
     8
  0
VERTEX
  8
ガラス
 10
-46.5
 20
-33.575
 70
     8
  0
VERTEX
  8
ガラス
 10
-46.55
 20
-33.575
 70
     8
  0
VERTEX
  8
ガラス
 10
-46.6
 20
-33.6
 70
     8
  0
SEQEND
  0
ARC
  8
ガラス
  6
CONTINUOUS
 10
-46.821966
 20
-32.965483
 40
0.668594
 50
111.203091
 51
291.203091
  0
ENDBLK
  0
BLOCK
  2
*GRP_0010
 70
    65
 10
0.0
 20
0.0
  0
POLYLINE
  8
ガラス
  6
CONTINUOUS
 66
     1
 70
     4
  0
VERTEX
  8
ガラス
 10
-52.025
 20
-40.475
 70
     8
  0
VERTEX
  8
ガラス
 10
-52.0
 20
-40.4
 70
     8
  0
VERTEX
  8
ガラス
 10
-52.0
 20
-40.325
 70
     8
  0
VERTEX
  8
ガラス
 10
-51.975
 20
-40.275
 70
     8
  0
VERTEX
  8
ガラス
 10
-51.95
 20
-40.2
 70
     8
  0
VERTEX
  8
ガラス
 10
-51.925
 20
-40.15
 70
     8
  0
VERTEX
  8
ガラス
 10
-51.925
 20
-40.1
 70
     8
  0
VERTEX
  8
ガラス
 10
-51.9
 20
-40.025
 70
     8
  0
VERTEX
  8
ガラス
 10
-51.875
 20
-39.975
 70
     8
  0
VERTEX
  8
ガラス
 10
-51.85
 20
-39.9
 70
     8
  0
VERTEX
  8
ガラス
 10
-51.825
 20
-39.85
 70
     8
  0
VERTEX
  8
ガラス
 10
-51.8
 20
-39.8
 70
     8
  0
VERTEX
  8
ガラス
 10
-51.775
 20
-39.725
 70
     8
  0
VERTEX
  8
ガラス
 10
-51.75
 20
-39.675
 70
     8
  0
VERTEX
  8
ガラス
 10
-51.725
 20
-39.625
 70
     8
  0
VERTEX
  8
ガラス
 10
-51.7
 20
-39.575
 70
     8
  0
VERTEX
  8
ガラス
 10
-51.675
 20
-39.525
 70
     8
  0
VERTEX
  8
ガラス
 10
-51.625
 20
-39.475
 70
     8
  0
VERTEX
  8
ガラス
 10
-51.6
 20
-39.425
 70
     8
  0
VERTEX
  8
ガラス
 10
-51.575
 20
-39.375
 70
     8
  0
VERTEX
  8
ガラス
 10
-51.525
 20
-39.325
 70
     8
  0
VERTEX
  8
ガラス
 10
-51.5
 20
-39.3
 70
     8
  0
VERTEX
  8
ガラス
 10
-51.45
 20
-39.25
 70
     8
  0
VERTEX
  8
ガラス
 10
-51.4
 20
-39.225
 70
     8
  0
VERTEX
  8
ガラス
 10
-51.35
 20
-39.175
 70
     8
  0
VERTEX
  8
ガラス
 10
-51.3
 20
-39.15
 70
     8
  0
VERTEX
  8
ガラス
 10
-51.25
 20
-39.125
 70
     8
  0
VERTEX
  8
ガラス
 10
-51.2
 20
-39.075
 70
     8
  0
VERTEX
  8
ガラス
 10
-51.15
 20
-39.05
 70
     8
  0
VERTEX
  8
ガラス
 10
-51.1
 20
-39.025
 70
     8
  0
VERTEX
  8
ガラス
 10
-51.05
 20
-39.0
 70
     8
  0
VERTEX
  8
ガラス
 10
-51.0
 20
-38.975
 70
     8
  0
VERTEX
  8
ガラス
 10
-50.925
 20
-38.95
 70
     8
  0
VERTEX
  8
ガラス
 10
-50.875
 20
-38.925
 70
     8
  0
VERTEX
  8
ガラス
 10
-50.825
 20
-38.9
 70
     8
  0
VERTEX
  8
ガラス
 10
-50.75
 20
-38.875
 70
     8
  0
VERTEX
  8
ガラス
 10
-50.7
 20
-38.85
 70
     8
  0
VERTEX
  8
ガラス
 10
-50.625
 20
-38.825
 70
     8
  0
VERTEX
  8
ガラス
 10
-50.575
 20
-38.825
 70
     8
  0
VERTEX
  8
ガラス
 10
-50.5
 20
-38.8
 70
     8
  0
VERTEX
  8
ガラス
 10
-50.45
 20
-38.775
 70
     8
  0
SEQEND
  0
POLYLINE
  8
ガラス
  6
CONTINUOUS
 66
     1
 70
     4
  0
VERTEX
  8
ガラス
 10
-50.45
 20
-38.775
 70
     8
  0
VERTEX
  8
ガラス
 10
-50.45
 20
-38.825
 70
     8
  0
VERTEX
  8
ガラス
 10
-50.475
 20
-38.85
 70
     8
  0
VERTEX
  8
ガラス
 10
-50.475
 20
-38.9
 70
     8
  0
VERTEX
  8
ガラス
 10
-50.5
 20
-38.95
 70
     8
  0
VERTEX
  8
ガラス
 10
-50.5
 20
-38.975
 70
     8
  0
VERTEX
  8
ガラス
 10
-50.525
 20
-39.025
 70
     8
  0
VERTEX
  8
ガラス
 10
-50.525
 20
-39.05
 70
     8
  0
VERTEX
  8
ガラス
 10
-50.55
 20
-39.1
 70
     8
  0
VERTEX
  8
ガラス
 10
-50.55
 20
-39.15
 70
     8
  0
VERTEX
  8
ガラス
 10
-50.575
 20
-39.175
 70
     8
  0
VERTEX
  8
ガラス
 10
-50.575
 20
-39.225
 70
     8
  0
VERTEX
  8
ガラス
 10
-50.575
 20
-39.275
 70
     8
  0
VERTEX
  8
ガラス
 10
-50.6
 20
-39.3
 70
     8
  0
VERTEX
  8
ガラス
 10
-50.6
 20
-39.35
 70
     8
  0
VERTEX
  8
ガラス
 10
-50.6
 20
-39.4
 70
     8
  0
VERTEX
  8
ガラス
 10
-50.625
 20
-39.45
 70
     8
  0
VERTEX
  8
ガラス
 10
-50.625
 20
-39.475
 70
     8
  0
VERTEX
  8
ガラス
 10
-50.625
 20
-39.525
 70
     8
  0
VERTEX
  8
ガラス
 10
-50.65
 20
-39.575
 70
     8
  0
VERTEX
  8
ガラス
 10
-50.65
 20
-39.6
 70
     8
  0
VERTEX
  8
ガラス
 10
-50.65
 20
-39.65
 70
     8
  0
VERTEX
  8
ガラス
 10
-50.65
 20
-39.7
 70
     8
  0
VERTEX
  8
ガラス
 10
-50.675
 20
-39.725
 70
     8
  0
VERTEX
  8
ガラス
 10
-50.675
 20
-39.775
 70
     8
  0
VERTEX
  8
ガラス
 10
-50.675
 20
-39.825
 70
     8
  0
VERTEX
  8
ガラス
 10
-50.675
 20
-39.85
 70
     8
  0
VERTEX
  8
ガラス
 10
-50.675
 20
-39.9
 70
     8
  0
VERTEX
  8
ガラス
 10
-50.675
 20
-39.95
 70
     8
  0
VERTEX
  8
ガラス
 10
-50.675
 20
-40.0
 70
     8
  0
VERTEX
  8
ガラス
 10
-50.675
 20
-40.025
 70
     8
  0
VERTEX
  8
ガラス
 10
-50.675
 20
-40.075
 70
     8
  0
VERTEX
  8
ガラス
 10
-50.675
 20
-40.125
 70
     8
  0
VERTEX
  8
ガラス
 10
-50.7
 20
-40.15
 70
     8
  0
VERTEX
  8
ガラス
 10
-50.7
 20
-40.2
 70
     8
  0
VERTEX
  8
ガラス
 10
-50.7
 20
-40.25
 70
     8
  0
VERTEX
  8
ガラス
 10
-50.7
 20
-40.3
 70
     8
  0
VERTEX
  8
ガラス
 10
-50.7
 20
-40.325
 70
     8
  0
VERTEX
  8
ガラス
 10
-50.7
 20
-40.375
 70
     8
  0
VERTEX
  8
ガラス
 10
-50.7
 20
-40.425
 70
     8
  0
VERTEX
  8
ガラス
 10
-50.7
 20
-40.475
 70
     8
  0
SEQEND
  0
ARC
  8
ガラス
  6
CONTINUOUS
 10
-51.344046
 20
-40.450845
 40
0.668594
 50
180.0
 51
360.0
  0
ENDBLK
  0
BLOCK
  2
*GRP_0011
 70
    65
 10
0.0
 20
0.0
  0
POLYLINE
  8
ガラス
  6
CONTINUOUS
 66
     1
 70
     4
  0
VERTEX
  8
ガラス
 10
-52.025
 20
-54.675
 70
     8
  0
VERTEX
  8
ガラス
 10
-52.0
 20
-54.625
 70
     8
  0
VERTEX
  8
ガラス
 10
-52.0
 20
-54.55
 70
     8
  0
VERTEX
  8
ガラス
 10
-51.975
 20
-54.5
 70
     8
  0
VERTEX
  8
ガラス
 10
-51.95
 20
-54.425
 70
     8
  0
VERTEX
  8
ガラス
 10
-51.925
 20
-54.375
 70
     8
  0
VERTEX
  8
ガラス
 10
-51.925
 20
-54.3
 70
     8
  0
VERTEX
  8
ガラス
 10
-51.9
 20
-54.25
 70
     8
  0
VERTEX
  8
ガラス
 10
-51.875
 20
-54.175
 70
     8
  0
VERTEX
  8
ガラス
 10
-51.85
 20
-54.125
 70
     8
  0
VERTEX
  8
ガラス
 10
-51.825
 20
-54.075
 70
     8
  0
VERTEX
  8
ガラス
 10
-51.8
 20
-54.0
 70
     8
  0
VERTEX
  8
ガラス
 10
-51.775
 20
-53.95
 70
     8
  0
VERTEX
  8
ガラス
 10
-51.75
 20
-53.9
 70
     8
  0
VERTEX
  8
ガラス
 10
-51.725
 20
-53.85
 70
     8
  0
VERTEX
  8
ガラス
 10
-51.7
 20
-53.8
 70
     8
  0
VERTEX
  8
ガラス
 10
-51.675
 20
-53.75
 70
     8
  0
VERTEX
  8
ガラス
 10
-51.625
 20
-53.7
 70
     8
  0
VERTEX
  8
ガラス
 10
-51.6
 20
-53.65
 70
     8
  0
VERTEX
  8
ガラス
 10
-51.575
 20
-53.6
 70
     8
  0
VERTEX
  8
ガラス
 10
-51.525
 20
-53.55
 70
     8
  0
VERTEX
  8
ガラス
 10
-51.5
 20
-53.5
 70
     8
  0
VERTEX
  8
ガラス
 10
-51.45
 20
-53.475
 70
     8
  0
VERTEX
  8
ガラス
 10
-51.4
 20
-53.425
 70
     8
  0
VERTEX
  8
ガラス
 10
-51.35
 20
-53.4
 70
     8
  0
VERTEX
  8
ガラス
 10
-51.3
 20
-53.375
 70
     8
  0
VERTEX
  8
ガラス
 10
-51.25
 20
-53.325
 70
     8
  0
VERTEX
  8
ガラス
 10
-51.2
 20
-53.3
 70
     8
  0
VERTEX
  8
ガラス
 10
-51.15
 20
-53.275
 70
     8
  0
VERTEX
  8
ガラス
 10
-51.1
 20
-53.25
 70
     8
  0
VERTEX
  8
ガラス
 10
-51.05
 20
-53.225
 70
     8
  0
VERTEX
  8
ガラス
 10
-51.0
 20
-53.2
 70
     8
  0
VERTEX
  8
ガラス
 10
-50.925
 20
-53.175
 70
     8
  0
VERTEX
  8
ガラス
 10
-50.875
 20
-53.15
 70
     8
  0
VERTEX
  8
ガラス
 10
-50.825
 20
-53.125
 70
     8
  0
VERTEX
  8
ガラス
 10
-50.75
 20
-53.1
 70
     8
  0
VERTEX
  8
ガラス
 10
-50.7
 20
-53.075
 70
     8
  0
VERTEX
  8
ガラス
 10
-50.625
 20
-53.05
 70
     8
  0
VERTEX
  8
ガラス
 10
-50.575
 20
-53.025
 70
     8
  0
VERTEX
  8
ガラス
 10
-50.5
 20
-53.0
 70
     8
  0
VERTEX
  8
ガラス
 10
-50.45
 20
-52.975
 70
     8
  0
SEQEND
  0
POLYLINE
  8
ガラス
  6
CONTINUOUS
 66
     1
 70
     4
  0
VERTEX
  8
ガラス
 10
-50.45
 20
-52.975
 70
     8
  0
VERTEX
  8
ガラス
 10
-50.45
 20
-53.025
 70
     8
  0
VERTEX
  8
ガラス
 10
-50.475
 20
-53.075
 70
     8
  0
VERTEX
  8
ガラス
 10
-50.475
 20
-53.1
 70
     8
  0
VERTEX
  8
ガラス
 10
-50.5
 20
-53.15
 70
     8
  0
VERTEX
  8
ガラス
 10
-50.5
 20
-53.2
 70
     8
  0
VERTEX
  8
ガラス
 10
-50.525
 20
-53.225
 70
     8
  0
VERTEX
  8
ガラス
 10
-50.525
 20
-53.275
 70
     8
  0
VERTEX
  8
ガラス
 10
-50.55
 20
-53.325
 70
     8
  0
VERTEX
  8
ガラス
 10
-50.55
 20
-53.35
 70
     8
  0
VERTEX
  8
ガラス
 10
-50.575
 20
-53.4
 70
     8
  0
VERTEX
  8
ガラス
 10
-50.575
 20
-53.45
 70
     8
  0
VERTEX
  8
ガラス
 10
-50.575
 20
-53.475
 70
     8
  0
VERTEX
  8
ガラス
 10
-50.6
 20
-53.525
 70
     8
  0
VERTEX
  8
ガラス
 10
-50.6
 20
-53.575
 70
     8
  0
VERTEX
  8
ガラス
 10
-50.6
 20
-53.6
 70
     8
  0
VERTEX
  8
ガラス
 10
-50.625
 20
-53.65
 70
     8
  0
VERTEX
  8
ガラス
 10
-50.625
 20
-53.7
 70
     8
  0
VERTEX
  8
ガラス
 10
-50.625
 20
-53.725
 70
     8
  0
VERTEX
  8
ガラス
 10
-50.65
 20
-53.775
 70
     8
  0
VERTEX
  8
ガラス
 10
-50.65
 20
-53.825
 70
     8
  0
VERTEX
  8
ガラス
 10
-50.65
 20
-53.875
 70
     8
  0
VERTEX
  8
ガラス
 10
-50.65
 20
-53.9
 70
     8
  0
VERTEX
  8
ガラス
 10
-50.675
 20
-53.95
 70
     8
  0
VERTEX
  8
ガラス
 10
-50.675
 20
-54.0
 70
     8
  0
VERTEX
  8
ガラス
 10
-50.675
 20
-54.025
 70
     8
  0
VERTEX
  8
ガラス
 10
-50.675
 20
-54.075
 70
     8
  0
VERTEX
  8
ガラス
 10
-50.675
 20
-54.125
 70
     8
  0
VERTEX
  8
ガラス
 10
-50.675
 20
-54.15
 70
     8
  0
VERTEX
  8
ガラス
 10
-50.675
 20
-54.2
 70
     8
  0
VERTEX
  8
ガラス
 10
-50.675
 20
-54.25
 70
     8
  0
VERTEX
  8
ガラス
 10
-50.675
 20
-54.3
 70
     8
  0
VERTEX
  8
ガラス
 10
-50.675
 20
-54.325
 70
     8
  0
VERTEX
  8
ガラス
 10
-50.7
 20
-54.375
 70
     8
  0
VERTEX
  8
ガラス
 10
-50.7
 20
-54.425
 70
     8
  0
VERTEX
  8
ガラス
 10
-50.7
 20
-54.475
 70
     8
  0
VERTEX
  8
ガラス
 10
-50.7
 20
-54.5
 70
     8
  0
VERTEX
  8
ガラス
 10
-50.7
 20
-54.55
 70
     8
  0
VERTEX
  8
ガラス
 10
-50.7
 20
-54.6
 70
     8
  0
VERTEX
  8
ガラス
 10
-50.7
 20
-54.625
 70
     8
  0
VERTEX
  8
ガラス
 10
-50.7
 20
-54.675
 70
     8
  0
SEQEND
  0
ARC
  8
ガラス
  6
CONTINUOUS
 10
-51.344046
 20
-54.66561
 40
0.668594
 50
180.0
 51
360.0
  0
ENDBLK
  0
BLOCK
  2
*GRP_0012
 70
    65
 10
0.0
 20
0.0
  0
POLYLINE
  8
ガラス
  6
CONTINUOUS
 66
     1
 70
     4
  0
VERTEX
  8
ガラス
 10
-70.05
 20
-58.2
 70
     8
  0
VERTEX
  8
ガラス
 10
-70.0
 20
-58.175
 70
     8
  0
VERTEX
  8
ガラス
 10
-69.925
 20
-58.175
 70
     8
  0
VERTEX
  8
ガラス
 10
-69.875
 20
-58.175
 70
     8
  0
VERTEX
  8
ガラス
 10
-69.8
 20
-58.175
 70
     8
  0
VERTEX
  8
ガラス
 10
-69.725
 20
-58.15
 70
     8
  0
VERTEX
  8
ガラス
 10
-69.675
 20
-58.15
 70
     8
  0
VERTEX
  8
ガラス
 10
-69.6
 20
-58.15
 70
     8
  0
VERTEX
  8
ガラス
 10
-69.55
 20
-58.15
 70
     8
  0
VERTEX
  8
ガラス
 10
-69.475
 20
-58.15
 70
     8
  0
VERTEX
  8
ガラス
 10
-69.425
 20
-58.15
 70
     8
  0
VERTEX
  8
ガラス
 10
-69.35
 20
-58.15
 70
     8
  0
VERTEX
  8
ガラス
 10
-69.3
 20
-58.15
 70
     8
  0
VERTEX
  8
ガラス
 10
-69.225
 20
-58.15
 70
     8
  0
VERTEX
  8
ガラス
 10
-69.175
 20
-58.175
 70
     8
  0
VERTEX
  8
ガラス
 10
-69.1
 20
-58.175
 70
     8
  0
VERTEX
  8
ガラス
 10
-69.05
 20
-58.175
 70
     8
  0
VERTEX
  8
ガラス
 10
-69.0
 20
-58.2
 70
     8
  0
VERTEX
  8
ガラス
 10
-68.95
 20
-58.2
 70
     8
  0
VERTEX
  8
ガラス
 10
-68.875
 20
-58.225
 70
     8
  0
VERTEX
  8
ガラス
 10
-68.825
 20
-58.25
 70
     8
  0
VERTEX
  8
ガラス
 10
-68.775
 20
-58.275
 70
     8
  0
VERTEX
  8
ガラス
 10
-68.725
 20
-58.3
 70
     8
  0
VERTEX
  8
ガラス
 10
-68.675
 20
-58.325
 70
     8
  0
VERTEX
  8
ガラス
 10
-68.625
 20
-58.35
 70
     8
  0
VERTEX
  8
ガラス
 10
-68.575
 20
-58.375
 70
     8
  0
VERTEX
  8
ガラス
 10
-68.525
 20
-58.425
 70
     8
  0
VERTEX
  8
ガラス
 10
-68.475
 20
-58.45
 70
     8
  0
VERTEX
  8
ガラス
 10
-68.425
 20
-58.5
 70
     8
  0
VERTEX
  8
ガラス
 10
-68.375
 20
-58.525
 70
     8
  0
VERTEX
  8
ガラス
 10
-68.35
 20
-58.575
 70
     8
  0
VERTEX
  8
ガラス
 10
-68.3
 20
-58.625
 70
     8
  0
VERTEX
  8
ガラス
 10
-68.25
 20
-58.65
 70
     8
  0
VERTEX
  8
ガラス
 10
-68.2
 20
-58.7
 70
     8
  0
VERTEX
  8
ガラス
 10
-68.175
 20
-58.75
 70
     8
  0
VERTEX
  8
ガラス
 10
-68.125
 20
-58.8
 70
     8
  0
VERTEX
  8
ガラス
 10
-68.075
 20
-58.85
 70
     8
  0
VERTEX
  8
ガラス
 10
-68.025
 20
-58.9
 70
     8
  0
VERTEX
  8
ガラス
 10
-68.0
 20
-58.95
 70
     8
  0
VERTEX
  8
ガラス
 10
-67.95
 20
-59.0
 70
     8
  0
VERTEX
  8
ガラス
 10
-67.9
 20
-59.05
 70
     8
  0
SEQEND
  0
POLYLINE
  8
ガラス
  6
CONTINUOUS
 66
     1
 70
     4
  0
VERTEX
  8
ガラス
 10
-67.9
 20
-59.05
 70
     8
  0
VERTEX
  8
ガラス
 10
-67.95
 20
-59.05
 70
     8
  0
VERTEX
  8
ガラス
 10
-68.0
 20
-59.05
 70
     8
  0
VERTEX
  8
ガラス
 10
-68.05
 20
-59.05
 70
     8
  0
VERTEX
  8
ガラス
 10
-68.075
 20
-59.075
 70
     8
  0
VERTEX
  8
ガラス
 10
-68.125
 20
-59.075
 70
     8
  0
VERTEX
  8
ガラス
 10
-68.175
 20
-59.075
 70
     8
  0
VERTEX
  8
ガラス
 10
-68.2
 20
-59.075
 70
     8
  0
VERTEX
  8
ガラス
 10
-68.25
 20
-59.075
 70
     8
  0
VERTEX
  8
ガラス
 10
-68.3
 20
-59.075
 70
     8
  0
VERTEX
  8
ガラス
 10
-68.35
 20
-59.1
 70
     8
  0
VERTEX
  8
ガラス
 10
-68.375
 20
-59.1
 70
     8
  0
VERTEX
  8
ガラス
 10
-68.425
 20
-59.1
 70
     8
  0
VERTEX
  8
ガラス
 10
-68.475
 20
-59.1
 70
     8
  0
VERTEX
  8
ガラス
 10
-68.5
 20
-59.125
 70
     8
  0
VERTEX
  8
ガラス
 10
-68.55
 20
-59.125
 70
     8
  0
VERTEX
  8
ガラス
 10
-68.6
 20
-59.125
 70
     8
  0
VERTEX
  8
ガラス
 10
-68.625
 20
-59.125
 70
     8
  0
VERTEX
  8
ガラス
 10
-68.675
 20
-59.15
 70
     8
  0
VERTEX
  8
ガラス
 10
-68.725
 20
-59.15
 70
     8
  0
VERTEX
  8
ガラス
 10
-68.75
 20
-59.15
 70
     8
  0
VERTEX
  8
ガラス
 10
-68.8
 20
-59.175
 70
     8
  0
VERTEX
  8
ガラス
 10
-68.85
 20
-59.175
 70
     8
  0
VERTEX
  8
ガラス
 10
-68.875
 20
-59.2
 70
     8
  0
VERTEX
  8
ガラス
 10
-68.925
 20
-59.2
 70
     8
  0
VERTEX
  8
ガラス
 10
-68.975
 20
-59.225
 70
     8
  0
VERTEX
  8
ガラス
 10
-69.0
 20
-59.225
 70
     8
  0
VERTEX
  8
ガラス
 10
-69.05
 20
-59.25
 70
     8
  0
VERTEX
  8
ガラス
 10
-69.1
 20
-59.25
 70
     8
  0
VERTEX
  8
ガラス
 10
-69.125
 20
-59.275
 70
     8
  0
VERTEX
  8
ガラス
 10
-69.175
 20
-59.275
 70
     8
  0
VERTEX
  8
ガラス
 10
-69.225
 20
-59.3
 70
     8
  0
VERTEX
  8
ガラス
 10
-69.25
 20
-59.3
 70
     8
  0
VERTEX
  8
ガラス
 10
-69.3
 20
-59.325
 70
     8
  0
VERTEX
  8
ガラス
 10
-69.325
 20
-59.35
 70
     8
  0
VERTEX
  8
ガラス
 10
-69.375
 20
-59.35
 70
     8
  0
VERTEX
  8
ガラス
 10
-69.425
 20
-59.375
 70
     8
  0
VERTEX
  8
ガラス
 10
-69.45
 20
-59.4
 70
     8
  0
VERTEX
  8
ガラス
 10
-69.5
 20
-59.4
 70
     8
  0
VERTEX
  8
ガラス
 10
-69.525
 20
-59.425
 70
     8
  0
VERTEX
  8
ガラス
 10
-69.575
 20
-59.425
 70
     8
  0
SEQEND
  0
ARC
  8
ガラス
  6
CONTINUOUS
 10
-69.80426
 20
-58.800536
 40
0.668594
 50
111.203091
 51
291.203091
  0
ENDBLK
  0
BLOCK
  2
*GRP_0013
 70
    65
 10
0.0
 20
0.0
  0
POLYLINE
  8
ガラス
  6
CONTINUOUS
 66
     1
 70
     4
  0
VERTEX
  8
ガラス
 10
-62.825
 20
-57.175
 70
     8
  0
VERTEX
  8
ガラス
 10
-62.775
 20
-57.175
 70
     8
  0
VERTEX
  8
ガラス
 10
-62.7
 20
-57.175
 70
     8
  0
VERTEX
  8
ガラス
 10
-62.625
 20
-57.15
 70
     8
  0
VERTEX
  8
ガラス
 10
-62.575
 20
-57.15
 70
     8
  0
VERTEX
  8
ガラス
 10
-62.5
 20
-57.15
 70
     8
  0
VERTEX
  8
ガラス
 10
-62.45
 20
-57.15
 70
     8
  0
VERTEX
  8
ガラス
 10
-62.375
 20
-57.15
 70
     8
  0
VERTEX
  8
ガラス
 10
-62.325
 20
-57.15
 70
     8
  0
VERTEX
  8
ガラス
 10
-62.25
 20
-57.15
 70
     8
  0
VERTEX
  8
ガラス
 10
-62.175
 20
-57.15
 70
     8
  0
VERTEX
  8
ガラス
 10
-62.125
 20
-57.15
 70
     8
  0
VERTEX
  8
ガラス
 10
-62.075
 20
-57.15
 70
     8
  0
VERTEX
  8
ガラス
 10
-62.0
 20
-57.15
 70
     8
  0
VERTEX
  8
ガラス
 10
-61.95
 20
-57.15
 70
     8
  0
VERTEX
  8
ガラス
 10
-61.875
 20
-57.15
 70
     8
  0
VERTEX
  8
ガラス
 10
-61.825
 20
-57.175
 70
     8
  0
VERTEX
  8
ガラス
 10
-61.775
 20
-57.175
 70
     8
  0
VERTEX
  8
ガラス
 10
-61.7
 20
-57.2
 70
     8
  0
VERTEX
  8
ガラス
 10
-61.65
 20
-57.225
 70
     8
  0
VERTEX
  8
ガラス
 10
-61.6
 20
-57.225
 70
     8
  0
VERTEX
  8
ガラス
 10
-61.55
 20
-57.25
 70
     8
  0
VERTEX
  8
ガラス
 10
-61.5
 20
-57.275
 70
     8
  0
VERTEX
  8
ガラス
 10
-61.45
 20
-57.3
 70
     8
  0
VERTEX
  8
ガラス
 10
-61.4
 20
-57.35
 70
     8
  0
VERTEX
  8
ガラス
 10
-61.35
 20
-57.375
 70
     8
  0
VERTEX
  8
ガラス
 10
-61.3
 20
-57.4
 70
     8
  0
VERTEX
  8
ガラス
 10
-61.25
 20
-57.45
 70
     8
  0
VERTEX
  8
ガラス
 10
-61.2
 20
-57.475
 70
     8
  0
VERTEX
  8
ガラス
 10
-61.15
 20
-57.525
 70
     8
  0
VERTEX
  8
ガラス
 10
-61.1
 20
-57.575
 70
     8
  0
VERTEX
  8
ガラス
 10
-61.075
 20
-57.6
 70
     8
  0
VERTEX
  8
ガラス
 10
-61.025
 20
-57.65
 70
     8
  0
VERTEX
  8
ガラス
 10
-60.975
 20
-57.7
 70
     8
  0
VERTEX
  8
ガラス
 10
-60.925
 20
-57.75
 70
     8
  0
VERTEX
  8
ガラス
 10
-60.9
 20
-57.8
 70
     8
  0
VERTEX
  8
ガラス
 10
-60.85
 20
-57.85
 70
     8
  0
VERTEX
  8
ガラス
 10
-60.8
 20
-57.9
 70
     8
  0
VERTEX
  8
ガラス
 10
-60.775
 20
-57.95
 70
     8
  0
VERTEX
  8
ガラス
 10
-60.725
 20
-58.0
 70
     8
  0
VERTEX
  8
ガラス
 10
-60.675
 20
-58.025
 70
     8
  0
SEQEND
  0
POLYLINE
  8
ガラス
  6
CONTINUOUS
 66
     1
 70
     4
  0
VERTEX
  8
ガラス
 10
-60.675
 20
-58.025
 70
     8
  0
VERTEX
  8
ガラス
 10
-60.725
 20
-58.05
 70
     8
  0
VERTEX
  8
ガラス
 10
-60.775
 20
-58.05
 70
     8
  0
VERTEX
  8
ガラス
 10
-60.8
 20
-58.05
 70
     8
  0
VERTEX
  8
ガラス
 10
-60.85
 20
-58.05
 70
     8
  0
VERTEX
  8
ガラス
 10
-60.9
 20
-58.05
 70
     8
  0
VERTEX
  8
ガラス
 10
-60.95
 20
-58.05
 70
     8
  0
VERTEX
  8
ガラス
 10
-60.975
 20
-58.075
 70
     8
  0
VERTEX
  8
ガラス
 10
-61.025
 20
-58.075
 70
     8
  0
VERTEX
  8
ガラス
 10
-61.075
 20
-58.075
 70
     8
  0
VERTEX
  8
ガラス
 10
-61.1
 20
-58.075
 70
     8
  0
VERTEX
  8
ガラス
 10
-61.15
 20
-58.075
 70
     8
  0
VERTEX
  8
ガラス
 10
-61.2
 20
-58.1
 70
     8
  0
VERTEX
  8
ガラス
 10
-61.25
 20
-58.1
 70
     8
  0
VERTEX
  8
ガラス
 10
-61.275
 20
-58.1
 70
     8
  0
VERTEX
  8
ガラス
 10
-61.325
 20
-58.1
 70
     8
  0
VERTEX
  8
ガラス
 10
-61.375
 20
-58.125
 70
     8
  0
VERTEX
  8
ガラス
 10
-61.4
 20
-58.125
 70
     8
  0
VERTEX
  8
ガラス
 10
-61.45
 20
-58.125
 70
     8
  0
VERTEX
  8
ガラス
 10
-61.5
 20
-58.15
 70
     8
  0
VERTEX
  8
ガラス
 10
-61.525
 20
-58.15
 70
     8
  0
VERTEX
  8
ガラス
 10
-61.575
 20
-58.15
 70
     8
  0
VERTEX
  8
ガラス
 10
-61.625
 20
-58.175
 70
     8
  0
VERTEX
  8
ガラス
 10
-61.65
 20
-58.175
 70
     8
  0
VERTEX
  8
ガラス
 10
-61.7
 20
-58.2
 70
     8
  0
VERTEX
  8
ガラス
 10
-61.75
 20
-58.2
 70
     8
  0
VERTEX
  8
ガラス
 10
-61.775
 20
-58.225
 70
     8
  0
VERTEX
  8
ガラス
 10
-61.825
 20
-58.225
 70
     8
  0
VERTEX
  8
ガラス
 10
-61.85
 20
-58.25
 70
     8
  0
VERTEX
  8
ガラス
 10
-61.9
 20
-58.25
 70
     8
  0
VERTEX
  8
ガラス
 10
-61.95
 20
-58.275
 70
     8
  0
VERTEX
  8
ガラス
 10
-61.975
 20
-58.275
 70
     8
  0
VERTEX
  8
ガラス
 10
-62.025
 20
-58.3
 70
     8
  0
VERTEX
  8
ガラス
 10
-62.075
 20
-58.325
 70
     8
  0
VERTEX
  8
ガラス
 10
-62.1
 20
-58.325
 70
     8
  0
VERTEX
  8
ガラス
 10
-62.15
 20
-58.35
 70
     8
  0
VERTEX
  8
ガラス
 10
-62.175
 20
-58.375
 70
     8
  0
VERTEX
  8
ガラス
 10
-62.225
 20
-58.375
 70
     8
  0
VERTEX
  8
ガラス
 10
-62.275
 20
-58.4
 70
     8
  0
VERTEX
  8
ガラス
 10
-62.3
 20
-58.4
 70
     8
  0
VERTEX
  8
ガラス
 10
-62.35
 20
-58.425
 70
     8
  0
SEQEND
  0
ARC
  8
ガラス
  6
CONTINUOUS
 10
-62.575041
 20
-57.790244
 40
0.668594
 50
111.203091
 51
291.203091
  0
ENDBLK
  0
BLOCK
  2
*GRP_0014
 70
    65
 10
0.0
 20
0.0
  0
POLYLINE
  8
ガラス
  6
CONTINUOUS
 66
     1
 70
     4
  0
VERTEX
  8
ガラス
 10
-52.025
 20
12.55
 70
     8
  0
VERTEX
  8
ガラス
 10
-52.0
 20
12.6
 70
     8
  0
VERTEX
  8
ガラス
 10
-51.975
 20
12.675
 70
     8
  0
VERTEX
  8
ガラス
 10
-51.975
 20
12.725
 70
     8
  0
VERTEX
  8
ガラス
 10
-51.95
 20
12.8
 70
     8
  0
VERTEX
  8
ガラス
 10
-51.925
 20
12.85
 70
     8
  0
VERTEX
  8
ガラス
 10
-51.9
 20
12.925
 70
     8
  0
VERTEX
  8
ガラス
 10
-51.9
 20
12.975
 70
     8
  0
VERTEX
  8
ガラス
 10
-51.875
 20
13.05
 70
     8
  0
VERTEX
  8
ガラス
 10
-51.85
 20
13.1
 70
     8
  0
VERTEX
  8
ガラス
 10
-51.825
 20
13.15
 70
     8
  0
VERTEX
  8
ガラス
 10
-51.8
 20
13.225
 70
     8
  0
VERTEX
  8
ガラス
 10
-51.775
 20
13.275
 70
     8
  0
VERTEX
  8
ガラス
 10
-51.75
 20
13.325
 70
     8
  0
VERTEX
  8
ガラス
 10
-51.725
 20
13.375
 70
     8
  0
VERTEX
  8
ガラス
 10
-51.7
 20
13.425
 70
     8
  0
VERTEX
  8
ガラス
 10
-51.675
 20
13.475
 70
     8
  0
VERTEX
  8
ガラス
 10
-51.625
 20
13.525
 70
     8
  0
VERTEX
  8
ガラス
 10
-51.6
 20
13.575
 70
     8
  0
VERTEX
  8
ガラス
 10
-51.55
 20
13.625
 70
     8
  0
VERTEX
  8
ガラス
 10
-51.525
 20
13.675
 70
     8
  0
VERTEX
  8
ガラス
 10
-51.475
 20
13.725
 70
     8
  0
VERTEX
  8
ガラス
 10
-51.45
 20
13.75
 70
     8
  0
VERTEX
  8
ガラス
 10
-51.4
 20
13.8
 70
     8
  0
VERTEX
  8
ガラス
 10
-51.35
 20
13.825
 70
     8
  0
VERTEX
  8
ガラス
 10
-51.3
 20
13.85
 70
     8
  0
VERTEX
  8
ガラス
 10
-51.25
 20
13.9
 70
     8
  0
VERTEX
  8
ガラス
 10
-51.2
 20
13.925
 70
     8
  0
VERTEX
  8
ガラス
 10
-51.15
 20
13.95
 70
     8
  0
VERTEX
  8
ガラス
 10
-51.1
 20
13.975
 70
     8
  0
VERTEX
  8
ガラス
 10
-51.05
 20
14.0
 70
     8
  0
VERTEX
  8
ガラス
 10
-50.975
 20
14.025
 70
     8
  0
VERTEX
  8
ガラス
 10
-50.925
 20
14.05
 70
     8
  0
VERTEX
  8
ガラス
 10
-50.875
 20
14.075
 70
     8
  0
VERTEX
  8
ガラス
 10
-50.8
 20
14.1
 70
     8
  0
VERTEX
  8
ガラス
 10
-50.75
 20
14.125
 70
     8
  0
VERTEX
  8
ガラス
 10
-50.7
 20
14.15
 70
     8
  0
VERTEX
  8
ガラス
 10
-50.625
 20
14.175
 70
     8
  0
VERTEX
  8
ガラス
 10
-50.575
 20
14.2
 70
     8
  0
VERTEX
  8
ガラス
 10
-50.5
 20
14.225
 70
     8
  0
VERTEX
  8
ガラス
 10
-50.45
 20
14.225
 70
     8
  0
SEQEND
  0
POLYLINE
  8
ガラス
  6
CONTINUOUS
 66
     1
 70
     4
  0
VERTEX
  8
ガラス
 10
-50.45
 20
14.225
 70
     8
  0
VERTEX
  8
ガラス
 10
-50.45
 20
14.2
 70
     8
  0
VERTEX
  8
ガラス
 10
-50.475
 20
14.15
 70
     8
  0
VERTEX
  8
ガラス
 10
-50.475
 20
14.1
 70
     8
  0
VERTEX
  8
ガラス
 10
-50.5
 20
14.075
 70
     8
  0
VERTEX
  8
ガラス
 10
-50.5
 20
14.025
 70
     8
  0
VERTEX
  8
ガラス
 10
-50.525
 20
14.0
 70
     8
  0
VERTEX
  8
ガラス
 10
-50.525
 20
13.95
 70
     8
  0
VERTEX
  8
ガラス
 10
-50.525
 20
13.9
 70
     8
  0
VERTEX
  8
ガラス
 10
-50.55
 20
13.875
 70
     8
  0
VERTEX
  8
ガラス
 10
-50.55
 20
13.825
 70
     8
  0
VERTEX
  8
ガラス
 10
-50.575
 20
13.775
 70
     8
  0
VERTEX
  8
ガラス
 10
-50.575
 20
13.75
 70
     8
  0
VERTEX
  8
ガラス
 10
-50.6
 20
13.7
 70
     8
  0
VERTEX
  8
ガラス
 10
-50.6
 20
13.65
 70
     8
  0
VERTEX
  8
ガラス
 10
-50.6
 20
13.6
 70
     8
  0
VERTEX
  8
ガラス
 10
-50.625
 20
13.575
 70
     8
  0
VERTEX
  8
ガラス
 10
-50.625
 20
13.525
 70
     8
  0
VERTEX
  8
ガラス
 10
-50.625
 20
13.475
 70
     8
  0
VERTEX
  8
ガラス
 10
-50.625
 20
13.45
 70
     8
  0
VERTEX
  8
ガラス
 10
-50.65
 20
13.4
 70
     8
  0
VERTEX
  8
ガラス
 10
-50.65
 20
13.35
 70
     8
  0
VERTEX
  8
ガラス
 10
-50.65
 20
13.325
 70
     8
  0
VERTEX
  8
ガラス
 10
-50.65
 20
13.275
 70
     8
  0
VERTEX
  8
ガラス
 10
-50.675
 20
13.225
 70
     8
  0
VERTEX
  8
ガラス
 10
-50.675
 20
13.2
 70
     8
  0
VERTEX
  8
ガラス
 10
-50.675
 20
13.15
 70
     8
  0
VERTEX
  8
ガラス
 10
-50.675
 20
13.1
 70
     8
  0
VERTEX
  8
ガラス
 10
-50.675
 20
13.05
 70
     8
  0
VERTEX
  8
ガラス
 10
-50.675
 20
13.025
 70
     8
  0
VERTEX
  8
ガラス
 10
-50.675
 20
12.975
 70
     8
  0
VERTEX
  8
ガラス
 10
-50.675
 20
12.925
 70
     8
  0
VERTEX
  8
ガラス
 10
-50.675
 20
12.9
 70
     8
  0
VERTEX
  8
ガラス
 10
-50.675
 20
12.85
 70
     8
  0
VERTEX
  8
ガラス
 10
-50.675
 20
12.8
 70
     8
  0
VERTEX
  8
ガラス
 10
-50.675
 20
12.75
 70
     8
  0
VERTEX
  8
ガラス
 10
-50.675
 20
12.725
 70
     8
  0
VERTEX
  8
ガラス
 10
-50.675
 20
12.675
 70
     8
  0
VERTEX
  8
ガラス
 10
-50.675
 20
12.625
 70
     8
  0
VERTEX
  8
ガラス
 10
-50.675
 20
12.6
 70
     8
  0
VERTEX
  8
ガラス
 10
-50.675
 20
12.55
 70
     8
  0
SEQEND
  0
ARC
  8
ガラス
  6
CONTINUOUS
 10
-51.338236
 20
12.5576
 40
0.668594
 50
180.0
 51
360.0
  0
ENDBLK
  0
BLOCK
  2
*GRP_0015
 70
    65
 10
0.0
 20
0.0
  0
POLYLINE
  8
ガラス
  6
CONTINUOUS
 66
     1
 70
     4
  0
VERTEX
  8
ガラス
 10
-52.025
 20
-6.25
 70
     8
  0
VERTEX
  8
ガラス
 10
-52.0
 20
-6.2
 70
     8
  0
VERTEX
  8
ガラス
 10
-51.975
 20
-6.125
 70
     8
  0
VERTEX
  8
ガラス
 10
-51.975
 20
-6.075
 70
     8
  0
VERTEX
  8
ガラス
 10
-51.95
 20
-6.0
 70
     8
  0
VERTEX
  8
ガラス
 10
-51.925
 20
-5.95
 70
     8
  0
VERTEX
  8
ガラス
 10
-51.9
 20
-5.875
 70
     8
  0
VERTEX
  8
ガラス
 10
-51.9
 20
-5.825
 70
     8
  0
VERTEX
  8
ガラス
 10
-51.875
 20
-5.775
 70
     8
  0
VERTEX
  8
ガラス
 10
-51.85
 20
-5.7
 70
     8
  0
VERTEX
  8
ガラス
 10
-51.825
 20
-5.65
 70
     8
  0
VERTEX
  8
ガラス
 10
-51.8
 20
-5.6
 70
     8
  0
VERTEX
  8
ガラス
 10
-51.775
 20
-5.525
 70
     8
  0
VERTEX
  8
ガラス
 10
-51.75
 20
-5.475
 70
     8
  0
VERTEX
  8
ガラス
 10
-51.725
 20
-5.425
 70
     8
  0
VERTEX
  8
ガラス
 10
-51.7
 20
-5.375
 70
     8
  0
VERTEX
  8
ガラス
 10
-51.675
 20
-5.325
 70
     8
  0
VERTEX
  8
ガラス
 10
-51.625
 20
-5.275
 70
     8
  0
VERTEX
  8
ガラス
 10
-51.6
 20
-5.225
 70
     8
  0
VERTEX
  8
ガラス
 10
-51.55
 20
-5.175
 70
     8
  0
VERTEX
  8
ガラス
 10
-51.525
 20
-5.125
 70
     8
  0
VERTEX
  8
ガラス
 10
-51.475
 20
-5.1
 70
     8
  0
VERTEX
  8
ガラス
 10
-51.45
 20
-5.05
 70
     8
  0
VERTEX
  8
ガラス
 10
-51.4
 20
-5.025
 70
     8
  0
VERTEX
  8
ガラス
 10
-51.35
 20
-4.975
 70
     8
  0
VERTEX
  8
ガラス
 10
-51.3
 20
-4.95
 70
     8
  0
VERTEX
  8
ガラス
 10
-51.25
 20
-4.9
 70
     8
  0
VERTEX
  8
ガラス
 10
-51.2
 20
-4.875
 70
     8
  0
VERTEX
  8
ガラス
 10
-51.15
 20
-4.85
 70
     8
  0
VERTEX
  8
ガラス
 10
-51.1
 20
-4.825
 70
     8
  0
VERTEX
  8
ガラス
 10
-51.05
 20
-4.8
 70
     8
  0
VERTEX
  8
ガラス
 10
-50.975
 20
-4.775
 70
     8
  0
VERTEX
  8
ガラス
 10
-50.925
 20
-4.75
 70
     8
  0
VERTEX
  8
ガラス
 10
-50.875
 20
-4.725
 70
     8
  0
VERTEX
  8
ガラス
 10
-50.8
 20
-4.7
 70
     8
  0
VERTEX
  8
ガラス
 10
-50.75
 20
-4.675
 70
     8
  0
VERTEX
  8
ガラス
 10
-50.7
 20
-4.65
 70
     8
  0
VERTEX
  8
ガラス
 10
-50.625
 20
-4.625
 70
     8
  0
VERTEX
  8
ガラス
 10
-50.575
 20
-4.6
 70
     8
  0
VERTEX
  8
ガラス
 10
-50.5
 20
-4.6
 70
     8
  0
VERTEX
  8
ガラス
 10
-50.45
 20
-4.575
 70
     8
  0
SEQEND
  0
POLYLINE
  8
ガラス
  6
CONTINUOUS
 66
     1
 70
     4
  0
VERTEX
  8
ガラス
 10
-50.45
 20
-4.575
 70
     8
  0
VERTEX
  8
ガラス
 10
-50.45
 20
-4.6
 70
     8
  0
VERTEX
  8
ガラス
 10
-50.475
 20
-4.65
 70
     8
  0
VERTEX
  8
ガラス
 10
-50.475
 20
-4.7
 70
     8
  0
VERTEX
  8
ガラス
 10
-50.5
 20
-4.725
 70
     8
  0
VERTEX
  8
ガラス
 10
-50.5
 20
-4.775
 70
     8
  0
VERTEX
  8
ガラス
 10
-50.525
 20
-4.825
 70
     8
  0
VERTEX
  8
ガラス
 10
-50.525
 20
-4.85
 70
     8
  0
VERTEX
  8
ガラス
 10
-50.525
 20
-4.9
 70
     8
  0
VERTEX
  8
ガラス
 10
-50.55
 20
-4.95
 70
     8
  0
VERTEX
  8
ガラス
 10
-50.55
 20
-4.975
 70
     8
  0
VERTEX
  8
ガラス
 10
-50.575
 20
-5.025
 70
     8
  0
VERTEX
  8
ガラス
 10
-50.575
 20
-5.075
 70
     8
  0
VERTEX
  8
ガラス
 10
-50.6
 20
-5.1
 70
     8
  0
VERTEX
  8
ガラス
 10
-50.6
 20
-5.15
 70
     8
  0
VERTEX
  8
ガラス
 10
-50.6
 20
-5.2
 70
     8
  0
VERTEX
  8
ガラス
 10
-50.625
 20
-5.225
 70
     8
  0
VERTEX
  8
ガラス
 10
-50.625
 20
-5.275
 70
     8
  0
VERTEX
  8
ガラス
 10
-50.625
 20
-5.325
 70
     8
  0
VERTEX
  8
ガラス
 10
-50.625
 20
-5.35
 70
     8
  0
VERTEX
  8
ガラス
 10
-50.65
 20
-5.4
 70
     8
  0
VERTEX
  8
ガラス
 10
-50.65
 20
-5.45
 70
     8
  0
VERTEX
  8
ガラス
 10
-50.65
 20
-5.5
 70
     8
  0
VERTEX
  8
ガラス
 10
-50.65
 20
-5.525
 70
     8
  0
VERTEX
  8
ガラス
 10
-50.675
 20
-5.575
 70
     8
  0
VERTEX
  8
ガラス
 10
-50.675
 20
-5.625
 70
     8
  0
VERTEX
  8
ガラス
 10
-50.675
 20
-5.65
 70
     8
  0
VERTEX
  8
ガラス
 10
-50.675
 20
-5.7
 70
     8
  0
VERTEX
  8
ガラス
 10
-50.675
 20
-5.75
 70
     8
  0
VERTEX
  8
ガラス
 10
-50.675
 20
-5.775
 70
     8
  0
VERTEX
  8
ガラス
 10
-50.675
 20
-5.825
 70
     8
  0
VERTEX
  8
ガラス
 10
-50.675
 20
-5.875
 70
     8
  0
VERTEX
  8
ガラス
 10
-50.675
 20
-5.925
 70
     8
  0
VERTEX
  8
ガラス
 10
-50.675
 20
-5.95
 70
     8
  0
VERTEX
  8
ガラス
 10
-50.675
 20
-6.0
 70
     8
  0
VERTEX
  8
ガラス
 10
-50.675
 20
-6.05
 70
     8
  0
VERTEX
  8
ガラス
 10
-50.675
 20
-6.1
 70
     8
  0
VERTEX
  8
ガラス
 10
-50.675
 20
-6.125
 70
     8
  0
VERTEX
  8
ガラス
 10
-50.675
 20
-6.175
 70
     8
  0
VERTEX
  8
ガラス
 10
-50.675
 20
-6.225
 70
     8
  0
VERTEX
  8
ガラス
 10
-50.675
 20
-6.25
 70
     8
  0
SEQEND
  0
ARC
  8
ガラス
  6
CONTINUOUS
 10
-51.338236
 20
-6.247546
 40
0.668594
 50
180.0
 51
360.0
  0
ENDBLK
  0
BLOCK
  2
*GRP_0016
 70
    65
 10
0.0
 20
0.0
  0
POLYLINE
  8
ガラス
  6
CONTINUOUS
 66
     1
 70
     4
  0
VERTEX
  8
ガラス
 10
-52.025
 20
-23.65
 70
     8
  0
VERTEX
  8
ガラス
 10
-52.0
 20
-23.575
 70
     8
  0
VERTEX
  8
ガラス
 10
-51.975
 20
-23.525
 70
     8
  0
VERTEX
  8
ガラス
 10
-51.975
 20
-23.45
 70
     8
  0
VERTEX
  8
ガラス
 10
-51.95
 20
-23.4
 70
     8
  0
VERTEX
  8
ガラス
 10
-51.925
 20
-23.325
 70
     8
  0
VERTEX
  8
ガラス
 10
-51.9
 20
-23.275
 70
     8
  0
VERTEX
  8
ガラス
 10
-51.9
 20
-23.2
 70
     8
  0
VERTEX
  8
ガラス
 10
-51.875
 20
-23.15
 70
     8
  0
VERTEX
  8
ガラス
 10
-51.85
 20
-23.1
 70
     8
  0
VERTEX
  8
ガラス
 10
-51.825
 20
-23.025
 70
     8
  0
VERTEX
  8
ガラス
 10
-51.8
 20
-22.975
 70
     8
  0
VERTEX
  8
ガラス
 10
-51.775
 20
-22.925
 70
     8
  0
VERTEX
  8
ガラス
 10
-51.75
 20
-22.85
 70
     8
  0
VERTEX
  8
ガラス
 10
-51.725
 20
-22.8
 70
     8
  0
VERTEX
  8
ガラス
 10
-51.7
 20
-22.75
 70
     8
  0
VERTEX
  8
ガラス
 10
-51.675
 20
-22.7
 70
     8
  0
VERTEX
  8
ガラス
 10
-51.625
 20
-22.65
 70
     8
  0
VERTEX
  8
ガラス
 10
-51.6
 20
-22.6
 70
     8
  0
VERTEX
  8
ガラス
 10
-51.55
 20
-22.55
 70
     8
  0
VERTEX
  8
ガラス
 10
-51.525
 20
-22.525
 70
     8
  0
VERTEX
  8
ガラス
 10
-51.475
 20
-22.475
 70
     8
  0
VERTEX
  8
ガラス
 10
-51.45
 20
-22.425
 70
     8
  0
VERTEX
  8
ガラス
 10
-51.4
 20
-22.4
 70
     8
  0
VERTEX
  8
ガラス
 10
-51.35
 20
-22.35
 70
     8
  0
VERTEX
  8
ガラス
 10
-51.3
 20
-22.325
 70
     8
  0
VERTEX
  8
ガラス
 10
-51.25
 20
-22.3
 70
     8
  0
VERTEX
  8
ガラス
 10
-51.2
 20
-22.275
 70
     8
  0
VERTEX
  8
ガラス
 10
-51.15
 20
-22.225
 70
     8
  0
VERTEX
  8
ガラス
 10
-51.1
 20
-22.2
 70
     8
  0
VERTEX
  8
ガラス
 10
-51.05
 20
-22.175
 70
     8
  0
VERTEX
  8
ガラス
 10
-50.975
 20
-22.15
 70
     8
  0
VERTEX
  8
ガラス
 10
-50.925
 20
-22.125
 70
     8
  0
VERTEX
  8
ガラス
 10
-50.875
 20
-22.1
 70
     8
  0
VERTEX
  8
ガラス
 10
-50.8
 20
-22.075
 70
     8
  0
VERTEX
  8
ガラス
 10
-50.75
 20
-22.05
 70
     8
  0
VERTEX
  8
ガラス
 10
-50.7
 20
-22.025
 70
     8
  0
VERTEX
  8
ガラス
 10
-50.625
 20
-22.025
 70
     8
  0
VERTEX
  8
ガラス
 10
-50.575
 20
-22.0
 70
     8
  0
VERTEX
  8
ガラス
 10
-50.5
 20
-21.975
 70
     8
  0
VERTEX
  8
ガラス
 10
-50.45
 20
-21.95
 70
     8
  0
SEQEND
  0
POLYLINE
  8
ガラス
  6
CONTINUOUS
 66
     1
 70
     4
  0
VERTEX
  8
ガラス
 10
-50.45
 20
-21.95
 70
     8
  0
VERTEX
  8
ガラス
 10
-50.45
 20
-22.0
 70
     8
  0
VERTEX
  8
ガラス
 10
-50.475
 20
-22.025
 70
     8
  0
VERTEX
  8
ガラス
 10
-50.475
 20
-22.075
 70
     8
  0
VERTEX
  8
ガラス
 10
-50.5
 20
-22.125
 70
     8
  0
VERTEX
  8
ガラス
 10
-50.5
 20
-22.15
 70
     8
  0
VERTEX
  8
ガラス
 10
-50.525
 20
-22.2
 70
     8
  0
VERTEX
  8
ガラス
 10
-50.525
 20
-22.25
 70
     8
  0
VERTEX
  8
ガラス
 10
-50.525
 20
-22.275
 70
     8
  0
VERTEX
  8
ガラス
 10
-50.55
 20
-22.325
 70
     8
  0
VERTEX
  8
ガラス
 10
-50.55
 20
-22.375
 70
     8
  0
VERTEX
  8
ガラス
 10
-50.575
 20
-22.4
 70
     8
  0
VERTEX
  8
ガラス
 10
-50.575
 20
-22.45
 70
     8
  0
VERTEX
  8
ガラス
 10
-50.6
 20
-22.5
 70
     8
  0
VERTEX
  8
ガラス
 10
-50.6
 20
-22.525
 70
     8
  0
VERTEX
  8
ガラス
 10
-50.6
 20
-22.575
 70
     8
  0
VERTEX
  8
ガラス
 10
-50.625
 20
-22.625
 70
     8
  0
VERTEX
  8
ガラス
 10
-50.625
 20
-22.65
 70
     8
  0
VERTEX
  8
ガラス
 10
-50.625
 20
-22.7
 70
     8
  0
VERTEX
  8
ガラス
 10
-50.625
 20
-22.75
 70
     8
  0
VERTEX
  8
ガラス
 10
-50.65
 20
-22.775
 70
     8
  0
VERTEX
  8
ガラス
 10
-50.65
 20
-22.825
 70
     8
  0
VERTEX
  8
ガラス
 10
-50.65
 20
-22.875
 70
     8
  0
VERTEX
  8
ガラス
 10
-50.65
 20
-22.925
 70
     8
  0
VERTEX
  8
ガラス
 10
-50.675
 20
-22.95
 70
     8
  0
VERTEX
  8
ガラス
 10
-50.675
 20
-23.0
 70
     8
  0
VERTEX
  8
ガラス
 10
-50.675
 20
-23.05
 70
     8
  0
VERTEX
  8
ガラス
 10
-50.675
 20
-23.075
 70
     8
  0
VERTEX
  8
ガラス
 10
-50.675
 20
-23.125
 70
     8
  0
VERTEX
  8
ガラス
 10
-50.675
 20
-23.175
 70
     8
  0
VERTEX
  8
ガラス
 10
-50.675
 20
-23.225
 70
     8
  0
VERTEX
  8
ガラス
 10
-50.675
 20
-23.25
 70
     8
  0
VERTEX
  8
ガラス
 10
-50.675
 20
-23.3
 70
     8
  0
VERTEX
  8
ガラス
 10
-50.675
 20
-23.35
 70
     8
  0
VERTEX
  8
ガラス
 10
-50.675
 20
-23.375
 70
     8
  0
VERTEX
  8
ガラス
 10
-50.675
 20
-23.425
 70
     8
  0
VERTEX
  8
ガラス
 10
-50.675
 20
-23.475
 70
     8
  0
VERTEX
  8
ガラス
 10
-50.675
 20
-23.525
 70
     8
  0
VERTEX
  8
ガラス
 10
-50.675
 20
-23.55
 70
     8
  0
VERTEX
  8
ガラス
 10
-50.675
 20
-23.6
 70
     8
  0
VERTEX
  8
ガラス
 10
-50.675
 20
-23.65
 70
     8
  0
SEQEND
  0
ARC
  8
ガラス
  6
CONTINUOUS
 10
-51.338236
 20
-23.630988
 40
0.668594
 50
180.0
 51
360.0
  0
ENDBLK
  0
BLOCK
  2
*GRP_0017
 70
    65
 10
0.0
 20
0.0
  0
LINE
  8
ゴム等
  6
CONTINUOUS
 10
-52.558847
 20
25.979628
 11
-47.558845
 21
25.979628
  0
LINE
  8
ゴム等
  6
CONTINUOUS
 10
-52.558847
 20
25.979628
 11
-52.558847
 21
15.97963
  0
LINE
  8
ゴム等
  6
CONTINUOUS
 10
-52.558847
 20
15.97963
 11
-47.558845
 21
15.97963
  0
LINE
  8
ゴム等
  6
CONTINUOUS
 10
-47.558845
 20
25.979628
 11
-47.558845
 21
15.97963
  0
LINE
  8
ゴム等
  6
CONTINUOUS
 10
-48.88897
 20
15.97963
 11
-47.558845
 21
17.309755
  0
LINE
  8
ゴム等
  6
CONTINUOUS
 10
-50.303193
 20
15.97963
 11
-47.558845
 21
18.723978
  0
LINE
  8
ゴム等
  6
CONTINUOUS
 10
-51.717393
 20
15.97963
 11
-47.558845
 21
20.138177
  0
LINE
  8
ゴム等
  6
CONTINUOUS
 10
-52.558847
 20
19.380827
 11
-47.558845
 21
24.38083
  0
LINE
  8
ゴム等
  6
CONTINUOUS
 10
-52.558847
 20
17.966605
 11
-47.558845
 21
22.9666
  0
LINE
  8
ゴム等
  6
CONTINUOUS
 10
-52.558847
 20
16.552405
 11
-47.558845
 21
21.5524
  0
LINE
  8
ゴム等
  6
CONTINUOUS
 10
-52.558847
 20
20.79505
 11
-47.558845
 21
25.79503
  0
LINE
  8
ゴム等
  6
CONTINUOUS
 10
-52.558847
 20
22.20925
 11
-48.78847
 21
25.979628
  0
LINE
  8
ゴム等
  6
CONTINUOUS
 10
-52.558847
 20
23.62345
 11
-50.20267
 21
25.979628
  0
LINE
  8
ゴム等
  6
CONTINUOUS
 10
-52.558847
 20
25.03768
 11
-51.616892
 21
25.979628
  0
ENDBLK
  0
BLOCK
  2
*GRP_0018
 70
    65
 10
0.0
 20
0.0
  0
LINE
  8
ゴム等
  6
CONTINUOUS
 10
-22.15885
 20
-50.02037
 11
-22.658853
 21
-47.520373
  0
LINE
  8
ゴム等
  6
CONTINUOUS
 10
-16.858847
 20
-47.520373
 11
-17.35885
 21
-50.02037
  0
LINE
  8
ゴム等
  6
CONTINUOUS
 10
-14.758847
 20
-42.52037
 11
-14.758847
 21
-47.520373
  0
LINE
  8
ゴム等
  6
CONTINUOUS
 10
-24.758853
 20
-42.52037
 11
-24.758853
 21
-47.520373
  0
LINE
  8
ゴム等
  6
CONTINUOUS
 10
-22.15885
 20
-50.02037
 11
-17.35885
 21
-50.02037
  0
LINE
  8
ゴム等
  6
CONTINUOUS
 10
-14.758847
 20
-47.520373
 11
-16.858847
 21
-47.520373
  0
LINE
  8
ゴム等
  6
CONTINUOUS
 10
-22.658853
 20
-47.520373
 11
-24.758853
 21
-47.520373
  0
LINE
  8
ゴム等
  6
CONTINUOUS
 10
-19.75885
 20
-43.020373
 11
-19.258847
 21
-42.52037
  0
LINE
  8
ゴム等
  6
CONTINUOUS
 10
-19.75885
 20
-43.020373
 11
-20.258853
 21
-42.52037
  0
LINE
  8
ゴム等
  6
CONTINUOUS
 10
-24.758853
 20
-42.52037
 11
-20.258853
 21
-42.52037
  0
LINE
  8
ゴム等
  6
CONTINUOUS
 10
-19.258847
 20
-42.52037
 11
-14.758847
 21
-42.52037
  0
LINE
  8
ゴム等
  6
CONTINUOUS
 10
-24.758853
 20
-44.298057
 11
-19.03654
 21
-50.02037
  0
LINE
  8
ゴム等
  6
CONTINUOUS
 10
-24.415218
 20
-42.52037
 11
-17.284908
 21
-49.650673
  0
LINE
  8
ゴム等
  6
CONTINUOUS
 10
-22.293895
 20
-42.52037
 11
-16.931358
 21
-47.882907
  0
LINE
  8
ゴム等
  6
CONTINUOUS
 10
-19.71571
 20
-42.977232
 11
-15.17257
 21
-47.520373
  0
LINE
  8
ゴム等
  6
CONTINUOUS
 10
-15.929935
 20
-42.52037
 11
-14.758847
 21
-43.691457
  0
LINE
  8
ゴム等
  6
CONTINUOUS
 10
-18.05125
 20
-42.52037
 11
-14.758847
 21
-45.812773
  0
LINE
  8
ゴム等
  6
CONTINUOUS
 10
-24.758853
 20
-46.419373
 11
-23.657852
 21
-47.520373
  0
LINE
  8
ゴム等
  6
CONTINUOUS
 10
-22.409102
 20
-48.769122
 11
-21.157855
 21
-50.02037
  0
ENDBLK
  0
BLOCK
  2
*GRP_0019
 70
    65
 10
0.0
 20
0.0
  0
POLYLINE
  8
ゴム等
  6
DOT
 66
     1
 70
     1
  0
VERTEX
  8
ゴム等
 10
-46.558855
 20
-48.520377
  0
VERTEX
  8
ゴム等
 10
-56.558853
 20
-48.520377
  0
VERTEX
  8
ゴム等
 10
-56.558853
 20
-58.520375
  0
VERTEX
  8
ゴム等
 10
-46.558855
 20
-58.520375
  0
SEQEND
  0
LINE
  8
ゴム等
  6
DOT
 10
-56.558853
 20
-58.520375
 11
-46.558855
 21
-48.520377
  0
LINE
  8
ゴム等
  6
DOT
 10
-55.04413
 20
-48.520377
 11
-56.558853
 21
-50.0351
  0
LINE
  8
ゴム等
  6
DOT
 10
-52.922815
 20
-48.520377
 11
-56.558853
 21
-52.156415
  0
LINE
  8
ゴム等
  6
DOT
 10
-50.8015
 20
-48.520377
 11
-56.558853
 21
-54.27773
  0
LINE
  8
ゴム等
  6
DOT
 10
-48.68017
 20
-48.520377
 11
-56.558853
 21
-56.39906
  0
LINE
  8
ゴム等
  6
DOT
 10
-46.558855
 20
-57.005652
 11
-48.073578
 21
-58.520375
  0
LINE
  8
ゴム等
  6
DOT
 10
-46.558855
 20
-54.884338
 11
-50.194892
 21
-58.520375
  0
LINE
  8
ゴム等
  6
DOT
 10
-46.558855
 20
-52.763022
 11
-52.316208
 21
-58.520375
  0
LINE
  8
ゴム等
  6
DOT
 10
-46.558855
 20
-50.641693
 11
-54.437537
 21
-58.520375
  0
ENDBLK
  0
BLOCK
  2
*GRP_0020
 70
    65
 10
0.0
 20
0.0
  0
LINE
  8
ゴム等
  6
CONTINUOUS
 10
-43.258847
 20
30.97963
 11
-43.258847
 21
25.979628
  0
LINE
  8
ゴム等
  6
CONTINUOUS
 10
-43.258847
 20
30.97963
 11
-33.25885
 21
30.97963
  0
LINE
  8
ゴム等
  6
CONTINUOUS
 10
-33.25885
 20
30.97963
 11
-33.25885
 21
25.979628
  0
LINE
  8
ゴム等
  6
CONTINUOUS
 10
-43.258847
 20
25.979628
 11
-33.25885
 21
25.979628
  0
LINE
  8
ゴム等
  6
CONTINUOUS
 10
-33.25885
 20
27.309752
 11
-34.588975
 21
25.979628
  0
LINE
  8
ゴム等
  6
CONTINUOUS
 10
-33.25885
 20
28.723968
 11
-36.00319
 21
25.979628
  0
LINE
  8
ゴム等
  6
CONTINUOUS
 10
-33.25885
 20
30.138175
 11
-37.417397
 21
25.979628
  0
LINE
  8
ゴム等
  6
CONTINUOUS
 10
-36.66004
 20
30.97963
 11
-41.660042
 21
25.979628
  0
LINE
  8
ゴム等
  6
CONTINUOUS
 10
-35.245825
 20
30.97963
 11
-40.245827
 21
25.979628
  0
LINE
  8
ゴム等
  6
CONTINUOUS
 10
-33.831617
 20
30.97963
 11
-38.831613
 21
25.979628
  0
LINE
  8
ゴム等
  6
CONTINUOUS
 10
-38.074255
 20
30.97963
 11
-43.074258
 21
25.979628
  0
LINE
  8
ゴム等
  6
CONTINUOUS
 10
-39.48847
 20
30.97963
 11
-43.258847
 21
27.209245
  0
LINE
  8
ゴム等
  6
CONTINUOUS
 10
-40.902678
 20
30.97963
 11
-43.258847
 21
28.62346
  0
LINE
  8
ゴム等
  6
CONTINUOUS
 10
-42.316892
 20
30.97963
 11
-43.258847
 21
30.037675
  0
ENDBLK
  0
BLOCK
  2
*GRP_0021
 70
    65
 10
0.0
 20
0.0
  0
LINE
  8
ゴム等
  6
CONTINUOUS
 62
    63
 10
-8.66203
 20
3.37573
 11
-8.66203
 21
3.875733
  0
LINE
  8
ゴム等
  6
CONTINUOUS
 62
    63
 10
-8.66203
 20
3.875733
 11
-7.662032
 21
3.875733
  0
LINE
  8
ゴム等
  6
CONTINUOUS
 62
    63
 10
-8.66203
 20
3.37573
 11
-6.462032
 21
1.175733
  0
LINE
  8
ゴム等
  6
CONTINUOUS
 62
    63
 10
-7.662032
 20
3.875733
 11
-7.662032
 21
5.675733
  0
LINE
  8
ゴム等
  6
CONTINUOUS
 62
    63
 10
-7.662032
 20
5.675733
 11
-11.262032
 21
5.675733
  0
LINE
  8
ゴム等
  6
CONTINUOUS
 62
    63
 10
-1.862035
 20
3.37573
 11
-1.862035
 21
3.875733
  0
LINE
  8
ゴム等
  6
CONTINUOUS
 62
    63
 10
-1.862035
 20
3.875733
 11
-2.862032
 21
3.875733
  0
LINE
  8
ゴム等
  6
CONTINUOUS
 62
    63
 10
-1.862035
 20
3.37573
 11
-4.062032
 21
1.175733
  0
LINE
  8
ゴム等
  6
CONTINUOUS
 62
    63
 10
-2.862032
 20
3.875733
 11
-2.862032
 21
5.675733
  0
LINE
  8
ゴム等
  6
CONTINUOUS
 62
    63
 10
-2.862032
 20
5.675733
 11
0.737968
 21
5.675733
  0
LINE
  8
ゴム等
  6
CONTINUOUS
 62
    63
 10
-6.462032
 20
1.175733
 11
-4.062032
 21
1.175733
  0
ARC
  8
ゴム等
  6
CONTINUOUS
 62
    63
 10
-5.262026
 20
4.675727
 40
1.0
 50
90.0
 51
180.0
  0
LINE
  8
ゴム等
  6
CONTINUOUS
 62
    63
 10
-5.262032
 20
5.675733
 11
-5.262032
 21
5.675733
  0
ARC
  8
ゴム等
  6
CONTINUOUS
 62
    63
 10
-5.262026
 20
4.675727
 40
1.0
 50
0.0
 51
90.0
  0
LINE
  8
ゴム等
  6
CONTINUOUS
 62
    63
 10
-4.262035
 20
4.675727
 11
-4.262035
 21
3.07573
  0
ARC
  8
ゴム等
  6
CONTINUOUS
 62
    63
 10
-5.262026
 20
3.075727
 40
1.0
 50
270.0
 51
360.0
  0
LINE
  8
ゴム等
  6
CONTINUOUS
 62
    63
 10
-5.262032
 20
2.075733
 11
-5.262032
 21
2.075733
  0
LINE
  8
ゴム等
  6
CONTINUOUS
 62
    63
 10
-6.26203
 20
4.675727
 11
-6.26203
 21
3.07573
  0
ARC
  8
ゴム等
  6
CONTINUOUS
 62
    63
 10
-5.262026
 20
3.075727
 40
1.0
 50
180.0
 51
270.0
  0
LINE
  8
ゴム等
  6
CONTINUOUS
 62
    63
 10
-11.262032
 20
20.675733
 11
-9.26203
 21
20.675733
  0
LINE
  8
ゴム等
  6
CONTINUOUS
 62
    63
 10
0.737968
 20
20.675733
 11
-1.262035
 21
20.675733
  0
LINE
  8
ゴム等
  6
CONTINUOUS
 62
    63
 10
-1.262035
 20
20.675733
 11
-1.262035
 21
20.675733
  0
ARC
  8
ゴム等
  6
CONTINUOUS
 62
    63
 10
-1.762026
 20
20.675727
 40
0.5
 50
270.0
 51
360.0
  0
LINE
  8
ゴム等
  6
CONTINUOUS
 62
    63
 10
-9.26203
 20
20.675733
 11
-9.26203
 21
20.675733
  0
LINE
  8
ゴム等
  6
CONTINUOUS
 62
    63
 10
-8.762035
 20
20.17573
 11
-1.76203
 21
20.17573
  0
ARC
  8
ゴム等
  6
CONTINUOUS
 62
    63
 10
-8.762026
 20
20.675727
 40
0.5
 50
180.0
 51
270.0
  0
LINE
  8
ゴム等
  6
CONTINUOUS
 62
    63
 10
-11.262032
 20
5.675733
 11
-11.262032
 21
20.675733
  0
LINE
  8
ゴム等
  6
CONTINUOUS
 62
    63
 10
0.737968
 20
5.675733
 11
0.737968
 21
20.675733
  0
LINE
  8
ゴム等
  6
CONTINUOUS
 10
-2.357687
 20
20.17573
 11
0.737968
 21
17.080075
  0
LINE
  8
ゴム等
  6
CONTINUOUS
 10
-0.02926
 20
20.675733
 11
0.737968
 21
19.908497
  0
LINE
  8
ゴム等
  6
CONTINUOUS
 10
-5.186117
 20
20.17573
 11
0.737968
 21
14.251645
  0
LINE
  8
ゴム等
  6
CONTINUOUS
 10
-8.01454
 20
20.17573
 11
0.737968
 21
11.423222
  0
LINE
  8
ゴム等
  6
CONTINUOUS
 10
-11.262032
 20
20.594793
 11
0.737968
 21
8.594793
  0
LINE
  8
ゴム等
  6
CONTINUOUS
 10
-11.262032
 20
17.766362
 11
0.737968
 21
5.76637
  0
LINE
  8
ゴム等
  6
CONTINUOUS
 10
-11.262032
 20
14.93794
 11
-1.999825
 21
5.675733
  0
LINE
  8
ゴム等
  6
CONTINUOUS
 10
-11.262032
 20
12.10951
 11
-2.19514
 21
3.042625
  0
LINE
  8
ゴム等
  6
CONTINUOUS
 10
-11.262032
 20
6.452657
 11
-10.485107
 21
5.675733
  0
LINE
  8
ゴム等
  6
CONTINUOUS
 10
-8.685107
 20
3.875733
 11
-5.9851
 21
1.175733
  0
LINE
  8
ゴム等
  6
CONTINUOUS
 10
-11.262032
 20
9.28108
 11
-6.26203
 21
4.281085
  0
LINE
  8
ゴム等
  6
CONTINUOUS
 10
-3.609355
 20
1.62841
 11
-4.459742
 21
2.478797
  0
ENDBLK
  0
BLOCK
  2
*GRP_0022
 70
    65
 10
0.0
 20
0.0
  0
LINE
  8
ボルト／ビス
  6
CONTINUOUS
 62
    64
 10
-16.258847
 20
-52.02038
 11
-16.35055
 21
-53.06855
  0
ARC
  8
ボルト／ビス
  6
CONTINUOUS
 62
    64
 10
-18.044087
 20
-52.920378
 40
1.7
 50
270.0
 51
355.000011
  0
LINE
  8
ボルト／ビス
  6
CONTINUOUS
 62
    64
 10
-18.04408
 20
-54.620382
 11
-19.75885
 21
-54.620382
  0
LINE
  8
ボルト／ビス
  6
CONTINUOUS
 62
    64
 10
-23.258845
 20
-52.02038
 11
-23.167143
 21
-53.06855
  0
ARC
  8
ボルト／ビス
  6
CONTINUOUS
 62
    64
 10
-21.473621
 20
-52.920378
 40
1.7
 50
184.999989
 51
270.0
  0
LINE
  8
ボルト／ビス
  6
CONTINUOUS
 62
    64
 10
-21.473613
 20
-54.620382
 11
-19.75885
 21
-54.620382
  0
LINE
  8
ボルト／ビス
  6
CONTINUOUS
 62
    64
 10
-17.36221
 20
-54.235475
 11
-17.36221
 21
-54.477643
  0
LINE
  8
ボルト／ビス
  6
CONTINUOUS
 62
    64
 10
-19.058845
 20
-53.585397
 11
-19.75885
 21
-53.585397
  0
LINE
  8
ボルト／ビス
  6
CONTINUOUS
 62
    64
 10
-18.658847
 20
-54.235475
 11
-17.36221
 21
-54.235475
  0
LINE
  8
ボルト／ビス
  6
CONTINUOUS
 62
    64
 10
-19.058845
 20
-53.585397
 11
-19.058845
 21
-53.835477
  0
ARC
  8
ボルト／ビス
  6
CONTINUOUS
 62
    64
 10
-18.658854
 20
-53.835473
 40
0.4
 50
180.0
 51
270.0
  0
LINE
  8
ボルト／ビス
  6
CONTINUOUS
 62
    64
 10
-22.15549
 20
-54.235475
 11
-22.15549
 21
-54.477643
  0
LINE
  8
ボルト／ビス
  6
CONTINUOUS
 62
    64
 10
-20.458847
 20
-53.585397
 11
-19.75885
 21
-53.585397
  0
LINE
  8
ボルト／ビス
  6
CONTINUOUS
 62
    64
 10
-20.858845
 20
-54.235475
 11
-22.15549
 21
-54.235475
  0
LINE
  8
ボルト／ビス
  6
CONTINUOUS
 62
    64
 10
-20.458847
 20
-53.585397
 11
-20.458847
 21
-53.835477
  0
ARC
  8
ボルト／ビス
  6
CONTINUOUS
 62
    64
 10
-20.858854
 20
-53.835473
 40
0.4
 50
270.0
 51
360.0
  0
LINE
  8
ボルト／ビス
  6
CONTINUOUS
 62
    64
 10
-16.258847
 20
-52.02038
 11
-23.258845
 21
-52.02038
  0
LINE
  8
ボルト／ビス
  6
CONTINUOUS
 62
    64
 10
-19.75885
 20
-56.591773
 11
-19.75885
 21
-36.377113
  0
LINE
  8
ボルト／ビス
  6
CONTINUOUS
 62
    64
 10
-17.758847
 20
-38.52038
 11
-18.25885
 21
-38.020385
  0
LINE
  8
ボルト／ビス
  6
CONTINUOUS
 62
    64
 10
-21.758845
 20
-38.52038
 11
-21.25885
 21
-38.020385
  0
LINE
  8
ボルト／ビス
  6
CONTINUOUS
 62
    64
 10
-17.758847
 20
-38.52038
 11
-21.758845
 21
-38.52038
  0
LINE
  8
ボルト／ビス
  6
CONTINUOUS
 62
    64
 10
-18.25885
 20
-38.020385
 11
-21.25885
 21
-38.020385
  0
LINE
  8
ボルト／ビス
  6
CONTINUOUS
 62
    64
 10
-21.758845
 20
-52.02038
 11
-21.758845
 21
-38.52038
  0
LINE
  8
ボルト／ビス
  6
CONTINUOUS
 62
    64
 10
-17.758847
 20
-52.02038
 11
-17.758847
 21
-38.52038
  0
LINE
  8
ボルト／ビス
  6
CONTINUOUS
 62
    64
 10
-18.25885
 20
-52.02038
 11
-18.25885
 21
-38.020385
  0
LINE
  8
ボルト／ビス
  6
CONTINUOUS
 62
    64
 10
-21.25885
 20
-52.02038
 11
-21.25885
 21
-38.020385
  0
ENDBLK
  0
BLOCK
  2
*GRP_0023
 70
    65
 10
0.0
 20
0.0
  0
LINE
  8
ボルト／ビス
  6
CONTINUOUS
 62
    64
 10
-33.758853
 20
-83.620258
 11
-33.66715
 21
-84.66842
  0
ARC
  8
ボルト／ビス
  6
CONTINUOUS
 62
    64
 10
-31.97362
 20
-84.520254
 40
1.7
 50
184.999989
 51
270.0
  0
LINE
  8
ボルト／ビス
  6
CONTINUOUS
 62
    64
 10
-31.97362
 20
-86.22026
 11
-30.25885
 21
-86.22026
  0
LINE
  8
ボルト／ビス
  6
CONTINUOUS
 62
    64
 10
-26.758847
 20
-83.620258
 11
-26.85055
 21
-84.66842
  0
ARC
  8
ボルト／ビス
  6
CONTINUOUS
 62
    64
 10
-28.544087
 20
-84.520254
 40
1.7
 50
270.0
 51
355.000011
  0
LINE
  8
ボルト／ビス
  6
CONTINUOUS
 62
    64
 10
-28.54408
 20
-86.22026
 11
-30.25885
 21
-86.22026
  0
LINE
  8
ボルト／ビス
  6
CONTINUOUS
 62
    64
 10
-32.65549
 20
-85.835353
 11
-32.65549
 21
-86.077513
  0
LINE
  8
ボルト／ビス
  6
CONTINUOUS
 62
    64
 10
-30.958847
 20
-85.185268
 11
-30.25885
 21
-85.185268
  0
LINE
  8
ボルト／ビス
  6
CONTINUOUS
 62
    64
 10
-31.358853
 20
-85.835353
 11
-32.65549
 21
-85.835353
  0
LINE
  8
ボルト／ビス
  6
CONTINUOUS
 62
    64
 10
-30.958847
 20
-85.185268
 11
-30.958847
 21
-85.435355
  0
ARC
  8
ボルト／ビス
  6
CONTINUOUS
 62
    64
 10
-31.358853
 20
-85.435349
 40
0.4
 50
270.0
 51
360.0
  0
LINE
  8
ボルト／ビス
  6
CONTINUOUS
 62
    64
 10
-27.86221
 20
-85.835353
 11
-27.86221
 21
-86.077513
  0
LINE
  8
ボルト／ビス
  6
CONTINUOUS
 62
    64
 10
-29.558853
 20
-85.185268
 11
-30.25885
 21
-85.185268
  0
LINE
  8
ボルト／ビス
  6
CONTINUOUS
 62
    64
 10
-29.158847
 20
-85.835353
 11
-27.86221
 21
-85.835353
  0
LINE
  8
ボルト／ビス
  6
CONTINUOUS
 62
    64
 10
-29.558853
 20
-85.185268
 11
-29.558853
 21
-85.435355
  0
ARC
  8
ボルト／ビス
  6
CONTINUOUS
 62
    64
 10
-29.158853
 20
-85.435349
 40
0.4
 50
180.0
 51
270.0
  0
LINE
  8
ボルト／ビス
  6
CONTINUOUS
 62
    64
 10
-33.758853
 20
-83.620258
 11
-26.758847
 21
-83.620258
  0
LINE
  8
ボルト／ビス
  6
CONTINUOUS
 62
    64
 10
-32.258853
 20
-74.120255
 11
-31.75885
 21
-73.62026
  0
LINE
  8
ボルト／ビス
  6
CONTINUOUS
 62
    64
 10
-28.258847
 20
-74.120255
 11
-28.75885
 21
-73.62026
  0
LINE
  8
ボルト／ビス
  6
CONTINUOUS
 62
    64
 10
-32.258853
 20
-74.120255
 11
-28.258847
 21
-74.120255
  0
LINE
  8
ボルト／ビス
  6
CONTINUOUS
 62
    64
 10
-31.75885
 20
-73.62026
 11
-28.75885
 21
-73.62026
  0
LINE
  8
ボルト／ビス
  6
CONTINUOUS
 62
    64
 10
-30.25885
 20
-88.191643
 11
-30.25885
 21
-72.045388
  0
LINE
  8
ボルト／ビス
  6
CONTINUOUS
 62
    64
 10
-32.258853
 20
-83.620258
 11
-32.258853
 21
-74.120255
  0
LINE
  8
ボルト／ビス
  6
CONTINUOUS
 62
    64
 10
-28.258847
 20
-83.620258
 11
-28.258847
 21
-74.120255
  0
LINE
  8
ボルト／ビス
  6
CONTINUOUS
 62
    64
 10
-28.75885
 20
-83.620258
 11
-28.75885
 21
-73.62026
  0
LINE
  8
ボルト／ビス
  6
CONTINUOUS
 62
    64
 10
-31.75885
 20
-83.620258
 11
-31.75885
 21
-73.62026
  0
ENDBLK
  0
BLOCK
  2
*GRP_0024
 70
    65
 10
0.0
 20
0.0
  0
LINE
  8
ボルト／ビス
  6
CONTINUOUS
 62
    64
 10
-85.258825
 20
-81.72038
 11
-85.167123
 21
-82.768542
  0
ARC
  8
ボルト／ビス
  6
CONTINUOUS
 62
    64
 10
-83.47359
 20
-82.620375
 40
1.7
 50
184.999989
 51
270.0
  0
LINE
  8
ボルト／ビス
  6
CONTINUOUS
 62
    64
 10
-83.473592
 20
-84.320382
 11
-81.758823
 21
-84.320382
  0
LINE
  8
ボルト／ビス
  6
CONTINUOUS
 62
    64
 10
-78.25882
 20
-81.72038
 11
-78.350522
 21
-82.768542
  0
ARC
  8
ボルト／ビス
  6
CONTINUOUS
 62
    64
 10
-80.044056
 20
-82.620375
 40
1.7
 50
270.0
 51
355.000011
  0
LINE
  8
ボルト／ビス
  6
CONTINUOUS
 62
    64
 10
-80.044052
 20
-84.320382
 11
-81.758823
 21
-84.320382
  0
LINE
  8
ボルト／ビス
  6
CONTINUOUS
 62
    64
 10
-84.155462
 20
-83.935475
 11
-84.155462
 21
-84.177635
  0
LINE
  8
ボルト／ビス
  6
CONTINUOUS
 62
    64
 10
-82.45882
 20
-83.28539
 11
-81.758823
 21
-83.28539
  0
LINE
  8
ボルト／ビス
  6
CONTINUOUS
 62
    64
 10
-82.858825
 20
-83.935475
 11
-84.155462
 21
-83.935475
  0
LINE
  8
ボルト／ビス
  6
CONTINUOUS
 62
    64
 10
-82.45882
 20
-83.28539
 11
-82.45882
 21
-83.535477
  0
ARC
  8
ボルト／ビス
  6
CONTINUOUS
 62
    64
 10
-82.858823
 20
-83.53547
 40
0.4
 50
270.0
 51
360.0
  0
LINE
  8
ボルト／ビス
  6
CONTINUOUS
 62
    64
 10
-79.362183
 20
-83.935475
 11
-79.362183
 21
-84.177635
  0
LINE
  8
ボルト／ビス
  6
CONTINUOUS
 62
    64
 10
-81.058825
 20
-83.28539
 11
-81.758823
 21
-83.28539
  0
LINE
  8
ボルト／ビス
  6
CONTINUOUS
 62
    64
 10
-80.65882
 20
-83.935475
 11
-79.362183
 21
-83.935475
  0
LINE
  8
ボルト／ビス
  6
CONTINUOUS
 62
    64
 10
-81.058825
 20
-83.28539
 11
-81.058825
 21
-83.535477
  0
ARC
  8
ボルト／ビス
  6
CONTINUOUS
 62
    64
 10
-80.658823
 20
-83.53547
 40
0.4
 50
180.0
 51
270.0
  0
LINE
  8
ボルト／ビス
  6
CONTINUOUS
 62
    64
 10
-85.258825
 20
-81.72038
 11
-78.25882
 21
-81.72038
  0
LINE
  8
ボルト／ビス
  6
CONTINUOUS
 62
    64
 10
-83.758825
 20
-72.220377
 11
-83.258823
 21
-71.720382
  0
LINE
  8
ボルト／ビス
  6
CONTINUOUS
 62
    64
 10
-79.75882
 20
-72.220377
 11
-80.258823
 21
-71.720382
  0
LINE
  8
ボルト／ビス
  6
CONTINUOUS
 62
    64
 10
-83.758825
 20
-72.220377
 11
-79.75882
 21
-72.220377
  0
LINE
  8
ボルト／ビス
  6
CONTINUOUS
 62
    64
 10
-83.258823
 20
-71.720382
 11
-80.258823
 21
-71.720382
  0
LINE
  8
ボルト／ビス
  6
CONTINUOUS
 62
    64
 10
-81.758823
 20
-86.291765
 11
-81.758823
 21
-70.14551
  0
LINE
  8
ボルト／ビス
  6
CONTINUOUS
 62
    64
 10
-83.758825
 20
-81.72038
 11
-83.758825
 21
-72.220377
  0
LINE
  8
ボルト／ビス
  6
CONTINUOUS
 62
    64
 10
-79.75882
 20
-81.72038
 11
-79.75882
 21
-72.220377
  0
LINE
  8
ボルト／ビス
  6
CONTINUOUS
 62
    64
 10
-80.258823
 20
-81.72038
 11
-80.258823
 21
-71.720382
  0
LINE
  8
ボルト／ビス
  6
CONTINUOUS
 62
    64
 10
-83.258823
 20
-81.72038
 11
-83.258823
 21
-71.720382
  0
ENDBLK
  0
BLOCK
  2
*GRP_0025
 70
    65
 10
0.0
 20
0.0
  0
LINE
  8
ボルト／ビス
  6
CONTINUOUS
 62
    64
 10
-33.158845
 20
-16.020365
 11
-33.658847
 21
-16.520367
  0
LINE
  8
ボルト／ビス
  6
CONTINUOUS
 62
    64
 10
-33.158845
 20
-20.02037
 11
-33.658847
 21
-19.520367
  0
LINE
  8
ボルト／ビス
  6
CONTINUOUS
 62
    64
 10
-33.658847
 20
-16.520367
 11
-33.658847
 21
-19.520367
  0
LINE
  8
ボルト／ビス
  6
CONTINUOUS
 62
    64
 10
-33.158845
 20
-16.020365
 11
-33.158845
 21
-20.02037
  0
LINE
  8
ボルト／ビス
  6
CONTINUOUS
 62
    64
 10
-33.158845
 20
-16.020365
 11
-29.458847
 21
-16.020365
  0
LINE
  8
ボルト／ビス
  6
CONTINUOUS
 62
    64
 10
-33.658847
 20
-16.520367
 11
-29.458847
 21
-16.520367
  0
LINE
  8
ボルト／ビス
  6
CONTINUOUS
 62
    64
 10
-33.658847
 20
-19.520367
 11
-29.458847
 21
-19.520367
  0
LINE
  8
ボルト／ビス
  6
CONTINUOUS
 62
    64
 10
-33.158845
 20
-20.02037
 11
-29.458847
 21
-20.02037
  0
LINE
  8
ボルト／ビス
  6
CONTINUOUS
 62
    64
 10
-29.458847
 20
-16.020365
 11
-29.458847
 21
-20.02037
  0
LINE
  8
ボルト／ビス
  6
CONTINUOUS
 62
    64
 10
-27.658847
 20
-15.020367
 11
-29.458847
 21
-16.020365
  0
LINE
  8
ボルト／ビス
  6
CONTINUOUS
 62
    64
 10
-27.658847
 20
-15.020367
 11
-27.658847
 21
-21.020367
  0
LINE
  8
ボルト／ビス
  6
CONTINUOUS
 62
    64
 10
-27.658847
 20
-21.020367
 11
-29.458847
 21
-20.02037
  0
LINE
  8
ボルト／ビス
  6
CONTINUOUS
 62
    64
 10
-35.239322
 20
-18.020367
 11
-26.175317
 21
-18.020367
  0
ENDBLK
  0
BLOCK
  2
*GRP_0026
 70
    65
 10
0.0
 20
0.0
  0
LINE
  8
ボルト／ビス
  6
CONTINUOUS
 62
    64
 10
-27.25885
 20
2.975852
 11
-26.210688
 21
2.88415
  0
ARC
  8
ボルト／ビス
  6
CONTINUOUS
 62
    64
 10
-26.35885
 20
1.190621
 40
1.7
 50
0.0
 51
85.000011
  0
LINE
  8
ボルト／ビス
  6
CONTINUOUS
 62
    64
 10
-24.658855
 20
1.19062
 11
-24.658855
 21
-0.52415
  0
LINE
  8
ボルト／ビス
  6
CONTINUOUS
 62
    64
 10
-27.25885
 20
-4.024153
 11
-26.210688
 21
-3.93245
  0
ARC
  8
ボルト／ビス
  6
CONTINUOUS
 62
    64
 10
-26.35885
 20
-2.238913
 40
1.7
 50
274.999989
 51
360.0
  0
LINE
  8
ボルト／ビス
  6
CONTINUOUS
 62
    64
 10
-24.658855
 20
-2.23892
 11
-24.658855
 21
-0.52415
  0
LINE
  8
ボルト／ビス
  6
CONTINUOUS
 62
    64
 10
-25.043755
 20
1.87249
 11
-24.801595
 21
1.87249
  0
LINE
  8
ボルト／ビス
  6
CONTINUOUS
 62
    64
 10
-25.69384
 20
0.175848
 11
-25.69384
 21
-0.52415
  0
LINE
  8
ボルト／ビス
  6
CONTINUOUS
 62
    64
 10
-25.043755
 20
0.575852
 11
-25.043755
 21
1.87249
  0
LINE
  8
ボルト／ビス
  6
CONTINUOUS
 62
    64
 10
-25.69384
 20
0.175848
 11
-25.44376
 21
0.175848
  0
ARC
  8
ボルト／ビス
  6
CONTINUOUS
 62
    64
 10
-25.443755
 20
0.575854
 40
0.4
 50
270.0
 51
360.0
  0
LINE
  8
ボルト／ビス
  6
CONTINUOUS
 62
    64
 10
-25.043755
 20
-2.92079
 11
-24.801595
 21
-2.92079
  0
LINE
  8
ボルト／ビス
  6
CONTINUOUS
 62
    64
 10
-25.69384
 20
-1.224147
 11
-25.69384
 21
-0.52415
  0
LINE
  8
ボルト／ビス
  6
CONTINUOUS
 62
    64
 10
-25.043755
 20
-1.624153
 11
-25.043755
 21
-2.92079
  0
LINE
  8
ボルト／ビス
  6
CONTINUOUS
 62
    64
 10
-25.69384
 20
-1.224147
 11
-25.44376
 21
-1.224147
  0
ARC
  8
ボルト／ビス
  6
CONTINUOUS
 62
    64
 10
-25.443755
 20
-1.624146
 40
0.4
 50
0.0
 51
90.0
  0
LINE
  8
ボルト／ビス
  6
CONTINUOUS
 62
    64
 10
-27.25885
 20
2.975852
 11
-27.25885
 21
-4.024153
  0
LINE
  8
ボルト／ビス
  6
CONTINUOUS
 62
    64
 10
-34.75885
 20
1.475852
 11
-35.258853
 21
0.97585
  0
LINE
  8
ボルト／ビス
  6
CONTINUOUS
 62
    64
 10
-34.75885
 20
-2.524153
 11
-35.258853
 21
-2.02415
  0
LINE
  8
ボルト／ビス
  6
CONTINUOUS
 62
    64
 10
-27.25885
 20
0.97585
 11
-35.258853
 21
0.97585
  0
LINE
  8
ボルト／ビス
  6
CONTINUOUS
 62
    64
 10
-27.25885
 20
1.475852
 11
-34.75885
 21
1.475852
  0
LINE
  8
ボルト／ビス
  6
CONTINUOUS
 62
    64
 10
-27.25885
 20
-2.02415
 11
-35.258853
 21
-2.02415
  0
LINE
  8
ボルト／ビス
  6
CONTINUOUS
 62
    64
 10
-27.25885
 20
-2.524153
 11
-34.75885
 21
-2.524153
  0
LINE
  8
ボルト／ビス
  6
CONTINUOUS
 62
    64
 10
-34.75885
 20
1.475852
 11
-34.75885
 21
-2.524153
  0
LINE
  8
ボルト／ビス
  6
CONTINUOUS
 62
    64
 10
-35.258853
 20
0.97585
 11
-35.258853
 21
-2.02415
  0
LINE
  8
ボルト／ビス
  6
DASHDOT
 62
    64
 10
-21.658855
 20
-0.52415
 11
-38.258853
 21
-0.52415
  0
ENDBLK
  0
BLOCK
  2
*GRP_0027
 70
    65
 10
0.0
 20
0.0
  0
LINE
  8
St
  6
CONTINUOUS
 10
-68.064437
 20
-118.82036
 11
-71.26444
 21
-118.82036
  0
LINE
  8
St
  6
CONTINUOUS
 10
-68.064437
 20
-108.820355
 11
-71.26444
 21
-108.820355
  0
LINE
  8
St
  6
CONTINUOUS
 10
-46.341528
 20
-78.820258
 11
-49.541522
 21
-82.02026
  0
LINE
  8
St
  6
CONTINUOUS
 10
-47.048635
 20
-78.820258
 11
-50.24863
 21
-82.02026
  0
LINE
  8
St
  6
CONTINUOUS
 10
-74.983
 20
-78.820258
 11
-78.182995
 21
-82.02026
  0
LINE
  8
St
  6
CONTINUOUS
 10
-75.690107
 20
-78.820258
 11
-78.890103
 21
-82.02026
  0
LINE
  8
St
  6
CONTINUOUS
 10
-25.258847
 20
-78.820385
 11
-25.258847
 21
-82.02026
  0
ARC
  8
St
  6
CONTINUOUS
 62
   127
 10
-68.064444
 20
-82.020363
 40
3.2
 50
90.0
 51
180.0
  0
LINE
  8
St
  6
CONTINUOUS
 10
-32.508805
 20
-78.820258
 11
-32.508805
 21
-82.02026
  0
LINE
  8
St
  6
CONTINUOUS
 10
-28.008805
 20
-78.820258
 11
-28.008805
 21
-82.02026
  0
LINE
  8
St
  6
CONTINUOUS
 10
-28.008805
 20
-79.62026
 11
-32.508805
 21
-79.62026
  0
LINE
  8
St
  6
CONTINUOUS
 10
-28.008805
 20
-80.420255
 11
-32.508805
 21
-80.420255
  0
LINE
  8
St
  6
CONTINUOUS
 10
-28.008805
 20
-81.220258
 11
-32.508805
 21
-81.220258
  0
LINE
  8
St
  6
CONTINUOUS
 10
-30.258805
 20
-85.071133
 11
-30.258805
 21
-75.598498
  0
LINE
  8
St
  6
CONTINUOUS
 10
-84.008777
 20
-78.820377
 11
-84.008777
 21
-82.02038
  0
LINE
  8
St
  6
CONTINUOUS
 10
-79.508777
 20
-78.820377
 11
-79.508777
 21
-82.02038
  0
LINE
  8
St
  6
CONTINUOUS
 10
-79.508777
 20
-79.62038
 11
-84.008777
 21
-79.62038
  0
LINE
  8
St
  6
CONTINUOUS
 10
-79.508777
 20
-80.420375
 11
-84.008777
 21
-80.420375
  0
LINE
  8
St
  6
CONTINUOUS
 10
-79.508777
 20
-81.220377
 11
-84.008777
 21
-81.220377
  0
LINE
  8
St
  6
CONTINUOUS
 10
-81.758777
 20
-85.071252
 11
-81.758777
 21
-75.598618
  0
LINE
  8
St
  6
CONTINUOUS
 10
-62.892775
 20
-113.820357
 11
-76.729953
 21
-113.820357
  0
LINE
  8
St
  6
CONTINUOUS
 10
-68.064437
 20
-128.82026
 11
-71.26444
 21
-128.82026
  0
LINE
  8
St
  6
CONTINUOUS
 62
   127
 10
-68.064437
 20
-82.020373
 11
-68.064437
 21
-128.82026
  0
LINE
  8
St
  6
CONTINUOUS
 62
   127
 10
-71.26444
 20
-82.020373
 11
-71.26444
 21
-128.82026
  0
LINE
  8
St
  6
CONTINUOUS
 62
   127
 10
-68.86444
 20
-108.820355
 11
-68.86444
 21
-118.82036
  0
LINE
  8
St
  6
CONTINUOUS
 62
   127
 10
-69.664435
 20
-108.820355
 11
-69.664435
 21
-118.82036
  0
LINE
  8
St
  6
CONTINUOUS
 62
   127
 10
-70.464437
 20
-108.820355
 11
-70.464437
 21
-118.82036
  0
LINE
  8
St
  6
CONTINUOUS
 62
   127
 10
-25.258847
 20
-82.02026
 11
-86.758855
 21
-82.02038
  0
LINE
  8
St
  6
CONTINUOUS
 62
   127
 10
-86.758855
 20
-82.02038
 11
-86.758847
 21
-78.820377
  0
LINE
  8
St
  6
CONTINUOUS
 62
   127
 10
-25.258847
 20
-78.820258
 11
-86.758847
 21
-78.820377
  0
ENDBLK
  0
BLOCK
  2
*DIM_0028
 70
    65
 10
0.0
 20
0.0
  0
LINE
  8
寸法
  6
CONTINUOUS
 10
-69.454493
 20
50.479632
 11
-157.501293
 21
50.479632
  0
LINE
  8
寸法
  6
CONTINUOUS
 10
-114.258845
 20
-78.520377
 11
-157.501293
 21
-78.520377
  0
LINE
  8
寸法
  6
CONTINUOUS
 10
-157.501293
 20
50.479632
 11
-157.501293
 21
-78.520377
  0
POINT
  8
寸法
 10
-157.501293
 20
50.479632
  0
POINT
  8
寸法
 10
-157.501293
 20
-78.520377
  0
TEXT
  7
TextStyle03
  8
寸法
  6
CONTINUOUS
 10
-157.9
 20
-17.275
  1
129
 40
4.0
 50
90.0
 72
     5
 11
-157.9
 21
-10.775
  0
ENDBLK
  0
BLOCK
  2
*DIM_0029
 70
    65
 10
0.0
 20
0.0
  0
LINE
  8
寸法
  6
CONTINUOUS
 10
-89.258847
 20
-88.520375
 11
-157.501293
 21
-88.520375
  0
LINE
  8
寸法
  6
CONTINUOUS
 10
-157.501293
 20
-78.520377
 11
-157.501293
 21
-88.520375
  0
POINT
  8
寸法
 10
-157.501293
 20
-88.520375
  0
TEXT
  7
TextStyle03
  8
寸法
  6
CONTINUOUS
 10
-157.9
 20
-85.65
  1
10
 40
4.0
 50
90.0
 72
     5
 11
-157.9
 21
-81.4
  0
ENDBLK
  0
BLOCK
  2
*DIM_0030
 70
    65
 10
0.0
 20
0.0
  0
LINE
  8
寸法
  6
CONTINUOUS
 10
-69.454493
 20
50.479632
 11
-149.282687
 21
50.479632
  0
LINE
  8
寸法
  6
CONTINUOUS
 10
-67.758845
 20
0.47962
 11
-149.282687
 21
0.47962
  0
LINE
  8
寸法
  6
CONTINUOUS
 10
-149.282687
 20
50.479632
 11
-149.282687
 21
0.47962
  0
POINT
  8
寸法
 10
-149.282687
 20
50.479632
  0
POINT
  8
寸法
 10
-149.282687
 20
0.47962
  0
TEXT
  7
TextStyle03
  8
寸法
  6
CONTINUOUS
 10
-149.7
 20
23.35
  1
50
 40
4.0
 50
90.0
 72
     5
 11
-149.7
 21
27.6
  0
ENDBLK
  0
BLOCK
  2
*DIM_0031
 70
    65
 10
0.0
 20
0.0
  0
LINE
  8
寸法
  6
CONTINUOUS
 10
-114.258845
 20
-63.520377
 11
-149.282687
 21
-63.520377
  0
LINE
  8
寸法
  6
CONTINUOUS
 10
-149.282687
 20
0.47962
 11
-149.282687
 21
-63.520377
  0
POINT
  8
寸法
 10
-149.282687
 20
-63.520377
  0
TEXT
  7
TextStyle03
  8
寸法
  6
CONTINUOUS
 10
-149.7
 20
-33.65
  1
64
 40
4.0
 50
90.0
 72
     5
 11
-149.7
 21
-29.4
  0
ENDBLK
  0
BLOCK
  2
*DIM_0032
 70
    65
 10
0.0
 20
0.0
  0
LINE
  8
寸法
  6
CONTINUOUS
 10
-114.258845
 20
-78.520377
 11
-149.282687
 21
-78.520377
  0
LINE
  8
寸法
  6
CONTINUOUS
 10
-149.282687
 20
-63.520377
 11
-149.282687
 21
-78.520377
  0
POINT
  8
寸法
 10
-149.282687
 20
-78.520377
  0
TEXT
  7
TextStyle03
  8
寸法
  6
CONTINUOUS
 10
-149.7
 20
-73.15
  1
15
 40
4.0
 50
90.0
 72
     5
 11
-149.7
 21
-68.9
  0
ENDBLK
  0
BLOCK
  2
*DIM_0033
 70
    65
 10
0.0
 20
0.0
  0
LINE
  8
寸法
  6
CONTINUOUS
 10
-114.258845
 20
-63.520377
 11
-140.930108
 21
-63.520377
  0
LINE
  8
寸法
  6
CONTINUOUS
 10
-59.258847
 20
-58.520375
 11
-140.930108
 21
-58.520375
  0
LINE
  8
寸法
  6
CONTINUOUS
 10
-140.930108
 20
-63.520377
 11
-140.930108
 21
-58.520375
  0
POINT
  8
寸法
 10
-140.930108
 20
-63.520377
  0
POINT
  8
寸法
 10
-140.930108
 20
-58.520375
  0
TEXT
  7
TextStyle03
  8
寸法
  6
CONTINUOUS
 10
-141.325
 20
-62.025
  1
5
 40
4.0
 50
90.0
 72
     5
 11
-141.325
 21
-60.025
  0
ENDBLK
  0
BLOCK
  2
*DIM_0034
 70
    65
 10
0.0
 20
0.0
  0
LINE
  8
寸法
  6
CONTINUOUS
 10
-113.258845
 20
-62.520377
 11
-113.258845
 21
107.132187
  0
LINE
  8
寸法
  6
CONTINUOUS
 10
-18.258847
 20
107.132187
 11
-113.258845
 21
107.132187
  0
POINT
  8
寸法
 10
-18.258847
 20
107.132187
  0
POINT
  8
寸法
 10
-113.258845
 20
107.132187
  0
TEXT
  7
TextStyle03
  8
寸法
  6
CONTINUOUS
 10
-67.925
 20
107.5
  1
95
 40
4.0
 72
     5
 11
-63.675
 21
107.5
  0
ENDBLK
  0
BLOCK
  2
*DIM_0035
 70
    65
 10
0.0
 20
0.0
  0
LINE
  8
寸法
  6
CONTINUOUS
 10
16.741152
 20
-24.520375
 11
16.741152
 21
98.476022
  0
LINE
  8
寸法
  6
CONTINUOUS
 10
-18.258847
 20
98.476022
 11
16.741152
 21
98.476022
  0
POINT
  8
寸法
 10
-18.258847
 20
98.476022
  0
POINT
  8
寸法
 10
16.741152
 20
98.476022
  0
TEXT
  7
TextStyle03
  8
寸法
  6
CONTINUOUS
 10
-2.925
 20
98.85
  1
35
 40
4.0
 72
     5
 11
1.325
 21
98.85
  0
ENDBLK
  0
BLOCK
  2
*DIM_0036
 70
    65
 10
0.0
 20
0.0
  0
LINE
  8
寸法
  6
CONTINUOUS
 10
-113.258845
 20
-79.520377
 11
-113.258845
 21
-101.539027
  0
LINE
  8
寸法
  6
CONTINUOUS
 10
-88.258847
 20
-89.520375
 11
-88.258847
 21
-101.539027
  0
LINE
  8
寸法
  6
CONTINUOUS
 10
-113.258845
 20
-101.539027
 11
-88.258847
 21
-101.539027
  0
POINT
  8
寸法
 10
-113.258845
 20
-101.539027
  0
POINT
  8
寸法
 10
-88.258847
 20
-101.539027
  0
TEXT
  7
TextStyle03
  8
寸法
  6
CONTINUOUS
 10
-102.925
 20
-101.15
  1
25
 40
4.0
 72
     5
 11
-98.675
 21
-101.15
  0
ENDBLK
  0
BLOCK
  2
*GRP_0037
 70
    65
 10
0.0
 20
0.0
  0
POLYLINE
  8
寸法
  6
BYBLOCK
 62
     0
 66
     1
  0
VERTEX
  8
寸法
 10
-58.258847
 20
-54.220377
  0
VERTEX
  8
寸法
 10
-61.334475
 20
-51.14475
  0
VERTEX
  8
寸法
 10
-70.883915
 20
-51.14475
  0
SEQEND
  0
ENDBLK
  0
BLOCK
  2
*GRP_0038
 70
    65
 10
0.0
 20
0.0
  0
POLYLINE
  8
寸法
  6
BYBLOCK
 62
     0
 66
     1
  0
VERTEX
  8
寸法
 10
-16.288332
 20
-45.600355
  0
VERTEX
  8
寸法
 10
1.9279
 20
-63.816587
  0
VERTEX
  8
寸法
 10
16.328418
 20
-63.816587
  0
SEQEND
  0
ENDBLK
  0
BLOCK
  2
*GRP_0039
 70
    65
 10
0.0
 20
0.0
  0
POLYLINE
  8
寸法
  6
CONTINUOUS
 66
     1
  0
VERTEX
  8
寸法
 10
-9.483235
 20
-12.124153
  0
VERTEX
  8
寸法
 10
-3.929577
 20
-17.67781
  0
VERTEX
  8
寸法
 10
25.513465
 20
-17.67781
  0
SEQEND
  0
ENDBLK
  0
BLOCK
  2
*GRP_0040
 70
    65
 10
0.0
 20
0.0
  0
POLYLINE
  8
寸法
  6
CONTINUOUS
 66
     1
  0
VERTEX
  8
寸法
 10
-13.15885
 20
-67.853193
  0
VERTEX
  8
寸法
 10
5.300338
 20
-86.312382
  0
VERTEX
  8
寸法
 10
15.525007
 20
-86.312382
  0
SEQEND
  0
ENDBLK
  0
BLOCK
  2
*DIM_0041
 70
    65
 10
0.0
 20
0.0
  0
LINE
  8
寸法
  6
CONTINUOUS
 10
2.5015
 20
50.479623
 11
97.180588
 21
50.479623
  0
LINE
  8
寸法
  6
CONTINUOUS
 10
4.54551
 20
47.27962
 11
97.180588
 21
47.27962
  0
LINE
  8
寸法
  6
CONTINUOUS
 10
97.180588
 20
50.479623
 11
97.180588
 21
47.27962
  0
POINT
  8
寸法
 10
97.180588
 20
50.479623
  0
POINT
  8
寸法
 10
97.180588
 20
47.27962
  0
TEXT
  7
TextStyle03
  8
寸法
  6
CONTINUOUS
 10
96.775
 20
52.375
  1
3.2
 40
4.0
 50
90.0
 72
     5
 11
96.775
 21
58.875
  0
ENDBLK
  0
BLOCK
  2
*DIM_0042
 70
    65
 10
0.0
 20
0.0
  0
LINE
  8
寸法
  6
CONTINUOUS
 10
4.54551
 20
47.27962
 11
97.180588
 21
47.27962
  0
LINE
  8
寸法
  6
CONTINUOUS
 10
2.238023
 20
5.675755
 11
97.180588
 21
5.675755
  0
LINE
  8
寸法
  6
CONTINUOUS
 10
97.180588
 20
47.27962
 11
97.180588
 21
5.675755
  0
POINT
  8
寸法
 10
97.180588
 20
5.675755
  0
TEXT
  7
TextStyle03
  8
寸法
  6
CONTINUOUS
 10
96.775
 20
22.1
  1
41.6
 40
4.0
 50
90.0
 72
     5
 11
96.775
 21
30.85
  0
ENDBLK
  0
BLOCK
  2
*DIM_0043
 70
    65
 10
0.0
 20
0.0
  0
LINE
  8
寸法
  6
CONTINUOUS
 10
2.238023
 20
5.675755
 11
97.180588
 21
5.675755
  0
LINE
  8
寸法
  6
CONTINUOUS
 10
17.741152
 20
-25.520375
 11
97.180588
 21
-25.520375
  0
LINE
  8
寸法
  6
CONTINUOUS
 10
97.180588
 20
5.675755
 11
97.180588
 21
-25.520375
  0
POINT
  8
寸法
 10
97.180588
 20
-25.520375
  0
TEXT
  7
TextStyle03
  8
寸法
  6
CONTINUOUS
 10
96.775
 20
-14.3
  1
31.2
 40
4.0
 50
90.0
 72
     5
 11
96.775
 21
-5.55
  0
ENDBLK
  0
BLOCK
  2
*DIM_0044
 70
    65
 10
0.0
 20
0.0
  0
LINE
  8
寸法
  6
CONTINUOUS
 10
17.741152
 20
-25.520375
 11
97.180588
 21
-25.520375
  0
LINE
  8
寸法
  6
CONTINUOUS
 10
17.741152
 20
-36.020375
 11
97.180588
 21
-36.020375
  0
LINE
  8
寸法
  6
CONTINUOUS
 10
97.180588
 20
-25.520375
 11
97.180588
 21
-36.020375
  0
POINT
  8
寸法
 10
97.180588
 20
-36.020375
  0
TEXT
  7
TextStyle03
  8
寸法
  6
CONTINUOUS
 10
96.775
 20
-35.15
  1
10.5
 40
4.0
 50
90.0
 72
     5
 11
96.775
 21
-26.4
  0
ENDBLK
  0
BLOCK
  2
*DIM_0045
 70
    65
 10
0.0
 20
0.0
  0
LINE
  8
寸法
  6
CONTINUOUS
 10
17.741152
 20
-36.020375
 11
97.180588
 21
-36.020375
  0
LINE
  8
寸法
  6
CONTINUOUS
 10
-24.258847
 20
-78.820385
 11
97.180588
 21
-78.820385
  0
LINE
  8
寸法
  6
CONTINUOUS
 10
97.180588
 20
-36.020375
 11
97.180588
 21
-78.820385
  0
POINT
  8
寸法
 10
97.180588
 20
-78.820385
  0
TEXT
  7
TextStyle03
  8
寸法
  6
CONTINUOUS
 10
96.775
 20
-61.8
  1
42.8
 40
4.0
 50
90.0
 72
     5
 11
96.775
 21
-53.05
  0
ENDBLK
  0
BLOCK
  2
*DIM_0046
 70
    65
 10
0.0
 20
0.0
  0
LINE
  8
寸法
  6
CONTINUOUS
 10
4.54551
 20
47.27962
 11
89.850898
 21
47.27962
  0
LINE
  8
寸法
  6
CONTINUOUS
 10
51.714378
 20
38.475745
 11
89.850898
 21
38.475745
  0
LINE
  8
寸法
  6
CONTINUOUS
 10
89.850898
 20
47.27962
 11
89.850898
 21
38.475745
  0
POINT
  8
寸法
 10
89.850898
 20
47.27962
  0
POINT
  8
寸法
 10
89.850898
 20
38.475745
  0
TEXT
  7
TextStyle03
  8
寸法
  6
CONTINUOUS
 10
89.45
 20
39.625
  1
8.8
 40
4.0
 50
90.0
 72
     5
 11
89.45
 21
46.125
  0
ENDBLK
  0
BLOCK
  2
*DIM_0047
 70
    65
 10
0.0
 20
0.0
  0
LINE
  8
寸法
  6
CONTINUOUS
 10
51.714378
 20
38.475745
 11
89.850898
 21
38.475745
  0
LINE
  8
寸法
  6
CONTINUOUS
 10
51.714378
 20
20.67574
 11
89.850898
 21
20.67574
  0
LINE
  8
寸法
  6
CONTINUOUS
 10
89.850898
 20
38.475745
 11
89.850898
 21
20.67574
  0
POINT
  8
寸法
 10
89.850898
 20
20.67574
  0
TEXT
  7
TextStyle03
  8
寸法
  6
CONTINUOUS
 10
89.45
 20
25.2
  1
17.8
 40
4.0
 50
90.0
 72
     5
 11
89.45
 21
33.95
  0
ENDBLK
  0
BLOCK
  2
*DIM_0048
 70
    65
 10
0.0
 20
0.0
  0
LINE
  8
寸法
  6
CONTINUOUS
 10
51.714378
 20
20.67574
 11
89.850898
 21
20.67574
  0
LINE
  8
寸法
  6
CONTINUOUS
 10
2.238023
 20
5.675755
 11
89.850898
 21
5.675755
  0
LINE
  8
寸法
  6
CONTINUOUS
 10
89.850898
 20
20.67574
 11
89.850898
 21
5.675755
  0
POINT
  8
寸法
 10
89.850898
 20
5.675755
  0
TEXT
  7
TextStyle03
  8
寸法
  6
CONTINUOUS
 10
89.45
 20
11.05
  1
15
 40
4.0
 50
90.0
 72
     5
 11
89.45
 21
15.3
  0
ENDBLK
  0
BLOCK
  2
*GRP_0049
 70
    65
 10
0.0
 20
0.0
  0
POLYLINE
  8
寸法
  6
CONTINUOUS
 66
     1
  0
VERTEX
  8
寸法
 10
-50.458595
 20
17.847942
  0
VERTEX
  8
寸法
 10
-65.47969
 20
-10.93281
  0
VERTEX
  8
寸法
 10
-68.714678
 20
-10.93281
  0
SEQEND
  0
ENDBLK
  0
BLOCK
  2
*GRP_0050
 70
    65
 10
0.0
 20
0.0
  0
LINE
  8
型材断面
  6
CONTINUOUS
 10
-16.258847
 20
-48.520377
 11
-17.008847
 21
-48.520377
  0
LINE
  8
型材断面
  6
CONTINUOUS
 10
-17.008847
 20
-48.520377
 11
-16.808845
 21
-47.52038
  0
LINE
  8
型材断面
  6
CONTINUOUS
 10
-16.808845
 20
-47.52038
 11
-11.758847
 21
-47.52038
  0
LINE
  8
型材断面
  6
CONTINUOUS
 10
-11.758847
 20
-47.52038
 11
-11.758847
 21
-52.02038
  0
LINE
  8
型材断面
  6
CONTINUOUS
 10
-11.758847
 20
-52.02038
 11
-12.958847
 21
-52.02038
  0
LINE
  8
型材断面
  6
CONTINUOUS
 10
-12.958847
 20
-52.02038
 11
-12.958847
 21
-49.020373
  0
LINE
  8
型材断面
  6
CONTINUOUS
 10
-12.958847
 20
-49.020373
 11
-14.758847
 21
-49.020373
  0
LINE
  8
型材断面
  6
CONTINUOUS
 10
-14.758847
 20
-49.020373
 11
-14.758847
 21
-52.02038
  0
LINE
  8
型材断面
  6
CONTINUOUS
 10
-14.758847
 20
-52.02038
 11
-19.45885
 21
-52.02038
  0
LINE
  8
型材断面
  6
CONTINUOUS
 10
-19.45885
 20
-52.02038
 11
-19.75885
 21
-51.720373
  0
LINE
  8
型材断面
  6
CONTINUOUS
 10
-19.75885
 20
-51.720373
 11
-20.058842
 21
-52.02038
  0
LINE
  8
型材断面
  6
CONTINUOUS
 10
-20.058842
 20
-52.02038
 11
-25.258847
 21
-52.02038
  0
LINE
  8
型材断面
  6
CONTINUOUS
 10
-25.258847
 20
-52.02038
 11
-25.258847
 21
-78.820385
  0
LINE
  8
型材断面
  6
CONTINUOUS
 10
-25.258847
 20
-78.820385
 11
-29.958842
 21
-78.820385
  0
LINE
  8
型材断面
  6
CONTINUOUS
 10
-29.958842
 20
-78.820385
 11
-30.25885
 21
-78.520377
  0
LINE
  8
型材断面
  6
CONTINUOUS
 10
-30.25885
 20
-78.520377
 11
-30.55885
 21
-78.820385
  0
LINE
  8
型材断面
  6
CONTINUOUS
 10
-30.55885
 20
-78.820385
 11
-35.258845
 21
-78.820385
  0
LINE
  8
型材断面
  6
CONTINUOUS
 10
-35.258845
 20
-78.820385
 11
-35.258845
 21
-76.820375
  0
LINE
  8
型材断面
  6
CONTINUOUS
 10
-35.258845
 20
-76.820375
 11
-26.95885
 21
-76.820375
  0
LINE
  8
型材断面
  6
CONTINUOUS
 10
-26.95885
 20
-76.820375
 11
-26.95885
 21
-60.220377
  0
LINE
  8
型材断面
  6
CONTINUOUS
 10
-26.95885
 20
-60.220377
 11
-58.18174
 21
-60.220377
  0
LINE
  8
型材断面
  6
CONTINUOUS
 10
-58.18174
 20
-60.220377
 11
-111.55885
 21
-65.07284
  0
LINE
  8
型材断面
  6
CONTINUOUS
 10
-111.55885
 20
-65.07284
 11
-111.55885
 21
-76.820375
  0
LINE
  8
型材断面
  6
CONTINUOUS
 10
-111.55885
 20
-76.820375
 11
-76.75885
 21
-76.820375
  0
LINE
  8
型材断面
  6
CONTINUOUS
 10
-76.75885
 20
-76.820375
 11
-76.75885
 21
-78.820385
  0
LINE
  8
型材断面
  6
CONTINUOUS
 10
-76.75885
 20
-78.820385
 11
-81.458845
 21
-78.820385
  0
LINE
  8
型材断面
  6
CONTINUOUS
 10
-81.458845
 20
-78.820385
 11
-81.758845
 21
-78.520377
  0
LINE
  8
型材断面
  6
CONTINUOUS
 10
-81.758845
 20
-78.520377
 11
-82.058853
 21
-78.820385
  0
LINE
  8
型材断面
  6
CONTINUOUS
 10
-82.058853
 20
-78.820385
 11
-86.758847
 21
-78.820385
  0
LINE
  8
型材断面
  6
CONTINUOUS
 10
-86.758847
 20
-78.820385
 11
-86.758847
 21
-88.520375
  0
LINE
  8
型材断面
  6
CONTINUOUS
 10
-86.758847
 20
-88.520375
 11
-88.258847
 21
-88.520375
  0
LINE
  8
型材断面
  6
CONTINUOUS
 10
-88.258847
 20
-88.520375
 11
-88.258847
 21
-78.520377
  0
LINE
  8
型材断面
  6
CONTINUOUS
 10
-88.258847
 20
-78.520377
 11
-113.258845
 21
-78.520377
  0
LINE
  8
型材断面
  6
CONTINUOUS
 10
-113.258845
 20
-78.520377
 11
-113.258845
 21
-63.520377
  0
LINE
  8
型材断面
  6
CONTINUOUS
 10
-113.258845
 20
-63.520377
 11
-58.258847
 21
-58.520375
  0
LINE
  8
型材断面
  6
CONTINUOUS
 10
-58.258847
 20
-58.520375
 11
-58.258847
 21
-54.820377
  0
LINE
  8
型材断面
  6
CONTINUOUS
 10
-58.258847
 20
-54.820377
 11
-57.958847
 21
-54.520385
  0
LINE
  8
型材断面
  6
CONTINUOUS
 10
-57.958847
 20
-54.520385
 11
-58.258847
 21
-54.220377
  0
LINE
  8
型材断面
  6
CONTINUOUS
 10
-58.258847
 20
-54.220377
 11
-58.258847
 21
-8.020363
  0
LINE
  8
型材断面
  6
CONTINUOUS
 10
-58.258847
 20
-8.020363
 11
-54.258842
 21
-4.020373
  0
LINE
  8
型材断面
  6
CONTINUOUS
 10
-54.258842
 20
-4.020373
 11
-54.258842
 21
20.679625
  0
LINE
  8
型材断面
  6
CONTINUOUS
 10
-54.258842
 20
20.679625
 11
-53.95885
 21
20.979625
  0
LINE
  8
型材断面
  6
CONTINUOUS
 10
-53.95885
 20
20.979625
 11
-54.258842
 21
21.279625
  0
LINE
  8
型材断面
  6
CONTINUOUS
 10
-54.258842
 20
21.279625
 11
-54.258842
 21
25.979628
  0
LINE
  8
型材断面
  6
CONTINUOUS
 10
-54.258842
 20
25.979628
 11
-52.558847
 21
25.979628
  0
LINE
  8
型材断面
  6
CONTINUOUS
 10
-52.558847
 20
25.979628
 11
-52.558847
 21
-4.724525
  0
LINE
  8
型材断面
  6
CONTINUOUS
 10
-52.558847
 20
-4.724525
 11
-56.558853
 21
-8.72453
  0
LINE
  8
型材断面
  6
CONTINUOUS
 10
-56.558853
 20
-8.72453
 11
-56.558853
 21
-58.520375
  0
LINE
  8
型材断面
  6
CONTINUOUS
 10
-56.558853
 20
-58.520375
 11
-26.95885
 21
-58.520375
  0
LINE
  8
型材断面
  6
CONTINUOUS
 10
-26.95885
 20
-58.520375
 11
-26.95885
 21
-47.52038
  0
LINE
  8
型材断面
  6
CONTINUOUS
 10
-26.95885
 20
-47.52038
 11
-22.708847
 21
-47.52038
  0
LINE
  8
型材断面
  6
CONTINUOUS
 10
-22.708847
 20
-47.52038
 11
-22.508853
 21
-48.520377
  0
LINE
  8
型材断面
  6
CONTINUOUS
 10
-22.508853
 20
-48.520377
 11
-25.258847
 21
-48.520377
  0
LINE
  8
型材断面
  6
CONTINUOUS
 10
-25.258847
 20
-48.520377
 11
-25.258847
 21
-50.520373
  0
LINE
  8
型材断面
  6
CONTINUOUS
 10
-25.258847
 20
-50.520373
 11
-16.258847
 21
-50.520373
  0
LINE
  8
型材断面
  6
CONTINUOUS
 10
-16.258847
 20
-50.520373
 11
-16.258847
 21
-48.520377
  0
ENDBLK
  0
BLOCK
  2
*GRP_0051
 70
    65
 10
0.0
 20
0.0
  0
LINE
  8
型材断面
  6
CONTINUOUS
 10
-16.258847
 20
-40.520375
 11
-16.258847
 21
-36.020375
  0
LINE
  8
型材断面
  6
CONTINUOUS
 10
-16.258847
 20
-36.020375
 11
-45.55885
 21
-36.020375
  0
LINE
  8
型材断面
  6
CONTINUOUS
 10
-45.55885
 20
-36.020375
 11
-45.55885
 21
-42.52037
  0
LINE
  8
型材断面
  6
CONTINUOUS
 10
-45.55885
 20
-42.52037
 11
-49.058845
 21
-42.52037
  0
LINE
  8
型材断面
  6
CONTINUOUS
 10
-49.058845
 20
-42.52037
 11
-49.058845
 21
-41.020377
  0
LINE
  8
型材断面
  6
CONTINUOUS
 10
-49.058845
 20
-41.020377
 11
-47.558845
 21
-41.020377
  0
LINE
  8
型材断面
  6
CONTINUOUS
 10
-47.558845
 20
-41.020377
 11
-47.558845
 21
-30.320375
  0
LINE
  8
型材断面
  6
CONTINUOUS
 10
-47.558845
 20
-30.320375
 11
-47.258845
 21
-30.020375
  0
LINE
  8
型材断面
  6
CONTINUOUS
 10
-47.258845
 20
-30.020375
 11
-47.558845
 21
-29.720382
  0
LINE
  8
型材断面
  6
CONTINUOUS
 10
-47.558845
 20
-29.720382
 11
-47.558845
 21
8.97962
  0
LINE
  8
型材断面
  6
CONTINUOUS
 10
-47.558845
 20
8.97962
 11
-49.058845
 21
8.97962
  0
LINE
  8
型材断面
  6
CONTINUOUS
 10
-49.058845
 20
8.97962
 11
-49.058845
 21
10.479628
  0
LINE
  8
型材断面
  6
CONTINUOUS
 10
-49.058845
 20
10.479628
 11
-47.558845
 21
10.479628
  0
LINE
  8
型材断面
  6
CONTINUOUS
 10
-47.558845
 20
10.479628
 11
-47.558845
 21
20.679625
  0
LINE
  8
型材断面
  6
CONTINUOUS
 10
-47.558845
 20
20.679625
 11
-47.258845
 21
20.979625
  0
LINE
  8
型材断面
  6
CONTINUOUS
 10
-47.258845
 20
20.979625
 11
-47.558845
 21
21.279625
  0
LINE
  8
型材断面
  6
CONTINUOUS
 10
-47.558845
 20
21.279625
 11
-47.558845
 21
25.979628
  0
LINE
  8
型材断面
  6
CONTINUOUS
 10
-47.558845
 20
25.979628
 11
-38.558853
 21
25.979628
  0
LINE
  8
型材断面
  6
CONTINUOUS
 10
-38.558853
 20
25.979628
 11
-38.258853
 21
25.67962
  0
LINE
  8
型材断面
  6
CONTINUOUS
 10
-38.258853
 20
25.67962
 11
-37.958845
 21
25.979628
  0
LINE
  8
型材断面
  6
CONTINUOUS
 10
-37.958845
 20
25.979628
 11
-29.258845
 21
25.979628
  0
LINE
  8
型材断面
  6
CONTINUOUS
 10
-29.258845
 20
25.979628
 11
-29.258845
 21
-34.02038
  0
LINE
  8
型材断面
  6
CONTINUOUS
 10
-29.258845
 20
-34.02038
 11
15.241152
 21
-34.02038
  0
LINE
  8
型材断面
  6
CONTINUOUS
 10
15.241152
 20
-34.02038
 11
15.241152
 21
-25.520375
  0
LINE
  8
型材断面
  6
CONTINUOUS
 10
15.241152
 20
-25.520375
 11
16.741152
 21
-25.520375
  0
LINE
  8
型材断面
  6
CONTINUOUS
 10
16.741152
 20
-25.520375
 11
16.741152
 21
-36.020375
  0
LINE
  8
型材断面
  6
CONTINUOUS
 10
16.741152
 20
-36.020375
 11
-14.758847
 21
-36.020375
  0
LINE
  8
型材断面
  6
CONTINUOUS
 10
-14.758847
 20
-36.020375
 11
-14.758847
 21
-41.020377
  0
LINE
  8
型材断面
  6
CONTINUOUS
 10
-14.758847
 20
-41.020377
 11
-11.758847
 21
-41.020377
  0
LINE
  8
型材断面
  6
CONTINUOUS
 10
-11.758847
 20
-41.020377
 11
-11.758847
 21
-42.52037
  0
LINE
  8
型材断面
  6
CONTINUOUS
 10
-11.758847
 20
-42.52037
 11
-19.45885
 21
-42.52037
  0
LINE
  8
型材断面
  6
CONTINUOUS
 10
-19.45885
 20
-42.52037
 11
-19.75885
 21
-42.220377
  0
LINE
  8
型材断面
  6
CONTINUOUS
 10
-19.75885
 20
-42.220377
 11
-20.058842
 21
-42.52037
  0
LINE
  8
型材断面
  6
CONTINUOUS
 10
-20.058842
 20
-42.52037
 11
-26.95885
 21
-42.52037
  0
LINE
  8
型材断面
  6
CONTINUOUS
 10
-26.95885
 20
-42.52037
 11
-26.95885
 21
-40.520375
  0
LINE
  8
型材断面
  6
CONTINUOUS
 10
-26.95885
 20
-40.520375
 11
-16.258847
 21
-40.520375
  0
LINE
  8
型材断面
  6
CONTINUOUS
 10
-42.758845
 20
24.479628
 11
-41.758847
 21
21.97963
  0
LINE
  8
型材断面
  6
CONTINUOUS
 10
-41.758847
 20
21.97963
 11
-34.758842
 21
21.97963
  0
LINE
  8
型材断面
  6
CONTINUOUS
 10
-34.758842
 20
21.97963
 11
-33.758853
 21
24.479628
  0
LINE
  8
型材断面
  6
CONTINUOUS
 10
-33.758853
 20
24.479628
 11
-30.758845
 21
24.479628
  0
LINE
  8
型材断面
  6
CONTINUOUS
 10
-30.758845
 20
24.479628
 11
-30.758845
 21
-34.02038
  0
LINE
  8
型材断面
  6
CONTINUOUS
 10
-30.758845
 20
-34.02038
 11
-45.55885
 21
-34.02038
  0
LINE
  8
型材断面
  6
CONTINUOUS
 10
-45.55885
 20
-34.02038
 11
-45.55885
 21
24.479628
  0
LINE
  8
型材断面
  6
CONTINUOUS
 10
-45.55885
 20
24.479628
 11
-42.758845
 21
24.479628
  0
ENDBLK
  0
BLOCK
  2
*GRP_0052
 70
    65
 10
0.0
 20
0.0
  0
LINE
  8
ボルト／ビス
  6
CONTINUOUS
 62
    64
 10
-52.458842
 20
18.979617
 11
-52.458842
 21
22.979617
  0
LINE
  8
ボルト／ビス
  6
CONTINUOUS
 62
    64
 10
-42.758842
 20
18.979617
 11
-42.258842
 21
19.479617
  0
LINE
  8
ボルト／ビス
  6
CONTINUOUS
 62
    64
 10
-42.758842
 20
22.979617
 11
-42.258842
 21
22.479617
  0
LINE
  8
ボルト／ビス
  6
CONTINUOUS
 62
    64
 10
-42.258842
 20
19.479617
 11
-42.258842
 21
22.479617
  0
LINE
  8
ボルト／ビス
  6
CONTINUOUS
 62
    64
 10
-42.758842
 20
18.979617
 11
-42.758842
 21
22.979617
  0
LINE
  8
ボルト／ビス
  6
CONTINUOUS
 62
    64
 10
-52.458842
 20
22.479617
 11
-42.258842
 21
22.479617
  0
LINE
  8
ボルト／ビス
  6
CONTINUOUS
 62
    64
 10
-52.458842
 20
19.479617
 11
-42.258842
 21
19.479617
  0
LINE
  8
ボルト／ビス
  6
CONTINUOUS
 62
    64
 10
-52.458842
 20
18.979617
 11
-42.758842
 21
18.979617
  0
LINE
  8
ボルト／ビス
  6
CONTINUOUS
 62
    64
 10
-52.458842
 20
22.979617
 11
-42.758842
 21
22.979617
  0
LINE
  8
ボルト／ビス
  6
DASHDOT
 62
    64
 10
-57.258842
 20
20.979617
 11
-39.258842
 21
20.979617
  0
LINE
  8
ボルト／ビス
  6
DOT
 62
    64
 10
-54.258842
 20
17.979617
 11
-52.458842
 21
18.979617
  0
LINE
  8
ボルト／ビス
  6
DOT
 62
    64
 10
-54.258842
 20
17.979617
 11
-54.258842
 21
23.979617
  0
LINE
  8
ボルト／ビス
  6
DOT
 62
    64
 10
-54.258842
 20
23.979617
 11
-52.458842
 21
22.979617
  0
ENDBLK
  0
BLOCK
  2
*GRP_0053
 70
    65
 10
0.0
 20
0.0
  0
LINE
  8
型材断面
  6
CONTINUOUS
 10
-67.454485
 20
45.47965
 11
-65.954485
 21
45.47965
  0
LINE
  8
型材断面
  6
CONTINUOUS
 10
-67.454485
 20
47.479652
 11
-67.454485
 21
45.47965
  0
ARC
  8
型材断面
  6
CONTINUOUS
 10
-64.454487
 20
47.479663
 40
3.0
 50
90.0
 51
180.0
  0
LINE
  8
型材断面
  6
CONTINUOUS
 10
-65.954485
 20
47.479652
 11
-65.954485
 21
45.47965
  0
ARC
  8
型材断面
  6
CONTINUOUS
 10
-64.454487
 20
47.479663
 40
1.5
 50
90.0
 51
180.0
  0
LINE
  8
型材断面
  6
CONTINUOUS
 10
-64.454485
 20
48.979652
 11
-62.75884
 21
48.979652
  0
LINE
  8
型材断面
  6
CONTINUOUS
 10
-0.454487
 20
47.27965
 11
-0.454487
 21
48.47965
  0
LINE
  8
型材断面
  6
CONTINUOUS
 10
7.545515
 20
49.479655
 11
7.545515
 21
47.27965
  0
ARC
  8
型材断面
  6
CONTINUOUS
 10
6.545513
 20
49.479663
 40
1.0
 50
0.0
 51
90.0
  0
LINE
  8
型材断面
  6
CONTINUOUS
 10
7.545515
 20
47.27965
 11
-0.454487
 21
47.27965
  0
LINE
  8
型材断面
  6
CONTINUOUS
 10
-64.454485
 20
50.479652
 11
6.545517
 21
50.479652
  0
LINE
  8
型材断面
  6
CONTINUOUS
 10
-20.258838
 20
48.47965
 11
-0.454487
 21
48.47965
  0
ARC
  8
型材断面
  6
CONTINUOUS
 10
-20.258844
 20
45.479653
 40
3.0
 50
90.0
 51
180.0
  0
LINE
  8
型材断面
  6
CONTINUOUS
 10
-23.558838
 20
37.479632
 11
-23.258838
 21
37.779632
  0
LINE
  8
型材断面
  6
CONTINUOUS
 10
-23.558838
 20
37.479632
 11
-23.258838
 21
37.179632
  0
LINE
  8
型材断面
  6
CONTINUOUS
 10
-23.258838
 20
45.47965
 11
-23.258838
 21
37.779632
  0
LINE
  8
型材断面
  6
CONTINUOUS
 10
-23.258838
 20
37.179632
 11
-23.258838
 21
30.97963
  0
LINE
  8
型材断面
  6
CONTINUOUS
 10
-62.45884
 20
13.979628
 11
-62.75884
 21
14.279628
  0
LINE
  8
型材断面
  6
CONTINUOUS
 10
-62.45884
 20
13.979628
 11
-62.75884
 21
13.679628
  0
LINE
  8
型材断面
  6
CONTINUOUS
 10
-62.75884
 20
48.979652
 11
-62.75884
 21
14.279628
  0
LINE
  8
型材断面
  6
CONTINUOUS
 10
-62.75884
 20
13.679628
 11
-62.75884
 21
0.47965
  0
LINE
  8
型材断面
  6
CONTINUOUS
 10
-54.258842
 20
25.979628
 11
-54.258842
 21
8.979625
  0
LINE
  8
型材断面
  6
CONTINUOUS
 10
-55.758842
 20
8.979625
 11
-54.258842
 21
8.979625
  0
LINE
  8
型材断面
  6
CONTINUOUS
 10
-62.75884
 20
0.47965
 11
-61.25884
 21
0.47965
  0
LINE
  8
型材断面
  6
CONTINUOUS
 10
-54.258842
 20
25.979628
 11
-61.25884
 21
25.979628
  0
LINE
  8
型材断面
  6
CONTINUOUS
 10
-55.758842
 20
24.479628
 11
-61.25884
 21
24.479628
  0
LINE
  8
型材断面
  6
CONTINUOUS
 10
-61.25884
 20
24.479628
 11
-61.25884
 21
0.47965
  0
LINE
  8
型材断面
  6
CONTINUOUS
 10
-61.25884
 20
30.97963
 11
-61.25884
 21
25.979628
  0
LINE
  8
型材断面
  6
CONTINUOUS
 10
-55.458842
 20
13.979628
 11
-55.758842
 21
14.279628
  0
LINE
  8
型材断面
  6
CONTINUOUS
 10
-55.458842
 20
13.979628
 11
-55.758842
 21
13.679628
  0
LINE
  8
型材断面
  6
CONTINUOUS
 10
-55.758842
 20
24.479628
 11
-55.758842
 21
14.279628
  0
LINE
  8
型材断面
  6
CONTINUOUS
 10
-55.758842
 20
13.679628
 11
-55.758842
 21
8.979625
  0
LINE
  8
型材断面
  6
CONTINUOUS
 10
-61.25884
 20
48.979652
 11
-24.758838
 21
48.979652
  0
LINE
  8
型材断面
  6
CONTINUOUS
 10
-24.758838
 20
48.979652
 11
-24.758838
 21
32.47963
  0
LINE
  8
型材断面
  6
CONTINUOUS
 10
-61.25884
 20
48.979652
 11
-61.25884
 21
32.47963
  0
LINE
  8
型材断面
  6
CONTINUOUS
 10
-24.758838
 20
32.47963
 11
-61.25884
 21
32.47963
  0
LINE
  8
型材断面
  6
CONTINUOUS
 10
-46.508845
 20
31.27963
 11
-46.208845
 21
30.97963
  0
LINE
  8
型材断面
  6
CONTINUOUS
 10
-46.508845
 20
31.27963
 11
-46.808845
 21
30.97963
  0
LINE
  8
型材断面
  6
CONTINUOUS
 10
-34.008842
 20
31.27963
 11
-33.708842
 21
30.97963
  0
LINE
  8
型材断面
  6
CONTINUOUS
 10
-34.008842
 20
31.27963
 11
-34.308842
 21
30.97963
  0
LINE
  8
型材断面
  6
CONTINUOUS
 10
-46.208845
 20
30.97963
 11
-34.308842
 21
30.97963
  0
LINE
  8
型材断面
  6
CONTINUOUS
 10
-23.258838
 20
30.97963
 11
-33.708842
 21
30.97963
  0
LINE
  8
型材断面
  6
CONTINUOUS
 10
-61.25884
 20
30.97963
 11
-46.808845
 21
30.97963
  0
LINE
  8
型材断面
  6
DOT
 10
-62.75884
 20
24.479628
 11
-61.25884
 21
24.479628
  0
LINE
  8
型材断面
  6
DOT
 10
-62.75884
 20
14.479623
 11
-61.25884
 21
14.479623
  0
LINE
  8
型材断面
  6
DOT
 10
-62.38384
 20
24.479628
 11
-62.38384
 21
14.479623
  0
LINE
  8
型材断面
  6
DOT
 10
-62.00884
 20
24.479628
 11
-62.00884
 21
14.479623
  0
LINE
  8
型材断面
  6
DOT
 10
-61.63384
 20
24.479628
 11
-61.63384
 21
14.479623
  0
ENDBLK
  0
BLOCK
  2
*GRP_0054
 70
    65
 10
0.0
 20
0.0
  0
LINE
  8
ボルト／ビス
  6
CONTINUOUS
 62
    64
 10
-55.758842
 20
24.47965
 11
-56.807013
 21
24.387947
  0
ARC
  8
ボルト／ビス
  6
CONTINUOUS
 62
    64
 10
-56.658844
 20
22.694414
 40
1.7
 50
94.999989
 51
180.0
  0
LINE
  8
ボルト／ビス
  6
CONTINUOUS
 62
    64
 10
-58.358845
 20
22.694418
 11
-58.358845
 21
20.979647
  0
LINE
  8
ボルト／ビス
  6
CONTINUOUS
 62
    64
 10
-55.758842
 20
17.479645
 11
-56.807013
 21
17.571348
  0
ARC
  8
ボルト／ビス
  6
CONTINUOUS
 62
    64
 10
-56.658844
 20
19.264881
 40
1.7
 50
180.0
 51
265.000011
  0
LINE
  8
ボルト／ビス
  6
CONTINUOUS
 62
    64
 10
-58.358845
 20
19.264877
 11
-58.358845
 21
20.979647
  0
LINE
  8
ボルト／ビス
  6
CONTINUOUS
 62
    64
 10
-57.973938
 20
23.376288
 11
-58.216105
 21
23.376288
  0
LINE
  8
ボルト／ビス
  6
CONTINUOUS
 62
    64
 10
-57.32386
 20
21.679645
 11
-57.32386
 21
20.979647
  0
LINE
  8
ボルト／ビス
  6
CONTINUOUS
 62
    64
 10
-57.973938
 20
22.07965
 11
-57.973938
 21
23.376288
  0
LINE
  8
ボルト／ビス
  6
CONTINUOUS
 62
    64
 10
-57.32386
 20
21.679645
 11
-57.57394
 21
21.679645
  0
ARC
  8
ボルト／ビス
  6
CONTINUOUS
 62
    64
 10
-57.573939
 20
22.079648
 40
0.4
 50
180.0
 51
270.0
  0
LINE
  8
ボルト／ビス
  6
CONTINUOUS
 62
    64
 10
-57.973938
 20
18.583007
 11
-58.216105
 21
18.583007
  0
LINE
  8
ボルト／ビス
  6
CONTINUOUS
 62
    64
 10
-57.32386
 20
20.27965
 11
-57.32386
 21
20.979647
  0
LINE
  8
ボルト／ビス
  6
CONTINUOUS
 62
    64
 10
-57.973938
 20
19.879645
 11
-57.973938
 21
18.583007
  0
LINE
  8
ボルト／ビス
  6
CONTINUOUS
 62
    64
 10
-57.32386
 20
20.27965
 11
-57.57394
 21
20.27965
  0
ARC
  8
ボルト／ビス
  6
CONTINUOUS
 62
    64
 10
-57.573939
 20
19.879648
 40
0.4
 50
90.0
 51
180.0
  0
LINE
  8
ボルト／ビス
  6
CONTINUOUS
 62
    64
 10
-55.758842
 20
24.47965
 11
-55.758842
 21
17.479645
  0
LINE
  8
ボルト／ビス
  6
CONTINUOUS
 62
    64
 10
-46.258847
 20
22.97965
 11
-45.758845
 21
22.479647
  0
LINE
  8
ボルト／ビス
  6
CONTINUOUS
 62
    64
 10
-46.258847
 20
18.979645
 11
-45.758845
 21
19.479647
  0
LINE
  8
ボルト／ビス
  6
CONTINUOUS
 62
    64
 10
-46.258847
 20
22.97965
 11
-46.258847
 21
18.979645
  0
LINE
  8
ボルト／ビス
  6
CONTINUOUS
 62
    64
 10
-45.758845
 20
22.479647
 11
-45.758845
 21
19.479647
  0
LINE
  8
ボルト／ビス
  6
CONTINUOUS
 62
    64
 10
-55.758842
 20
22.97965
 11
-46.258847
 21
22.97965
  0
LINE
  8
ボルト／ビス
  6
CONTINUOUS
 62
    64
 10
-55.758842
 20
18.979645
 11
-46.258847
 21
18.979645
  0
LINE
  8
ボルト／ビス
  6
CONTINUOUS
 62
    64
 10
-55.758842
 20
19.479647
 11
-45.758845
 21
19.479647
  0
LINE
  8
ボルト／ビス
  6
CONTINUOUS
 62
    64
 10
-55.758842
 20
22.479647
 11
-45.758845
 21
22.479647
  0
LINE
  8
ボルト／ビス
  6
DASHDOT
 62
    64
 10
-61.358845
 20
20.979647
 11
-42.758845
 21
20.979647
  0
ENDBLK
  0
BLOCK
  2
*DIM_0055
 70
    65
 10
0.0
 20
0.0
  0
LINE
  8
寸法
  6
BYBLOCK
 62
     0
 10
7.545515
 20
52.479655
 11
7.545515
 21
90.544323
  0
LINE
  8
寸法
  6
BYBLOCK
 62
     0
 10
-67.454485
 20
50.479652
 11
-67.454485
 21
90.544323
  0
LINE
  8
寸法
  6
BYBLOCK
 62
     0
 10
7.545515
 20
90.544323
 11
-67.454485
 21
90.544323
  0
POINT
  8
寸法
 62
     0
 10
7.545515
 20
90.544323
  0
POINT
  8
寸法
 62
     0
 10
-67.454485
 20
90.544323
  0
TEXT
  7
TextStyle03
  8
寸法
  6
CONTINUOUS
 62
     0
 10
-32.1
 20
90.9
  1
75
 40
4.0
 72
     5
 11
-27.85
 21
90.9
  0
ENDBLK
  0
BLOCK
  2
*DIM_0056
 70
    65
 10
0.0
 20
0.0
  0
LINE
  8
寸法
  6
BYBLOCK
 62
     0
 10
-113.258845
 20
-60.520377
 11
-113.258845
 21
90.544323
  0
LINE
  8
寸法
  6
BYBLOCK
 62
     0
 10
-67.454485
 20
90.544323
 11
-113.258845
 21
90.544323
  0
POINT
  8
寸法
 62
     0
 10
-113.258845
 20
90.544323
  0
TEXT
  7
TextStyle03
  8
寸法
  6
CONTINUOUS
 62
     0
 10
-94.75
 20
90.9
  1
45.8
 40
4.0
 72
     5
 11
-86.0
 21
90.9
  0
ENDBLK
  0
ENDSEC
  0
SECTION
  2
ENTITIES
  0
POLYLINE
  8
通り芯
  6
CONTINUOUS
 66
     1
 70
     1
  0
VERTEX
  8
通り芯
 10
-210.0
 20
-148.5
  0
VERTEX
  8
通り芯
 10
210.0
 20
-148.5
  0
VERTEX
  8
通り芯
 10
210.0
 20
148.5
  0
VERTEX
  8
通り芯
 10
-210.0
 20
148.5
  0
SEQEND
  0
INSERT
  2
*GRP_0001
  8
型材断面
  6
CONTINUOUS
 10
0.0
 20
0.0
  0
LINE
  8
型材断面
  6
DOT
 10
-56.558853
 20
-58.520375
 11
-58.258847
 21
-58.520375
  0
LINE
  8
型材断面
  6
DOT
 10
-56.558853
 20
-50.520373
 11
-58.258847
 21
-50.520373
  0
LINE
  8
型材断面
  6
DOT
 10
-57.833845
 20
-58.520375
 11
-57.833845
 21
-50.520373
  0
LINE
  8
型材断面
  6
DOT
 10
-57.40885
 20
-58.520375
 11
-57.40885
 21
-50.520373
  0
LINE
  8
型材断面
  6
DOT
 10
-56.983847
 20
-58.520375
 11
-56.983847
 21
-50.520373
  0
LINE
  8
型材断面
  6
DOT
 10
-29.258845
 20
-26.020377
 11
-30.758845
 21
-26.020377
  0
LINE
  8
型材断面
  6
DOT
 10
-29.258845
 20
-34.02038
 11
-30.758845
 21
-34.02038
  0
LINE
  8
型材断面
  6
DOT
 10
-30.383845
 20
-34.02038
 11
-30.383845
 21
-26.020377
  0
LINE
  8
型材断面
  6
DOT
 10
-30.008845
 20
-34.02038
 11
-30.008845
 21
-26.020377
  0
LINE
  8
型材断面
  6
DOT
 10
-29.633845
 20
-34.02038
 11
-29.633845
 21
-26.020377
  0
LINE
  8
型材断面
  6
DOT
 10
-45.55885
 20
-34.02038
 11
-47.558845
 21
-34.02038
  0
LINE
  8
型材断面
  6
DOT
 10
-47.058842
 20
-34.02038
 11
-47.058842
 21
-26.020377
  0
LINE
  8
型材断面
  6
DOT
 10
-46.558847
 20
-34.02038
 11
-46.558847
 21
-26.020377
  0
LINE
  8
型材断面
  6
DOT
 10
-46.058845
 20
-34.02038
 11
-46.058845
 21
-26.020377
  0
LINE
  8
型材断面
  6
DOT
 10
-45.55885
 20
-26.020377
 11
-47.558845
 21
-26.020377
  0
INSERT
  2
*GRP_0002
  8
型材断面
  6
CONTINUOUS
 10
0.0
 20
0.0
  0
INSERT
  2
*GRP_0003
  8
型材断面
  6
CONTINUOUS
 62
    47
 10
0.0
 20
0.0
  0
INSERT
  2
*GRP_0050
  8
型材断面
  6
DOT
 10
0.0
 20
0.0
  0
INSERT
  2
*GRP_0051
  8
型材断面
  6
DOT
 10
0.0
 20
0.0
  0
INSERT
  2
*GRP_0053
  8
型材断面
  6
CONTINUOUS
 10
0.0
 20
0.0
  0
INSERT
  2
*GRP_0004
  8
ガラス
  6
DOT
 10
0.0
 20
0.0
  0
INSERT
  2
*GRP_0005
  8
ガラス
  6
DOT
 10
0.0
 20
0.0
  0
INSERT
  2
*GRP_0006
  8
ガラス
  6
DOT
 10
0.0
 20
0.0
  0
INSERT
  2
*GRP_0007
  8
ガラス
  6
DOT
 10
0.0
 20
0.0
  0
INSERT
  2
*GRP_0008
  8
ガラス
  6
DOT
 10
0.0
 20
0.0
  0
INSERT
  2
*GRP_0009
  8
ガラス
  6
DOT
 10
0.0
 20
0.0
  0
INSERT
  2
*GRP_0010
  8
ガラス
  6
DOT
 10
0.0
 20
0.0
  0
INSERT
  2
*GRP_0011
  8
ガラス
  6
DOT
 10
0.0
 20
0.0
  0
INSERT
  2
*GRP_0012
  8
ガラス
  6
DOT
 10
0.0
 20
0.0
  0
INSERT
  2
*GRP_0013
  8
ガラス
  6
DOT
 10
0.0
 20
0.0
  0
INSERT
  2
*GRP_0014
  8
ガラス
  6
DOT
 10
0.0
 20
0.0
  0
INSERT
  2
*GRP_0015
  8
ガラス
  6
DOT
 10
0.0
 20
0.0
  0
INSERT
  2
*GRP_0016
  8
ガラス
  6
DOT
 10
0.0
 20
0.0
  0
LINE
  8
ガラス
  6
CONTINUOUS
 10
-13.258847
 20
36.17575
 11
-13.258847
 21
29.375748
  0
LINE
  8
ガラス
  6
CONTINUOUS
 10
-13.25551
 20
20.67574
 11
-13.25551
 21
38.475745
  0
LINE
  8
ガラス
  6
CONTINUOUS
 10
-7.25551
 20
33.475742
 11
-7.25551
 21
27.475742
  0
LINE
  8
ガラス
  6
CONTINUOUS
 10
-13.252165
 20
27.475742
 11
-7.25551
 21
33.475742
  0
LINE
  8
ガラス
  6
CONTINUOUS
 10
-13.252165
 20
33.475742
 11
-7.25551
 21
27.475742
  0
LINE
  8
ガラス
  6
CONTINUOUS
 10
-13.258855
 20
21.175742
 11
50.714378
 21
21.175742
  0
LINE
  8
ガラス
  6
CONTINUOUS
 10
-13.258855
 20
20.67574
 11
50.714378
 21
20.67574
  0
LINE
  8
ガラス
  6
CONTINUOUS
 10
-13.258855
 20
27.475742
 11
50.714378
 21
27.475742
  0
LINE
  8
ガラス
  6
CONTINUOUS
 10
-13.258855
 20
26.97574
 11
50.714378
 21
26.97574
  0
LINE
  8
ガラス
  6
CONTINUOUS
 10
-13.258855
 20
33.975745
 11
50.714378
 21
33.975745
  0
LINE
  8
ガラス
  6
CONTINUOUS
 10
-13.258855
 20
33.475742
 11
50.714378
 21
33.475742
  0
LINE
  8
ガラス
  6
CONTINUOUS
 10
-13.258855
 20
38.475745
 11
50.714378
 21
38.475745
  0
LINE
  8
ガラス
  6
CONTINUOUS
 10
-13.258855
 20
37.975742
 11
50.714378
 21
37.975742
  0
INSERT
  2
*GRP_0017
  8
ゴム等
  6
DOT
 10
0.0
 20
0.0
  0
INSERT
  2
*GRP_0018
  8
ゴム等
  6
CONTINUOUS
 10
0.0
 20
0.0
  0
INSERT
  2
*GRP_0019
  8
ゴム等
  6
CONTINUOUS
 10
0.0
 20
0.0
  0
INSERT
  2
*GRP_0020
  8
ゴム等
  6
CONTINUOUS
 10
0.0
 20
0.0
  0
INSERT
  2
*GRP_0021
  8
ゴム等
  6
CONTINUOUS
 10
0.0
 20
0.0
  0
INSERT
  2
*GRP_0022
  8
ボルト／ビス
  6
CONTINUOUS
 62
    64
 10
0.0
 20
0.0
  0
INSERT
  2
*GRP_0023
  8
ボルト／ビス
  6
CONTINUOUS
 62
    64
 10
0.0
 20
0.0
  0
INSERT
  2
*GRP_0024
  8
ボルト／ビス
  6
CONTINUOUS
 62
    64
 10
0.0
 20
0.0
  0
INSERT
  2
*GRP_0025
  8
ボルト／ビス
  6
CONTINUOUS
 62
    64
 10
0.0
 20
0.0
  0
INSERT
  2
*GRP_0026
  8
ボルト／ビス
  6
CONTINUOUS
 10
0.0
 20
0.0
  0
INSERT
  2
*GRP_0052
  8
ボルト／ビス
  6
CONTINUOUS
 10
0.0
 20
0.0
  0
INSERT
  2
*GRP_0054
  8
ボルト／ビス
  6
CONTINUOUS
 10
0.0
 20
0.0
  0
TEXT
  7
TextStyle03
  8
文字
  6
CONTINUOUS
 10
64.25
 20
123.9
  1
シリーズ：ＴＦＦＫ
 40
5.0
 72
     5
 11
114.25
 21
123.9
  0
TEXT
  7
TextStyle03
  8
文字
  6
CONTINUOUS
 10
64.25
 20
118.275
  1
　　　　　（固定）
 40
5.0
 72
     5
 11
114.25
 21
118.275
  0
TEXT
  7
TextStyle03
  8
文字
  6
CONTINUOUS
 10
64.25
 20
112.65
  1
図面名　：下枠断面詳細図
 40
5.0
 72
     5
 11
131.125
 21
112.65
  0
INSERT
  2
*GRP_0027
  8
文字
  6
CONTINUOUS
 10
0.0
 20
0.0
  0
LINE
  8
文字
  6
DASHDOT
 10
-18.258847
 20
-25.520375
 11
-18.258847
 21
107.132187
  0
TEXT
  7
TextStyle03
  8
文字
  6
CONTINUOUS
 10
-2.6
 20
107.575
  1
呼称寸法
 40
4.0
 72
     5
 11
14.9
 21
107.575
  0
TEXT
  7
TextStyle03
  8
文字
  6
CONTINUOUS
 10
-116.475
 20
-52.75
  1
φ8排水穴(ﾊﾞｯﾌﾙ材付)
 40
4.0
 72
     5
 11
-71.725
 21
-52.75
  0
TEXT
  7
TextStyle03
  8
文字
  6
CONTINUOUS
 10
17.475
 20
-65.775
  1
断熱材(PVC)
 40
4.0
 72
     5
 11
41.975
 21
-65.775
  0
TEXT
  7
TextStyle03
  8
文字
  6
CONTINUOUS
 10
13.5
 20
-121.35
  1
※型材コーナーは工場溶接
 40
4.0
 72
     5
 11
67.0
 21
-121.35
  0
TEXT
  7
TextStyle03
  8
文字
  6
CONTINUOUS
 10
-94.4
 20
-12.825
  1
断熱材(PVC)
 40
4.0
 72
     5
 11
-69.9
 21
-12.825
  0
TEXT
  7
TextStyle03
  8
文字
  6
CONTINUOUS
 10
26.7
 20
-15.05
  1
耐火材：
 40
4.0
 72
     5
 11
44.2
 21
-15.05
  0
TEXT
  7
TextStyle03
  8
文字
  6
CONTINUOUS
 10
26.7
 20
-19.55
  1
St-1.6t(溶融メッキ鋼板)
 40
4.0
 72
     5
 11
78.2
 21
-19.55
  0
TEXT
  7
TextStyle03
  8
文字
  6
CONTINUOUS
 10
17.8
 20
-85.5
  1
耐火材：
 40
4.0
 72
     5
 11
35.3
 21
-85.5
  0
TEXT
  7
TextStyle03
  8
文字
  6
CONTINUOUS
 10
17.8
 20
-90.0
  1
St-1.6t(溶融メッキ鋼板)
 40
4.0
 72
     5
 11
69.3
 21
-90.0
  0
INSERT
  2
*DIM_0028
  8
寸法
  6
CONTINUOUS
 10
0.0
 20
0.0
  0
INSERT
  2
*DIM_0029
  8
寸法
  6
CONTINUOUS
 10
0.0
 20
0.0
  0
INSERT
  2
*DIM_0030
  8
寸法
  6
CONTINUOUS
 10
0.0
 20
0.0
  0
INSERT
  2
*DIM_0031
  8
寸法
  6
CONTINUOUS
 10
0.0
 20
0.0
  0
INSERT
  2
*DIM_0032
  8
寸法
  6
CONTINUOUS
 10
0.0
 20
0.0
  0
INSERT
  2
*DIM_0033
  8
寸法
  6
CONTINUOUS
 10
0.0
 20
0.0
  0
LINE
  8
寸法
  6
CONTINUOUS
 10
48.68976
 20
107.132187
 11
-18.258847
 21
107.132187
  0
INSERT
  2
*DIM_0034
  8
寸法
  6
CONTINUOUS
 10
0.0
 20
0.0
  0
INSERT
  2
*DIM_0035
  8
寸法
  6
CONTINUOUS
 10
0.0
 20
0.0
  0
INSERT
  2
*DIM_0036
  8
寸法
  6
CONTINUOUS
 10
0.0
 20
0.0
  0
INSERT
  2
*GRP_0037
  8
寸法
  6
CONTINUOUS
 10
0.0
 20
0.0
  0
INSERT
  2
*GRP_0038
  8
寸法
  6
CONTINUOUS
 10
0.0
 20
0.0
  0
INSERT
  2
*GRP_0039
  8
寸法
  6
CONTINUOUS
 10
0.0
 20
0.0
  0
INSERT
  2
*GRP_0040
  8
寸法
  6
CONTINUOUS
 10
0.0
 20
0.0
  0
INSERT
  2
*DIM_0041
  8
寸法
  6
CONTINUOUS
 10
0.0
 20
0.0
  0
INSERT
  2
*DIM_0042
  8
寸法
  6
CONTINUOUS
 10
0.0
 20
0.0
  0
INSERT
  2
*DIM_0043
  8
寸法
  6
CONTINUOUS
 10
0.0
 20
0.0
  0
INSERT
  2
*DIM_0044
  8
寸法
  6
CONTINUOUS
 10
0.0
 20
0.0
  0
INSERT
  2
*DIM_0045
  8
寸法
  6
CONTINUOUS
 10
0.0
 20
0.0
  0
INSERT
  2
*DIM_0046
  8
寸法
  6
CONTINUOUS
 10
0.0
 20
0.0
  0
INSERT
  2
*DIM_0047
  8
寸法
  6
CONTINUOUS
 10
0.0
 20
0.0
  0
INSERT
  2
*DIM_0048
  8
寸法
  6
CONTINUOUS
 10
0.0
 20
0.0
  0
INSERT
  2
*GRP_0049
  8
寸法
  6
CONTINUOUS
 10
0.0
 20
0.0
  0
INSERT
  2
*DIM_0055
  8
寸法
  6
CONTINUOUS
 10
0.0
 20
0.0
  0
INSERT
  2
*DIM_0056
  8
寸法
  6
CONTINUOUS
 10
0.0
 20
0.0
  0
LINE
  8
St
  6
CONTINUOUS
 10
-20.80207
 20
-83.620258
 11
-19.202073
 21
-82.02026
  0
LINE
  8
St
  6
CONTINUOUS
 10
-20.09497
 20
-83.620258
 11
-18.494973
 21
-82.02026
  0
ARC
  8
St
  6
CONTINUOUS
 10
-14.758851
 20
-82.020256
 40
1.6
 50
-90.0
 51
0.0
  0
LINE
  8
St
  6
CONTINUOUS
 10
-14.758847
 20
-75.577115
 11
-13.15885
 21
-73.977117
  0
LINE
  8
St
  6
CONTINUOUS
 10
-14.758847
 20
-76.284215
 11
-13.15885
 21
-74.684217
  0
LINE
  8
St
  6
CONTINUOUS
 10
-14.758847
 20
-57.589362
 11
-13.15885
 21
-55.989365
  0
LINE
  8
St
  6
CONTINUOUS
 10
-14.758847
 20
-58.296462
 11
-13.15885
 21
-56.696465
  0
LINE
  8
St
  6
CONTINUOUS
 10
-14.758847
 20
-49.520375
 11
-13.15885
 21
-49.520375
  0
LINE
  8
St
  6
CONTINUOUS
 10
-13.15885
 20
-82.02026
 11
-13.15885
 21
-49.520375
  0
LINE
  8
St
  6
CONTINUOUS
 10
-14.758847
 20
-49.520375
 11
-14.758847
 21
-82.02026
  0
LINE
  8
St
  6
CONTINUOUS
 10
-34.258803
 20
-83.620258
 11
-34.258803
 21
-82.02026
  0
LINE
  8
St
  6
CONTINUOUS
 10
-34.258803
 20
-82.02026
 11
-14.758847
 21
-82.02026
  0
LINE
  8
St
  6
CONTINUOUS
 10
-34.258803
 20
-83.620258
 11
-14.758855
 21
-83.620258
  0
LINE
  8
St
  6
CONTINUOUS
 10
-29.258845
 20
-26.020265
 11
-27.658847
 21
-26.020265
  0
ARC
  8
St
  6
CONTINUOUS
 10
-27.658846
 20
-12.124168
 40
1.6
 50
90.0
 51
180.0
  0
LINE
  8
St
  6
CONTINUOUS
 10
-14.41792
 20
-10.52417
 11
-16.017918
 21
-12.124168
  0
LINE
  8
St
  6
CONTINUOUS
 10
-13.71082
 20
-10.52417
 11
-15.310818
 21
-12.124168
  0
LINE
  8
St
  6
CONTINUOUS
 10
0.04115
 20
-12.124145
 11
-27.658847
 21
-12.124168
  0
LINE
  8
St
  6
CONTINUOUS
 10
0.04115
 20
-10.524147
 11
0.04115
 21
-12.124145
  0
LINE
  8
St
  6
CONTINUOUS
 10
0.04115
 20
-10.524147
 11
-27.658847
 21
-10.52417
  0
LINE
  8
St
  6
CONTINUOUS
 10
-27.658847
 20
-26.020265
 11
-27.658847
 21
-12.124168
  0
LINE
  8
St
  6
CONTINUOUS
 10
-29.258845
 20
-26.020265
 11
-29.258845
 21
-12.124168
  0
LINE
  8
St
  6
CONTINUOUS
 10
-27.658847
 20
-20.458235
 11
-29.258845
 21
-22.058233
  0
LINE
  8
St
  6
CONTINUOUS
 10
-27.658847
 20
-21.165335
 11
-29.258845
 21
-22.765333
  0
POLYLINE
  8
St
  6
CONTINUOUS
 62
    47
 66
     1
  0
VERTEX
  8
St
 10
48.68976
 20
107.132187
  0
VERTEX
  8
St
 10
43.349102
 20
108.495867
  0
VERTEX
  8
St
 10
43.34863
 20
107.132187
  0
SEQEND
  0
POLYLINE
  8
St
  6
CONTINUOUS
 62
    47
 66
     1
  0
VERTEX
  8
St
 10
46.795235
 20
107.132187
  0
VERTEX
  8
St
 10
41.454578
 20
108.495867
  0
VERTEX
  8
St
 10
41.454105
 20
107.132187
  0
SEQEND
  0
LINE
  8
その他部品等
  6
CONTINUOUS
 10
7.545515
 20
47.27965
 11
7.545515
 21
38.475775
  0
LINE
  8
その他部品等
  6
CONTINUOUS
 10
-0.454487
 20
47.27965
 11
-0.454487
 21
38.475775
  0
LINE
  8
その他部品等
  6
CONTINUOUS
 10
-5.45449
 20
38.475775
 11
-5.45449
 21
48.47965
  0
LINE
  8
その他部品等
  6
CONTINUOUS
 10
-0.454487
 20
38.475775
 11
-5.45449
 21
48.47965
  0
INSERT
  2
*HAT_0001
  8
その他部品等
 10
0.0
 20
0.0
  0
ENDSEC
  0
EOF
