  0
SECTION
  2
HEADER
  9
$ACADVER
  1
AC1018
  9
$ACADMAINTVER
 70
     0
  9
$DWGCODEPAGE
  3
ANSI_932
  9
$INSBASE
 10
0.0
 20
0.0
 30
0.0
  9
$EXTMIN
 10
-210.0
 20
-148.5
 30
0.0
  9
$EXTMAX
 10
210.0
 20
148.5
 30
0.0
  9
$LIMMIN
 10
0.0
 20
0.0
  9
$LIMMAX
 10
12.0
 20
9.0
  9
$ORTHOMODE
 70
     0
  9
$REGENMODE
 70
     1
  9
$FILLMODE
 70
     1
  9
$QTEXTMODE
 70
     0
  9
$MIRRTEXT
 70
     1
  9
$LTSCALE
 40
10.0
  9
$ATTMODE
 70
     1
  9
$TEXTSIZE
 40
0.2
  9
$TRACEWID
 40
0.05
  9
$TEXTSTYLE
  7
STANDARD
  9
$CLAYER
  8
0
  9
$CELTYPE
  6
ByBlock
  9
$CECOLOR
 62
   256
  9
$CELTSCALE
 40
1.0
  9
$DISPSILH
 70
     0
  9
$DIMSCALE
 40
1.0
  9
$DIMASZ
 40
0.18
  9
$DIMEXO
 40
0.0625
  9
$DIMDLI
 40
0.38
  9
$DIMRND
 40
0.0
  9
$DIMDLE
 40
0.0
  9
$DIMEXE
 40
0.18
  9
$DIMTP
 40
0.0
  9
$DIMTM
 40
0.0
  9
$DIMTXT
 40
0.18
  9
$DIMCEN
 40
0.09
  9
$DIMTSZ
 40
0.0
  9
$DIMTOL
 70
     0
  9
$DIMLIM
 70
     0
  9
$DIMTIH
 70
     1
  9
$DIMTOH
 70
     1
  9
$DIMSE1
 70
     0
  9
$DIMSE2
 70
     0
  9
$DIMTAD
 70
     0
  9
$DIMZIN
 70
     0
  9
$DIMBLK
  1

  9
$DIMASO
 70
     1
  9
$DIMSHO
 70
     1
  9
$DIMPOST
  1

  9
$DIMAPOST
  1

  9
$DIMALT
 70
     0
  9
$DIMALTD
 70
     2
  9
$DIMALTF
 40
25.4
  9
$DIMLFAC
 40
1.0
  9
$DIMTOFL
 70
     0
  9
$DIMTVP
 40
0.0
  9
$DIMTIX
 70
     0
  9
$DIMSOXD
 70
     0
  9
$DIMSAH
 70
     0
  9
$DIMBLK1
  1

  9
$DIMBLK2
  1

  9
$DIMSTYLE
  2
Standard
  9
$DIMCLRD
 70
     0
  9
$DIMCLRE
 70
     0
  9
$DIMCLRT
 70
     0
  9
$DIMTFAC
 40
1.0
  9
$DIMGAP
 40
0.09
  9
$DIMJUST
 70
     0
  9
$DIMSD1
 70
     0
  9
$DIMSD2
 70
     0
  9
$DIMTOLJ
 70
     1
  9
$DIMTZIN
 70
     0
  9
$DIMALTZ
 70
     0
  9
$DIMALTTZ
 70
     0
  9
$DIMUPT
 70
     0
  9
$DIMDEC
 70
     4
  9
$DIMTDEC
 70
     4
  9
$DIMALTU
 70
     2
  9
$DIMALTTD
 70
     2
  9
$DIMTXSTY
  7
STANDARD
  9
$DIMAUNIT
 70
     0
  9
$DIMADEC
 70
     0
  9
$DIMALTRND
 40
0.0
  9
$DIMAZIN
 70
     0
  9
$DIMDSEP
 70
    46
  9
$DIMATFIT
 70
     3
  9
$DIMFRAC
 70
     0
  9
$DIMLDRBLK
  1

  9
$DIMLUNIT
 70
     2
  9
$DIMLWD
 70
    -2
  9
$DIMLWE
 70
    -2
  9
$DIMTMOVE
 70
     0
  9
$LUNITS
 70
     2
  9
$LUPREC
 70
     4
  9
$SKETCHINC
 40
0.1
  9
$FILLETRAD
 40
0.5
  9
$AUNITS
 70
     0
  9
$AUPREC
 70
     0
  9
$MENU
  1
.
  9
$ELEVATION
 40
0.0
  9
$PELEVATION
 40
0.0
  9
$THICKNESS
 40
0.0
  9
$LIMCHECK
 70
     0
  9
$CHAMFERA
 40
0.5
  9
$CHAMFERB
 40
0.5
  9
$CHAMFERC
 40
1.0
  9
$CHAMFERD
 40
0.0
  9
$SKPOLY
 70
     0
  9
$TDCREATE
 40
2460242.412763484
  9
$TDUCREATE
 40
2460242.037763484
  9
$TDUPDATE
 40
2460242.412763496
  9
$TDUUPDATE
 40
2460242.037763496
  9
$TDINDWG
 40
0.0000000116
  9
$TDUSRTIMER
 40
0.0000000116
  9
$USRTIMER
 70
     1
  9
$ANGBASE
 50
0.0
  9
$ANGDIR
 70
     0
  9
$PDMODE
 70
    32
  9
$PDSIZE
 40
1.5
  9
$PLINEWID
 40
0.0
  9
$SPLFRAME
 70
     0
  9
$SPLINETYPE
 70
     6
  9
$SPLINESEGS
 70
     8
  9
$HANDSEED
  5
1FC
  9
$SURFTAB1
 70
     6
  9
$SURFTAB2
 70
     6
  9
$SURFTYPE
 70
     6
  9
$SURFU
 70
     6
  9
$SURFV
 70
     6
  9
$UCSBASE
  2

  9
$UCSNAME
  2

  9
$UCSORG
 10
0.0
 20
0.0
 30
0.0
  9
$UCSXDIR
 10
1.0
 20
0.0
 30
0.0
  9
$UCSYDIR
 10
0.0
 20
1.0
 30
0.0
  9
$UCSORTHOREF
  2

  9
$UCSORTHOVIEW
 70
     0
  9
$UCSORGTOP
 10
0.0
 20
0.0
 30
0.0
  9
$UCSORGBOTTOM
 10
0.0
 20
0.0
 30
0.0
  9
$UCSORGLEFT
 10
0.0
 20
0.0
 30
0.0
  9
$UCSORGRIGHT
 10
0.0
 20
0.0
 30
0.0
  9
$UCSORGFRONT
 10
0.0
 20
0.0
 30
0.0
  9
$UCSORGBACK
 10
0.0
 20
0.0
 30
0.0
  9
$PUCSBASE
  2

  9
$PUCSNAME
  2

  9
$PUCSORG
 10
0.0
 20
0.0
 30
0.0
  9
$PUCSXDIR
 10
1.0
 20
0.0
 30
0.0
  9
$PUCSYDIR
 10
0.0
 20
1.0
 30
0.0
  9
$PUCSORTHOREF
  2

  9
$PUCSORTHOVIEW
 70
     0
  9
$PUCSORGTOP
 10
0.0
 20
0.0
 30
0.0
  9
$PUCSORGBOTTOM
 10
0.0
 20
0.0
 30
0.0
  9
$PUCSORGLEFT
 10
0.0
 20
0.0
 30
0.0
  9
$PUCSORGRIGHT
 10
0.0
 20
0.0
 30
0.0
  9
$PUCSORGFRONT
 10
0.0
 20
0.0
 30
0.0
  9
$PUCSORGBACK
 10
0.0
 20
0.0
 30
0.0
  9
$USERI1
 70
     0
  9
$USERI2
 70
     0
  9
$USERI3
 70
     0
  9
$USERI4
 70
     0
  9
$USERI5
 70
     0
  9
$USERR1
 40
0.0
  9
$USERR2
 40
0.0
  9
$USERR3
 40
0.0
  9
$USERR4
 40
0.0
  9
$USERR5
 40
0.0
  9
$WORLDVIEW
 70
     1
  9
$SHADEDGE
 70
     3
  9
$SHADEDIF
 70
    70
  9
$TILEMODE
 70
     1
  9
$MAXACTVP
 70
    64
  9
$PINSBASE
 10
0.0
 20
0.0
 30
0.0
  9
$PLIMCHECK
 70
     0
  9
$PEXTMIN
 10
1.000000000000000E+20
 20
1.000000000000000E+20
 30
1.000000000000000E+20
  9
$PEXTMAX
 10
-1.000000000000000E+20
 20
-1.000000000000000E+20
 30
-1.000000000000000E+20
  9
$PLIMMIN
 10
0.0
 20
0.0
  9
$PLIMMAX
 10
12.0
 20
9.0
  9
$UNITMODE
 70
     0
  9
$VISRETAIN
 70
     1
  9
$PLINEGEN
 70
     0
  9
$PSLTSCALE
 70
     1
  9
$TREEDEPTH
 70
  3020
  9
$CMLSTYLE
  2
Standard
  9
$CMLJUST
 70
     0
  9
$CMLSCALE
 40
1.0
  9
$PROXYGRAPHICS
 70
     1
  9
$MEASUREMENT
 70
     0
  9
$CELWEIGHT
370
    -1
  9
$ENDCAPS
280
     0
  9
$JOINSTYLE
280
     0
  9
$LWDISPLAY
290
     0
  9
$INSUNITS
 70
     0
  9
$HYPERLINKBASE
  1

  9
$STYLESHEET
  1

  9
$XEDIT
290
     1
  9
$CEPSNTYPE
380
     0
  9
$PSTYLEMODE
290
     1
  9
$FINGERPRINTGUID
  2
{EF51DE42-E2FB-45D5-A813-D33B0A7FE7BB}
  9
$VERSIONGUID
  2
{FAEB1C32-E019-11D5-929B-00C0DF256EC4}
  9
$EXTNAMES
290
     1
  9
$PSVPSCALE
 40
0.0
  9
$OLESTARTUP
290
     0
  9
$SORTENTS
280
   127
  9
$INDEXCTL
280
     0
  9
$HIDETEXT
280
     1
  9
$XCLIPFRAME
290
     0
  9
$HALOGAP
280
     0
  9
$OBSCOLOR
 70
   257
  9
$OBSLTYPE
280
     0
  9
$INTERSECTIONDISPLAY
280
     0
  9
$INTERSECTIONCOLOR
 70
   257
  9
$DIMASSOC
280
     2
  9
$PROJECTNAME
  1

  0
ENDSEC
  0
SECTION
  2
CLASSES
  0
CLASS
  1
ACDBDICTIONARYWDFLT
  2
AcDbDictionaryWithDefault
  3
ObjectDBX Classes
 90
        0
 91
        3
280
     0
281
     0
  0
ENDSEC
  0
SECTION
  2
TABLES
  0
TABLE
  2
VPORT
  5
8
330
0
100
AcDbSymbolTable
 70
     1
  0
VPORT
  5
1F7
330
8
100
AcDbSymbolTableRecord
100
AcDbViewportTableRecord
  2
*Active
 70
     0
 10
0.0
 20
0.0
 11
1.0
 21
1.0
 12
10.42990654205607
 22
4.5
 13
0.0
 23
0.0
 14
0.5
 24
0.5
 15
0.5
 25
0.5
 16
0.0
 26
0.0
 36
1.0
 17
0.0
 27
0.0
 37
0.0
 40
9.0
 41
1.972972972850329
 42
50.0
 43
0.0
 44
0.0
 50
0.0
 51
0.0
 71
     0
 72
   100
 73
     1
 74
     3
 75
     0
 76
     0
 77
     0
 78
     0
281
     0
 65
     1
110
0.0
120
0.0
130
0.0
111
1.0
121
0.0
131
0.0
112
0.0
122
1.0
132
0.0
 79
     0
146
0.0
  0
ENDTAB
  0
TABLE
  2
LTYPE
  5
5
330
0
100
AcDbSymbolTable
 70
     9
  0
LTYPE
  5
14
330
5
100
AcDbSymbolTableRecord
100
AcDbLinetypeTableRecord
  2
ByBlock
 70
     0
  3

 72
    65
 73
     0
 40
0.0
  0
LTYPE
  5
15
330
5
100
AcDbSymbolTableRecord
100
AcDbLinetypeTableRecord
  2
ByLayer
 70
     0
  3

 72
    65
 73
     0
 40
0.0
  0
LTYPE
  5
16
330
5
100
AcDbSymbolTableRecord
100
AcDbLinetypeTableRecord
  2
CONTINUOUS
 70
     0
  3
実線
 72
    65
 73
     0
 40
0.0
  0
LTYPE
  5
21
330
5
100
AcDbSymbolTableRecord
100
AcDbLinetypeTableRecord
  2
DASHED
 70
     0
  3
破線A
 72
    65
 73
     2
 40
0.6000000000000001
 49
0.4
 74
     0
 49
-0.2
 74
     0
  0
LTYPE
  5
22
330
5
100
AcDbSymbolTableRecord
100
AcDbLinetypeTableRecord
  2
DASHEDX2
 70
     0
  3
破線B
 72
    65
 73
     2
 40
1.3
 49
0.9
 74
     0
 49
-0.4
 74
     0
  0
LTYPE
  5
23
330
5
100
AcDbSymbolTableRecord
100
AcDbLinetypeTableRecord
  2
DASHDOT
 70
     0
  3
１点鎖線A
 72
    65
 73
     4
 40
0.5375
 49
0.375
 74
     0
 49
-0.05
 74
     0
 49
0.0625
 74
     0
 49
-0.05
 74
     0
  0
LTYPE
  5
24
330
5
100
AcDbSymbolTableRecord
100
AcDbLinetypeTableRecord
  2
DASHDOTX2
 70
     0
  3
１点鎖線B
 72
    65
 73
     4
 40
1.075
 49
0.75
 74
     0
 49
-0.1
 74
     0
 49
0.125
 74
     0
 49
-0.1
 74
     0
  0
LTYPE
  5
25
330
5
100
AcDbSymbolTableRecord
100
AcDbLinetypeTableRecord
  2
DIVIDE2
 70
     0
  3
２点鎖線A
 72
    65
 73
     6
 40
0.5125
 49
0.3
 74
     0
 49
-0.0375
 74
     0
 49
0.05
 74
     0
 49
-0.0375
 74
     0
 49
0.05
 74
     0
 49
-0.0375
 74
     0
  0
LTYPE
  5
26
330
5
100
AcDbSymbolTableRecord
100
AcDbLinetypeTableRecord
  2
DIVIDE
 70
     0
  3
２点鎖線B
 72
    65
 73
     6
 40
1.05
 49
0.55
 74
     0
 49
-0.1
 74
     0
 49
0.1
 74
     0
 49
-0.1
 74
     0
 49
0.1
 74
     0
 49
-0.1
 74
     0
  0
LTYPE
  5
27
330
5
100
AcDbSymbolTableRecord
100
AcDbLinetypeTableRecord
  2
DOT
 70
     0
  3
点線A
 72
    65
 73
     2
 40
0.1125
 49
0.0625
 74
     0
 49
-0.05
 74
     0
  0
LTYPE
  5
28
330
5
100
AcDbSymbolTableRecord
100
AcDbLinetypeTableRecord
  2
DOTX2
 70
     0
  3
点線B
 72
    65
 73
     2
 40
0.275
 49
0.15
 74
     0
 49
-0.125
 74
     0
  0
ENDTAB
  0
TABLE
  2
LAYER
  5
2
330
0
100
AcDbSymbolTable
 70
    34
  0
LAYER
  5
10
330
2
100
AcDbSymbolTableRecord
100
AcDbLayerTableRecord
  2
0
 70
     0
 62
    17
  6
CONTINUOUS
370
    -3
390
F
  0
LAYER
  5
2F
330
2
100
AcDbSymbolTableRecord
100
AcDbLayerTableRecord
  2
通り芯
 70
     0
 62
    15
  6
CONTINUOUS
370
    -3
390
F
  0
LAYER
  5
30
330
2
100
AcDbSymbolTableRecord
100
AcDbLayerTableRecord
  2
補助線
 70
     0
 62
    16
  6
DOT
370
    -3
390
F
  0
LAYER
  5
31
330
2
100
AcDbSymbolTableRecord
100
AcDbLayerTableRecord
  2
躯体
 70
     0
 62
    31
  6
CONTINUOUS
370
    -3
390
F
  0
LAYER
  5
32
330
2
100
AcDbSymbolTableRecord
100
AcDbLayerTableRecord
  2
型材
 70
     0
 62
    32
  6
CONTINUOUS
370
    -3
390
F
  0
LAYER
  5
33
330
2
100
AcDbSymbolTableRecord
100
AcDbLayerTableRecord
  2
型材断面
 70
     0
 62
    47
  6
CONTINUOUS
370
    -3
390
F
  0
LAYER
  5
34
330
2
100
AcDbSymbolTableRecord
100
AcDbLayerTableRecord
  2
ガラス
 70
     0
 62
    48
  6
CONTINUOUS
370
    -3
390
F
  0
LAYER
  5
35
330
2
100
AcDbSymbolTableRecord
100
AcDbLayerTableRecord
  2
ゴム等
 70
     0
 62
    63
  6
CONTINUOUS
370
    -3
390
F
  0
LAYER
  5
36
330
2
100
AcDbSymbolTableRecord
100
AcDbLayerTableRecord
  2
ボルト／ビス
 70
     0
 62
    64
  6
CONTINUOUS
370
    -3
390
F
  0
LAYER
  5
37
330
2
100
AcDbSymbolTableRecord
100
AcDbLayerTableRecord
  2
文字
 70
     0
 62
    79
  6
CONTINUOUS
370
    -3
390
F
  0
LAYER
  5
38
330
2
100
AcDbSymbolTableRecord
100
AcDbLayerTableRecord
  2
寸法
 70
     0
 62
    80
  6
CONTINUOUS
370
    -3
390
F
  0
LAYER
  5
39
330
2
100
AcDbSymbolTableRecord
100
AcDbLayerTableRecord
  2
ﾊｯﾁﾝｸﾞ
 70
     0
 62
    95
  6
CONTINUOUS
370
    -3
390
F
  0
LAYER
  5
3A
330
2
100
AcDbSymbolTableRecord
100
AcDbLayerTableRecord
  2
別途部材
 70
     0
 62
    96
  6
CONTINUOUS
370
    -3
390
F
  0
LAYER
  5
3B
330
2
100
AcDbSymbolTableRecord
100
AcDbLayerTableRecord
  2
曲げ物
 70
     0
 62
   111
  6
CONTINUOUS
370
    -3
390
F
  0
LAYER
  5
3C
330
2
100
AcDbSymbolTableRecord
100
AcDbLayerTableRecord
  2
鉄骨等
 70
     0
 62
   112
  6
CONTINUOUS
370
    -3
390
F
  0
LAYER
  5
3D
330
2
100
AcDbSymbolTableRecord
100
AcDbLayerTableRecord
  2
St
 70
     0
 62
   127
  6
CONTINUOUS
370
    -3
390
F
  0
LAYER
  5
3E
330
2
100
AcDbSymbolTableRecord
100
AcDbLayerTableRecord
  2
その他部品等
 70
     0
 62
   128
  6
CONTINUOUS
370
    -3
390
F
  0
LAYER
  5
3F
330
2
100
AcDbSymbolTableRecord
100
AcDbLayerTableRecord
  2
ｶﾞｽｹｯﾄ
 70
     0
 62
   143
  6
CONTINUOUS
370
    -3
390
F
  0
LAYER
  5
40
330
2
100
AcDbSymbolTableRecord
100
AcDbLayerTableRecord
  2
ｽｹｯﾁ
 70
     0
 62
    14
  6
CONTINUOUS
370
    -3
390
F
  0
LAYER
  5
42
330
2
100
AcDbSymbolTableRecord
100
AcDbLayerTableRecord
  2
1
 70
     0
 62
    30
  6
CONTINUOUS
370
    -3
390
F
  0
LAYER
  5
43
330
2
100
AcDbSymbolTableRecord
100
AcDbLayerTableRecord
  2
4
 70
     0
 62
    33
  6
CONTINUOUS
370
    -3
390
F
  0
LAYER
  5
44
330
2
100
AcDbSymbolTableRecord
100
AcDbLayerTableRecord
  2
ﾚｲﾔ3
 70
     0
 62
    46
  6
CONTINUOUS
370
    -3
390
F
  0
LAYER
  5
45
330
2
100
AcDbSymbolTableRecord
100
AcDbLayerTableRecord
  2
外形線
 70
     0
 62
    49
  6
CONTINUOUS
370
    -3
390
F
  0
LAYER
  5
46
330
2
100
AcDbSymbolTableRecord
100
AcDbLayerTableRecord
  2
部品
 70
     0
 62
    14
  6
CONTINUOUS
370
    -3
390
F
  0
LAYER
  5
47
330
2
100
AcDbSymbolTableRecord
100
AcDbLayerTableRecord
  2
サッシ芯
 70
     0
 62
    17
  6
DASHDOTX2
370
    -3
390
F
  0
LAYER
  5
48
330
2
100
AcDbSymbolTableRecord
100
AcDbLayerTableRecord
  2
寸法線
 70
     0
 62
    62
  6
CONTINUOUS
370
    -3
390
F
  0
LAYER
  5
49
330
2
100
AcDbSymbolTableRecord
100
AcDbLayerTableRecord
  2
姿図外形線
 70
     0
 62
    65
  6
CONTINUOUS
370
    -3
390
F
  0
LAYER
  5
4A
330
2
100
AcDbSymbolTableRecord
100
AcDbLayerTableRecord
  2
姿補助線
 70
     0
 62
    30
  6
CONTINUOUS
370
    -3
390
F
  0
LAYER
  5
4B
330
2
100
AcDbSymbolTableRecord
100
AcDbLayerTableRecord
  2
透視線
 70
     0
 62
    78
  6
DOT
370
    -3
390
F
  0
LAYER
  5
4C
330
2
100
AcDbSymbolTableRecord
100
AcDbLayerTableRecord
  2
用紙
 70
     0
 62
    81
  6
CONTINUOUS
370
    -3
390
F
  0
LAYER
  5
4D
330
2
100
AcDbSymbolTableRecord
100
AcDbLayerTableRecord
  2
実線図枠
 70
     0
 62
    94
  6
CONTINUOUS
370
    -3
390
F
  0
LAYER
  5
4E
330
2
100
AcDbSymbolTableRecord
100
AcDbLayerTableRecord
  2
補助図枠
 70
     0
 62
    97
  6
CONTINUOUS
370
    -3
390
F
  0
LAYER
  5
4F
330
2
100
AcDbSymbolTableRecord
100
AcDbLayerTableRecord
  2
建具記号
 70
     0
 62
   110
  6
CONTINUOUS
370
    -3
390
F
  0
LAYER
  5
50
330
2
100
AcDbSymbolTableRecord
100
AcDbLayerTableRecord
  2
補助文字
 70
     0
 62
   113
  6
CONTINUOUS
370
    -3
390
F
  0
ENDTAB
  0
TABLE
  2
STYLE
  5
3
330
0
100
AcDbSymbolTable
 70
    10
  0
STYLE
  5
11
330
3
100
AcDbSymbolTableRecord
100
AcDbTextStyleTableRecord
  2
STANDARD
 70
     0
 40
1.0
 41
1.0
 50
0.0
 71
     0
 42
1.0
  3
TXT
  4
BIGFONT
  0
STYLE
  5
52
330
3
100
AcDbSymbolTableRecord
100
AcDbTextStyleTableRecord
  2
TATE
 70
     4
 40
1.0
 41
1.0
 50
0.0
 71
     0
 42
1.0
  3
TXT
  4
BIGFONT
  0
STYLE
  5
53
330
3
100
AcDbSymbolTableRecord
100
AcDbTextStyleTableRecord
  2
TextStyle03
 70
     0
 40
1.0
 41
1.0
 50
0.0
 71
     0
 42
1.0
  3
MONOTXT
  4
BIGFONT
  0
STYLE
  5
54
330
3
100
AcDbSymbolTableRecord
100
AcDbTextStyleTableRecord
  2
TextStyle04
 70
     0
 40
1.0
 41
1.0
 50
0.0
 71
     0
 42
1.0
  3
MONOTXT
  4
BIGFONT
  0
STYLE
  5
55
330
3
100
AcDbSymbolTableRecord
100
AcDbTextStyleTableRecord
  2
TextStyle05
 70
     0
 40
1.0
 41
1.0
 50
0.0
 71
     0
 42
1.0
  3
MONOTXT
  4
BIGFONT
  0
STYLE
  5
56
330
3
100
AcDbSymbolTableRecord
100
AcDbTextStyleTableRecord
  2
TextStyle06
 70
     0
 40
1.0
 41
1.0
 50
0.0
 71
     0
 42
1.0
  3
MONOTXT
  4
BIGFONT
  0
STYLE
  5
57
330
3
100
AcDbSymbolTableRecord
100
AcDbTextStyleTableRecord
  2
TextStyle07
 70
     0
 40
1.0
 41
1.0
 50
0.0
 71
     0
 42
1.0
  3
MONOTXT
  4
BIGFONT
  0
STYLE
  5
58
330
3
100
AcDbSymbolTableRecord
100
AcDbTextStyleTableRecord
  2
TextStyle08
 70
     0
 40
1.0
 41
1.0
 50
0.0
 71
     0
 42
1.0
  3
MONOTXT
  4
BIGFONT
  0
STYLE
  5
59
330
3
100
AcDbSymbolTableRecord
100
AcDbTextStyleTableRecord
  2
TextStyle09
 70
     0
 40
1.0
 41
1.0
 50
0.0
 71
     0
 42
1.0
  3
MONOTXT
  4
BIGFONT
  0
STYLE
  5
5A
330
3
100
AcDbSymbolTableRecord
100
AcDbTextStyleTableRecord
  2
TextStyle10
 70
     0
 40
1.0
 41
1.0
 50
0.0
 71
     0
 42
1.0
  3
MONOTXT
  4
BIGFONT
  0
ENDTAB
  0
TABLE
  2
VIEW
  5
6
330
0
100
AcDbSymbolTable
 70
     0
  0
ENDTAB
  0
TABLE
  2
UCS
  5
7
330
0
100
AcDbSymbolTable
 70
     0
  0
ENDTAB
  0
TABLE
  2
APPID
  5
9
330
0
100
AcDbSymbolTable
 70
     1
  0
APPID
  5
12
330
9
100
AcDbSymbolTableRecord
100
AcDbRegAppTableRecord
  2
ACAD
 70
     0
  0
ENDTAB
  0
TABLE
  2
DIMSTYLE
  5
A
330
0
100
AcDbSymbolTable
 70
     1
100
AcDbDimStyleTable
  0
DIMSTYLE
105
5B
330
A
100
AcDbSymbolTableRecord
100
AcDbDimStyleTableRecord
  2
Standard
 70
     0
340
11
  0
ENDTAB
  0
TABLE
  2
BLOCK_RECORD
  5
1
330
0
100
AcDbSymbolTable
 70
    20
  0
BLOCK_RECORD
  5
1D
330
1
100
AcDbSymbolTableRecord
100
AcDbBlockTableRecord
  2
*Model_Space
340
1E
  0
BLOCK_RECORD
  5
1B
330
1
100
AcDbSymbolTableRecord
100
AcDbBlockTableRecord
  2
*Paper_Space
340
1C
  0
BLOCK_RECORD
  5
5D
330
1
100
AcDbSymbolTableRecord
100
AcDbBlockTableRecord
  2
*U0
340
0
102
{BLKREFS
331
FE
102
}
  0
BLOCK_RECORD
  5
66
330
1
100
AcDbSymbolTableRecord
100
AcDbBlockTableRecord
  2
*U1
340
0
102
{BLKREFS
331
1C2
102
}
  0
BLOCK_RECORD
  5
6D
330
1
100
AcDbSymbolTableRecord
100
AcDbBlockTableRecord
  2
*U2
340
0
102
{BLKREFS
331
1C3
102
}
  0
BLOCK_RECORD
  5
76
330
1
100
AcDbSymbolTableRecord
100
AcDbBlockTableRecord
  2
*U3
340
0
102
{BLKREFS
331
1C4
102
}
  0
BLOCK_RECORD
  5
7D
330
1
100
AcDbSymbolTableRecord
100
AcDbBlockTableRecord
  2
*U4
340
0
102
{BLKREFS
331
1C5
102
}
  0
BLOCK_RECORD
  5
84
330
1
100
AcDbSymbolTableRecord
100
AcDbBlockTableRecord
  2
*U5
340
0
102
{BLKREFS
331
1C6
102
}
  0
BLOCK_RECORD
  5
8D
330
1
100
AcDbSymbolTableRecord
100
AcDbBlockTableRecord
  2
*U6
340
0
102
{BLKREFS
331
1C7
102
}
  0
BLOCK_RECORD
  5
96
330
1
100
AcDbSymbolTableRecord
100
AcDbBlockTableRecord
  2
*U7
340
0
102
{BLKREFS
331
1C8
102
}
  0
BLOCK_RECORD
  5
9D
330
1
100
AcDbSymbolTableRecord
100
AcDbBlockTableRecord
  2
*U8
340
0
102
{BLKREFS
331
1C9
102
}
  0
BLOCK_RECORD
  5
A4
330
1
100
AcDbSymbolTableRecord
100
AcDbBlockTableRecord
  2
*U9
340
0
102
{BLKREFS
331
1CA
102
}
  0
BLOCK_RECORD
  5
AB
330
1
100
AcDbSymbolTableRecord
100
AcDbBlockTableRecord
  2
*U10
340
0
102
{BLKREFS
331
1CB
102
}
  0
BLOCK_RECORD
  5
B2
330
1
100
AcDbSymbolTableRecord
100
AcDbBlockTableRecord
  2
*U11
340
0
102
{BLKREFS
331
1CC
102
}
  0
BLOCK_RECORD
  5
B9
330
1
100
AcDbSymbolTableRecord
100
AcDbBlockTableRecord
  2
*U12
340
0
102
{BLKREFS
331
1CD
102
}
  0
BLOCK_RECORD
  5
C1
330
1
100
AcDbSymbolTableRecord
100
AcDbBlockTableRecord
  2
*U13
340
0
102
{BLKREFS
331
1CE
102
}
  0
BLOCK_RECORD
  5
C9
330
1
100
AcDbSymbolTableRecord
100
AcDbBlockTableRecord
  2
*U14
340
0
102
{BLKREFS
331
1CF
102
}
  0
BLOCK_RECORD
  5
D1
330
1
100
AcDbSymbolTableRecord
100
AcDbBlockTableRecord
  2
*U15
340
0
102
{BLKREFS
331
1D0
102
}
  0
BLOCK_RECORD
  5
D9
330
1
100
AcDbSymbolTableRecord
100
AcDbBlockTableRecord
  2
*U16
340
0
102
{BLKREFS
331
1D1
102
}
  0
BLOCK_RECORD
  5
E2
330
1
100
AcDbSymbolTableRecord
100
AcDbBlockTableRecord
  2
*U17
340
0
102
{BLKREFS
331
1D2
102
}
  0
BLOCK_RECORD
  5
EB
330
1
100
AcDbSymbolTableRecord
100
AcDbBlockTableRecord
  2
*U18
340
0
102
{BLKREFS
331
1D3
102
}
  0
BLOCK_RECORD
  5
F2
330
1
100
AcDbSymbolTableRecord
100
AcDbBlockTableRecord
  2
*U19
340
0
102
{BLKREFS
331
1D4
102
}
  0
ENDTAB
  0
ENDSEC
  0
SECTION
  2
BLOCKS
  0
BLOCK
  5
1F8
330
1D
100
AcDbEntity
  8
0
100
AcDbBlockBegin
  2
*Model_Space
 70
     0
 71
     0
 10
0.0
 20
0.0
 30
0.0
  3
*Model_Space
  1

  0
ENDBLK
  5
1F9
330
1D
100
AcDbEntity
  8
0
100
AcDbBlockEnd
  0
BLOCK
  5
1FA
330
1B
100
AcDbEntity
 67
     1
  8
0
100
AcDbBlockBegin
  2
*Paper_Space
 70
     0
 71
     0
 10
0.0
 20
0.0
 30
0.0
  3
*Paper_Space
  1

  0
ENDBLK
  5
1FB
330
1B
100
AcDbEntity
 67
     1
  8
0
100
AcDbBlockEnd
  0
BLOCK
  5
5C
330
5D
100
AcDbEntity
  8
0
100
AcDbBlockBegin
  2
*U0
 70
     1
 71
     0
 10
0.0
 20
0.0
 30
0.0
  3
*U0
  1

  0
LINE
  5
5E
330
5D
100
AcDbEntity
  8
型材断面
  6
Continuous
100
AcDbLine
 10
195.0
 20
133.5
 30
0.0
 11
195.0
 21
-133.5
 31
0.0
  0
LINE
  5
5F
330
5D
100
AcDbEntity
  8
型材断面
  6
Continuous
100
AcDbLine
 10
195.0
 20
-133.5
 30
0.0
 11
-185.0
 21
-133.5
 31
0.0
  0
LINE
  5
60
330
5D
100
AcDbEntity
  8
型材断面
  6
Continuous
100
AcDbLine
 10
-185.0
 20
-133.5
 30
0.0
 11
-185.0
 21
133.5
 31
0.0
  0
LINE
  5
61
330
5D
100
AcDbEntity
  8
型材断面
  6
Continuous
100
AcDbLine
 10
195.0
 20
133.5
 30
0.0
 11
-185.0
 21
133.5
 31
0.0
  0
LINE
  5
62
330
5D
100
AcDbEntity
  8
型材断面
  6
Continuous
100
AcDbLine
 10
145.0
 20
-133.5
 30
0.0
 11
145.0
 21
-118.5
 31
0.0
  0
LINE
  5
63
330
5D
100
AcDbEntity
  8
型材断面
  6
Continuous
100
AcDbLine
 10
195.0
 20
-118.5
 30
0.0
 11
145.0
 21
-118.5
 31
0.0
  0
ENDBLK
  5
64
330
5D
100
AcDbEntity
  8
0
100
AcDbBlockEnd
  0
BLOCK
  5
65
330
66
100
AcDbEntity
  8
0
100
AcDbBlockBegin
  2
*U1
 70
     1
 71
     0
 10
0.0
 20
0.0
 30
0.0
  3
*U1
  1

  0
LINE
  5
67
330
66
100
AcDbEntity
  8
寸法
  6
ByBlock
 62
     0
100
AcDbLine
 10
53.282945
 20
-22.536362
 30
0.0
 11
-113.383723
 21
-22.536362
 31
0.0
  0
POINT
  5
68
330
66
100
AcDbEntity
  8
寸法
 62
     0
100
AcDbPoint
 10
53.282945
 20
-22.536362
 30
0.0
  0
POINT
  5
69
330
66
100
AcDbEntity
  8
寸法
 62
     0
100
AcDbPoint
 10
-113.383723
 20
-22.536362
 30
0.0
  0
TEXT
  5
6A
330
66
100
AcDbEntity
  8
寸法
  6
Continuous
 62
     0
100
AcDbText
 10
-41.76875
 20
-22.175
 30
0.0
 40
3.0
  1
呼称寸法　5000
  7
TextStyle03
 72
     5
 11
-18.33125
 21
-22.175
 31
0.0
100
AcDbText
  0
ENDBLK
  5
6B
330
66
100
AcDbEntity
  8
0
100
AcDbBlockEnd
  0
BLOCK
  5
6C
330
6D
100
AcDbEntity
  8
0
100
AcDbBlockBegin
  2
*U2
 70
     1
 71
     0
 10
0.0
 20
0.0
 30
0.0
  3
*U2
  1

  0
LINE
  5
6E
330
6D
100
AcDbEntity
  8
寸法
  6
ByBlock
 62
     0
100
AcDbLine
 10
-96.717055
 20
9.76892
 30
0.0
 11
-96.717055
 21
4.857895
 31
0.0
  0
LINE
  5
6F
330
6D
100
AcDbEntity
  8
寸法
  6
ByBlock
 62
     0
100
AcDbLine
 10
-30.050388
 20
9.76892
 30
0.0
 11
-30.050388
 21
4.857895
 31
0.0
  0
LINE
  5
70
330
6D
100
AcDbEntity
  8
寸法
  6
ByBlock
 62
     0
100
AcDbLine
 10
-96.717055
 20
4.857895
 30
0.0
 11
-30.050388
 21
4.857895
 31
0.0
  0
POINT
  5
71
330
6D
100
AcDbEntity
  8
寸法
 62
     0
100
AcDbPoint
 10
-96.717055
 20
4.857895
 30
0.0
  0
POINT
  5
72
330
6D
100
AcDbEntity
  8
寸法
 62
     0
100
AcDbPoint
 10
-30.050388
 20
4.857895
 30
0.0
  0
TEXT
  5
73
330
6D
100
AcDbEntity
  8
寸法
  6
Continuous
 62
     0
100
AcDbText
 10
-66.68125000000001
 20
5.225
 30
0.0
 40
3.0
  1
2000
  7
TextStyle03
 72
     5
 11
-60.11875
 21
5.225
 31
0.0
100
AcDbText
  0
ENDBLK
  5
74
330
6D
100
AcDbEntity
  8
0
100
AcDbBlockEnd
  0
BLOCK
  5
75
330
76
100
AcDbEntity
  8
0
100
AcDbBlockBegin
  2
*U3
 70
     1
 71
     0
 10
0.0
 20
0.0
 30
0.0
  3
*U3
  1

  0
LINE
  5
77
330
76
100
AcDbEntity
  8
寸法
  6
ByBlock
 62
     0
100
AcDbLine
 10
36.61628
 20
9.76892
 30
0.0
 11
36.61628
 21
4.857895
 31
0.0
  0
LINE
  5
78
330
76
100
AcDbEntity
  8
寸法
  6
ByBlock
 62
     0
100
AcDbLine
 10
-30.050388
 20
4.857895
 30
0.0
 11
36.61628
 21
4.857895
 31
0.0
  0
POINT
  5
79
330
76
100
AcDbEntity
  8
寸法
 62
     0
100
AcDbPoint
 10
36.61628
 20
4.857895
 30
0.0
  0
TEXT
  5
7A
330
76
100
AcDbEntity
  8
寸法
  6
Continuous
 62
     0
100
AcDbText
 10
-0.00625
 20
5.225
 30
0.0
 40
3.0
  1
2000
  7
TextStyle03
 72
     5
 11
6.55625
 21
5.225
 31
0.0
100
AcDbText
  0
ENDBLK
  5
7B
330
76
100
AcDbEntity
  8
0
100
AcDbBlockEnd
  0
BLOCK
  5
7C
330
7D
100
AcDbEntity
  8
0
100
AcDbBlockBegin
  2
*U4
 70
     1
 71
     0
 10
0.0
 20
0.0
 30
0.0
  3
*U4
  1

  0
LINE
  5
7E
330
7D
100
AcDbEntity
  8
寸法
  6
ByBlock
 62
     0
100
AcDbLine
 10
87.302595
 20
13.399048
 30
0.0
 11
87.302595
 21
56.73238
 31
0.0
  0
POINT
  5
7F
330
7D
100
AcDbEntity
  8
寸法
 62
     0
100
AcDbPoint
 10
87.302595
 20
13.399048
 30
0.0
  0
POINT
  5
80
330
7D
100
AcDbEntity
  8
寸法
 62
     0
100
AcDbPoint
 10
87.302595
 20
56.73238
 30
0.0
  0
TEXT
  5
81
330
7D
100
AcDbEntity
  8
寸法
  6
Continuous
 62
     0
100
AcDbText
 10
86.95
 20
23.33125
 30
0.0
 40
3.0
  1
呼称寸法　1300
 50
90.0
  7
TextStyle03
 72
     5
 11
86.95
 21
46.76875
 31
0.0
100
AcDbText
  0
ENDBLK
  5
82
330
7D
100
AcDbEntity
  8
0
100
AcDbBlockEnd
  0
BLOCK
  5
83
330
84
100
AcDbEntity
  8
0
100
AcDbBlockBegin
  2
*U5
 70
     1
 71
     0
 10
0.0
 20
0.0
 30
0.0
  3
*U5
  1

  0
LINE
  5
85
330
84
100
AcDbEntity
  8
寸法
  6
ByBlock
 62
     0
100
AcDbLine
 10
-116.383723
 20
23.399048
 30
0.0
 11
-145.328888
 21
23.399048
 31
0.0
  0
LINE
  5
86
330
84
100
AcDbEntity
  8
寸法
  6
ByBlock
 62
     0
100
AcDbLine
 10
-116.383723
 20
46.732382
 30
0.0
 11
-145.328888
 21
46.732382
 31
0.0
  0
LINE
  5
87
330
84
100
AcDbEntity
  8
寸法
  6
ByBlock
 62
     0
100
AcDbLine
 10
-145.328888
 20
23.399048
 30
0.0
 11
-145.328888
 21
46.732382
 31
0.0
  0
POINT
  5
88
330
84
100
AcDbEntity
  8
寸法
 62
     0
100
AcDbPoint
 10
-145.328888
 20
23.399048
 30
0.0
  0
POINT
  5
89
330
84
100
AcDbEntity
  8
寸法
 62
     0
100
AcDbPoint
 10
-145.328888
 20
46.732382
 30
0.0
  0
TEXT
  5
8A
330
84
100
AcDbEntity
  8
寸法
  6
Continuous
 62
     0
100
AcDbText
 10
-145.725
 20
32.6125
 30
0.0
 40
3.0
  1
700
 50
90.0
  7
TextStyle03
 72
     5
 11
-145.725
 21
37.4875
 31
0.0
100
AcDbText
  0
ENDBLK
  5
8B
330
84
100
AcDbEntity
  8
0
100
AcDbBlockEnd
  0
BLOCK
  5
8C
330
8D
100
AcDbEntity
  8
0
100
AcDbBlockBegin
  2
*U6
 70
     1
 71
     0
 10
0.0
 20
0.0
 30
0.0
  3
*U6
  1

  0
LINE
  5
8E
330
8D
100
AcDbEntity
  8
寸法
  6
ByBlock
 62
     0
100
AcDbLine
 10
-105.050388
 20
59.73238
 30
0.0
 11
-105.050388
 21
88.840452
 31
0.0
  0
LINE
  5
8F
330
8D
100
AcDbEntity
  8
寸法
  6
ByBlock
 62
     0
100
AcDbLine
 10
-80.050388
 20
59.73238
 30
0.0
 11
-80.050388
 21
88.840452
 31
0.0
  0
LINE
  5
90
330
8D
100
AcDbEntity
  8
寸法
  6
ByBlock
 62
     0
100
AcDbLine
 10
-105.050388
 20
88.840452
 30
0.0
 11
-80.050388
 21
88.840452
 31
0.0
  0
POINT
  5
91
330
8D
100
AcDbEntity
  8
寸法
 62
     0
100
AcDbPoint
 10
-105.050388
 20
88.840452
 30
0.0
  0
POINT
  5
92
330
8D
100
AcDbEntity
  8
寸法
 62
     0
100
AcDbPoint
 10
-80.050388
 20
88.840452
 30
0.0
  0
TEXT
  5
93
330
8D
100
AcDbEntity
  8
寸法
  6
Continuous
 62
     0
100
AcDbText
 10
-95.0125
 20
89.2
 30
0.0
 40
3.0
  1
750
  7
TextStyle03
 72
     5
 11
-90.1375
 21
89.2
 31
0.0
100
AcDbText
  0
ENDBLK
  5
94
330
8D
100
AcDbEntity
  8
0
100
AcDbBlockEnd
  0
BLOCK
  5
95
330
96
100
AcDbEntity
  8
0
100
AcDbBlockBegin
  2
*U7
 70
     1
 71
     0
 10
0.0
 20
0.0
 30
0.0
  3
*U7
  1

  0
LINE
  5
97
330
96
100
AcDbEntity
  8
寸法
  6
ByBlock
 62
     0
100
AcDbLine
 10
-55.050388
 20
59.73238
 30
0.0
 11
-55.050388
 21
88.840452
 31
0.0
  0
LINE
  5
98
330
96
100
AcDbEntity
  8
寸法
  6
ByBlock
 62
     0
100
AcDbLine
 10
-80.050388
 20
88.840452
 30
0.0
 11
-55.050388
 21
88.840452
 31
0.0
  0
POINT
  5
99
330
96
100
AcDbEntity
  8
寸法
 62
     0
100
AcDbPoint
 10
-55.050388
 20
88.840452
 30
0.0
  0
TEXT
  5
9A
330
96
100
AcDbEntity
  8
寸法
  6
Continuous
 62
     0
100
AcDbText
 10
-70.0125
 20
89.2
 30
0.0
 40
3.0
  1
750
  7
TextStyle03
 72
     5
 11
-65.1375
 21
89.2
 31
0.0
100
AcDbText
  0
ENDBLK
  5
9B
330
96
100
AcDbEntity
  8
0
100
AcDbBlockEnd
  0
BLOCK
  5
9C
330
9D
100
AcDbEntity
  8
0
100
AcDbBlockBegin
  2
*U8
 70
     1
 71
     0
 10
0.0
 20
0.0
 30
0.0
  3
*U8
  1

  0
LINE
  5
9E
330
9D
100
AcDbEntity
  8
寸法
  6
ByBlock
 62
     0
100
AcDbLine
 10
-30.050388
 20
59.73238
 30
0.0
 11
-30.050388
 21
88.840452
 31
0.0
  0
LINE
  5
9F
330
9D
100
AcDbEntity
  8
寸法
  6
ByBlock
 62
     0
100
AcDbLine
 10
-55.050388
 20
88.840452
 30
0.0
 11
-30.050388
 21
88.840452
 31
0.0
  0
POINT
  5
A0
330
9D
100
AcDbEntity
  8
寸法
 62
     0
100
AcDbPoint
 10
-30.050388
 20
88.840452
 30
0.0
  0
TEXT
  5
A1
330
9D
100
AcDbEntity
  8
寸法
  6
Continuous
 62
     0
100
AcDbText
 10
-45.0125
 20
89.2
 30
0.0
 40
3.0
  1
750
  7
TextStyle03
 72
     5
 11
-40.1375
 21
89.2
 31
0.0
100
AcDbText
  0
ENDBLK
  5
A2
330
9D
100
AcDbEntity
  8
0
100
AcDbBlockEnd
  0
BLOCK
  5
A3
330
A4
100
AcDbEntity
  8
0
100
AcDbBlockBegin
  2
*U9
 70
     1
 71
     0
 10
0.0
 20
0.0
 30
0.0
  3
*U9
  1

  0
LINE
  5
A5
330
A4
100
AcDbEntity
  8
寸法
  6
ByBlock
 62
     0
100
AcDbLine
 10
-5.050388
 20
59.73238
 30
0.0
 11
-5.050388
 21
88.840452
 31
0.0
  0
LINE
  5
A6
330
A4
100
AcDbEntity
  8
寸法
  6
ByBlock
 62
     0
100
AcDbLine
 10
-30.050388
 20
88.840452
 30
0.0
 11
-5.050388
 21
88.840452
 31
0.0
  0
POINT
  5
A7
330
A4
100
AcDbEntity
  8
寸法
 62
     0
100
AcDbPoint
 10
-5.050388
 20
88.840452
 30
0.0
  0
TEXT
  5
A8
330
A4
100
AcDbEntity
  8
寸法
  6
Continuous
 62
     0
100
AcDbText
 10
-20.0125
 20
89.2
 30
0.0
 40
3.0
  1
750
  7
TextStyle03
 72
     5
 11
-15.1375
 21
89.2
 31
0.0
100
AcDbText
  0
ENDBLK
  5
A9
330
A4
100
AcDbEntity
  8
0
100
AcDbBlockEnd
  0
BLOCK
  5
AA
330
AB
100
AcDbEntity
  8
0
100
AcDbBlockBegin
  2
*U10
 70
     1
 71
     0
 10
0.0
 20
0.0
 30
0.0
  3
*U10
  1

  0
LINE
  5
AC
330
AB
100
AcDbEntity
  8
寸法
  6
ByBlock
 62
     0
100
AcDbLine
 10
19.949612
 20
59.73238
 30
0.0
 11
19.949612
 21
88.840452
 31
0.0
  0
LINE
  5
AD
330
AB
100
AcDbEntity
  8
寸法
  6
ByBlock
 62
     0
100
AcDbLine
 10
-5.050388
 20
88.840452
 30
0.0
 11
19.949612
 21
88.840452
 31
0.0
  0
POINT
  5
AE
330
AB
100
AcDbEntity
  8
寸法
 62
     0
100
AcDbPoint
 10
19.949612
 20
88.840452
 30
0.0
  0
TEXT
  5
AF
330
AB
100
AcDbEntity
  8
寸法
  6
Continuous
 62
     0
100
AcDbText
 10
4.9875
 20
89.2
 30
0.0
 40
3.0
  1
750
  7
TextStyle03
 72
     5
 11
9.862500000000001
 21
89.2
 31
0.0
100
AcDbText
  0
ENDBLK
  5
B0
330
AB
100
AcDbEntity
  8
0
100
AcDbBlockEnd
  0
BLOCK
  5
B1
330
B2
100
AcDbEntity
  8
0
100
AcDbBlockBegin
  2
*U11
 70
     1
 71
     0
 10
0.0
 20
0.0
 30
0.0
  3
*U11
  1

  0
LINE
  5
B3
330
B2
100
AcDbEntity
  8
寸法
  6
ByBlock
 62
     0
100
AcDbLine
 10
44.949612
 20
59.73238
 30
0.0
 11
44.949612
 21
88.840452
 31
0.0
  0
LINE
  5
B4
330
B2
100
AcDbEntity
  8
寸法
  6
ByBlock
 62
     0
100
AcDbLine
 10
19.949612
 20
88.840452
 30
0.0
 11
44.949612
 21
88.840452
 31
0.0
  0
POINT
  5
B5
330
B2
100
AcDbEntity
  8
寸法
 62
     0
100
AcDbPoint
 10
44.949612
 20
88.840452
 30
0.0
  0
TEXT
  5
B6
330
B2
100
AcDbEntity
  8
寸法
  6
Continuous
 62
     0
100
AcDbText
 10
29.9875
 20
89.2
 30
0.0
 40
3.0
  1
750
  7
TextStyle03
 72
     5
 11
34.8625
 21
89.2
 31
0.0
100
AcDbText
  0
ENDBLK
  5
B7
330
B2
100
AcDbEntity
  8
0
100
AcDbBlockEnd
  0
BLOCK
  5
B8
330
B9
100
AcDbEntity
  8
0
100
AcDbBlockBegin
  2
*U12
 70
     1
 71
     0
 10
0.0
 20
0.0
 30
0.0
  3
*U12
  1

  0
LINE
  5
BA
330
B9
100
AcDbEntity
  8
寸法
  6
ByBlock
 62
     0
100
AcDbLine
 10
-116.550388
 20
-79.95817
 30
0.0
 11
-116.550388
 21
-22.536362
 31
0.0
  0
LINE
  5
BB
330
B9
100
AcDbEntity
  8
寸法
  6
ByBlock
 62
     0
100
AcDbLine
 10
-113.383723
 20
-22.536362
 30
0.0
 11
-116.550388
 21
-22.536362
 31
0.0
  0
POINT
  5
BC
330
B9
100
AcDbEntity
  8
寸法
 62
     0
100
AcDbPoint
 10
-113.383723
 20
-22.536362
 30
0.0
  0
POINT
  5
BD
330
B9
100
AcDbEntity
  8
寸法
 62
     0
100
AcDbPoint
 10
-116.550388
 20
-22.536362
 30
0.0
  0
TEXT
  5
BE
330
B9
100
AcDbEntity
  8
寸法
  6
Continuous
 62
     0
100
AcDbText
 10
-116.56875
 20
-22.175
 30
0.0
 40
3.0
  1
95
  7
TextStyle03
 72
     5
 11
-113.38125
 21
-22.175
 31
0.0
100
AcDbText
  0
ENDBLK
  5
BF
330
B9
100
AcDbEntity
  8
0
100
AcDbBlockEnd
  0
BLOCK
  5
C0
330
C1
100
AcDbEntity
  8
0
100
AcDbBlockBegin
  2
*U13
 70
     1
 71
     0
 10
0.0
 20
0.0
 30
0.0
  3
*U13
  1

  0
LINE
  5
C2
330
C1
100
AcDbEntity
  8
寸法
  6
ByBlock
 62
     0
100
AcDbLine
 10
56.449612
 20
-79.95817
 30
0.0
 11
56.449612
 21
-22.536362
 31
0.0
  0
LINE
  5
C3
330
C1
100
AcDbEntity
  8
寸法
  6
ByBlock
 62
     0
100
AcDbLine
 10
53.282945
 20
-22.536362
 30
0.0
 11
56.449612
 21
-22.536362
 31
0.0
  0
POINT
  5
C4
330
C1
100
AcDbEntity
  8
寸法
 62
     0
100
AcDbPoint
 10
53.282945
 20
-22.536362
 30
0.0
  0
POINT
  5
C5
330
C1
100
AcDbEntity
  8
寸法
 62
     0
100
AcDbPoint
 10
56.449612
 20
-22.536362
 30
0.0
  0
TEXT
  5
C6
330
C1
100
AcDbEntity
  8
寸法
  6
Continuous
 62
     0
100
AcDbText
 10
53.25625
 20
-22.175
 30
0.0
 40
3.0
  1
95
  7
TextStyle03
 72
     5
 11
56.44375
 21
-22.175
 31
0.0
100
AcDbText
  0
ENDBLK
  5
C7
330
C1
100
AcDbEntity
  8
0
100
AcDbBlockEnd
  0
BLOCK
  5
C8
330
C9
100
AcDbEntity
  8
0
100
AcDbBlockBegin
  2
*U14
 70
     1
 71
     0
 10
0.0
 20
0.0
 30
0.0
  3
*U14
  1

  0
LINE
  5
CA
330
C9
100
AcDbEntity
  8
寸法
  6
ByBlock
 62
     0
100
AcDbLine
 10
143.149783
 20
59.89905
 30
0.0
 11
87.302595
 21
59.89905
 31
0.0
  0
LINE
  5
CB
330
C9
100
AcDbEntity
  8
寸法
  6
ByBlock
 62
     0
100
AcDbLine
 10
87.302595
 20
56.73238
 30
0.0
 11
87.302595
 21
59.89905
 31
0.0
  0
POINT
  5
CC
330
C9
100
AcDbEntity
  8
寸法
 62
     0
100
AcDbPoint
 10
87.302595
 20
56.73238
 30
0.0
  0
POINT
  5
CD
330
C9
100
AcDbEntity
  8
寸法
 62
     0
100
AcDbPoint
 10
87.302595
 20
59.89905
 30
0.0
  0
TEXT
  5
CE
330
C9
100
AcDbEntity
  8
寸法
  6
Continuous
 62
     0
100
AcDbText
 10
86.925
 20
56.70625
 30
0.0
 40
3.0
  1
95
 50
90.0
  7
TextStyle03
 72
     5
 11
86.925
 21
59.89375
 31
0.0
100
AcDbText
  0
ENDBLK
  5
CF
330
C9
100
AcDbEntity
  8
0
100
AcDbBlockEnd
  0
BLOCK
  5
D0
330
D1
100
AcDbEntity
  8
0
100
AcDbBlockBegin
  2
*U15
 70
     1
 71
     0
 10
0.0
 20
0.0
 30
0.0
  3
*U15
  1

  0
LINE
  5
D2
330
D1
100
AcDbEntity
  8
寸法
  6
ByBlock
 62
     0
100
AcDbLine
 10
143.149783
 20
10.23238
 30
0.0
 11
87.302595
 21
10.23238
 31
0.0
  0
LINE
  5
D3
330
D1
100
AcDbEntity
  8
寸法
  6
ByBlock
 62
     0
100
AcDbLine
 10
87.302595
 20
13.399048
 30
0.0
 11
87.302595
 21
10.23238
 31
0.0
  0
POINT
  5
D4
330
D1
100
AcDbEntity
  8
寸法
 62
     0
100
AcDbPoint
 10
87.302595
 20
13.399048
 30
0.0
  0
POINT
  5
D5
330
D1
100
AcDbEntity
  8
寸法
 62
     0
100
AcDbPoint
 10
87.302595
 20
10.23238
 30
0.0
  0
TEXT
  5
D6
330
D1
100
AcDbEntity
  8
寸法
  6
Continuous
 62
     0
100
AcDbText
 10
86.925
 20
10.20625
 30
0.0
 40
3.0
  1
95
 50
90.0
  7
TextStyle03
 72
     5
 11
86.925
 21
13.39375
 31
0.0
100
AcDbText
  0
ENDBLK
  5
D7
330
D1
100
AcDbEntity
  8
0
100
AcDbBlockEnd
  0
BLOCK
  5
D8
330
D9
100
AcDbEntity
  8
0
100
AcDbBlockBegin
  2
*U16
 70
     1
 71
     0
 10
0.0
 20
0.0
 30
0.0
  3
*U16
  1

  0
LINE
  5
DA
330
D9
100
AcDbEntity
  8
寸法
  6
ByBlock
 62
     0
100
AcDbLine
 10
158.537835
 20
-49.533713
 30
0.0
 11
165.404422
 21
-49.533713
 31
0.0
  0
LINE
  5
DB
330
D9
100
AcDbEntity
  8
寸法
  6
ByBlock
 62
     0
100
AcDbLine
 10
161.537835
 20
-92.53371300000001
 30
0.0
 11
165.404422
 21
-92.53371300000001
 31
0.0
  0
LINE
  5
DC
330
D9
100
AcDbEntity
  8
寸法
  6
ByBlock
 62
     0
100
AcDbLine
 10
165.404422
 20
-49.533713
 30
0.0
 11
165.404422
 21
-92.53371300000001
 31
0.0
  0
POINT
  5
DD
330
D9
100
AcDbEntity
  8
寸法
 62
     0
100
AcDbPoint
 10
165.404422
 20
-49.533713
 30
0.0
  0
POINT
  5
DE
330
D9
100
AcDbEntity
  8
寸法
 62
     0
100
AcDbPoint
 10
165.404422
 20
-92.53371300000001
 30
0.0
  0
TEXT
  5
DF
330
D9
100
AcDbEntity
  8
寸法
  6
Continuous
 62
     0
100
AcDbText
 10
165.025
 20
-75.425
 30
0.0
 40
4.0
  1
1290
 50
90.0
  7
TextStyle03
 72
     5
 11
165.025
 21
-66.675
 31
0.0
100
AcDbText
  0
ENDBLK
  5
E0
330
D9
100
AcDbEntity
  8
0
100
AcDbBlockEnd
  0
BLOCK
  5
E1
330
E2
100
AcDbEntity
  8
0
100
AcDbBlockBegin
  2
*U17
 70
     1
 71
     0
 10
0.0
 20
0.0
 30
0.0
  3
*U17
  1

  0
LINE
  5
E3
330
E2
100
AcDbEntity
  8
寸法
  6
ByBlock
 62
     0
100
AcDbLine
 10
123.124503
 20
-46.533713
 30
0.0
 11
123.124503
 21
-41.534832
 31
0.0
  0
LINE
  5
E4
330
E2
100
AcDbEntity
  8
寸法
  6
ByBlock
 62
     0
100
AcDbLine
 10
155.537835
 20
-46.533713
 30
0.0
 11
155.537835
 21
-41.534832
 31
0.0
  0
LINE
  5
E5
330
E2
100
AcDbEntity
  8
寸法
  6
ByBlock
 62
     0
100
AcDbLine
 10
123.124503
 20
-41.534832
 30
0.0
 11
155.537835
 21
-41.534832
 31
0.0
  0
POINT
  5
E6
330
E2
100
AcDbEntity
  8
寸法
 62
     0
100
AcDbPoint
 10
123.124503
 20
-41.534832
 30
0.0
  0
POINT
  5
E7
330
E2
100
AcDbEntity
  8
寸法
 62
     0
100
AcDbPoint
 10
155.537835
 20
-41.534832
 30
0.0
  0
TEXT
  5
E8
330
E2
100
AcDbEntity
  8
寸法
  6
Continuous
 62
     0
100
AcDbText
 10
133.825
 20
-41.175
 30
0.0
 40
4.0
  1
972.4
  7
TextStyle03
 72
     5
 11
144.825
 21
-41.175
 31
0.0
100
AcDbText
  0
ENDBLK
  5
E9
330
E2
100
AcDbEntity
  8
0
100
AcDbBlockEnd
  0
BLOCK
  5
EA
330
EB
100
AcDbEntity
  8
0
100
AcDbBlockBegin
  2
*U18
 70
     1
 71
     0
 10
0.0
 20
0.0
 30
0.0
  3
*U18
  1

  0
LINE
  5
EC
330
EB
100
AcDbEntity
  8
寸法
  6
Continuous
100
AcDbLine
 10
145.652773
 20
70.815898
 30
0.0
 11
141.35277
 21
70.815898
 31
0.0
  0
POINT
  5
ED
330
EB
100
AcDbEntity
  8
寸法
100
AcDbPoint
 10
145.652773
 20
70.815898
 30
0.0
  0
POINT
  5
EE
330
EB
100
AcDbEntity
  8
寸法
100
AcDbPoint
 10
141.35277
 20
70.815898
 30
0.0
  0
TEXT
  5
EF
330
EB
100
AcDbEntity
  8
寸法
  6
Continuous
100
AcDbText
 10
141.0875
 20
71.175
 30
0.0
 40
3.0
  1
129
  7
TextStyle03
 72
     5
 11
145.9625
 21
71.175
 31
0.0
100
AcDbText
  0
ENDBLK
  5
F0
330
EB
100
AcDbEntity
  8
0
100
AcDbBlockEnd
  0
BLOCK
  5
F1
330
F2
100
AcDbEntity
  8
0
100
AcDbBlockBegin
  2
*U19
 70
     1
 71
     0
 10
0.0
 20
0.0
 30
0.0
  3
*U19
  1

  0
LINE
  5
F3
330
F2
100
AcDbEntity
  8
寸法
  6
Continuous
100
AcDbLine
 10
67.366462
 20
-82.23858
 30
0.0
 11
67.366462
 21
-77.93858
 31
0.0
  0
POINT
  5
F4
330
F2
100
AcDbEntity
  8
寸法
100
AcDbPoint
 10
67.366462
 20
-82.23858
 30
0.0
  0
POINT
  5
F5
330
F2
100
AcDbEntity
  8
寸法
100
AcDbPoint
 10
67.366462
 20
-77.93858
 30
0.0
  0
TEXT
  5
F6
330
F2
100
AcDbEntity
  8
寸法
  6
Continuous
100
AcDbText
 10
70.84999999999999
 20
-82.5125
 30
0.0
 40
3.0
  1
129
 50
90.0
  7
TextStyle03
 72
     5
 11
70.84999999999999
 21
-77.6375
 31
0.0
100
AcDbText
  0
ENDBLK
  5
F7
330
F2
100
AcDbEntity
  8
0
100
AcDbBlockEnd
  0
ENDSEC
  0
SECTION
  2
ENTITIES
  0
LWPOLYLINE
  5
F8
330
1D
100
AcDbEntity
  8
通り芯
  6
Continuous
100
AcDbPolyline
 90
        4
 70
     1
 43
0.0
 10
-210.0
 20
-148.5
 10
210.0
 20
-148.5
 10
210.0
 20
148.5
 10
-210.0
 20
148.5
  0
INSERT
  5
FE
330
1D
100
AcDbEntity
  8
型材断面
  6
Continuous
100
AcDbBlockReference
  2
*U0
 10
0.0
 20
0.0
 30
0.0
  0
LINE
  5
FF
330
1D
100
AcDbEntity
  8
型材断面
  6
DASHDOT
100
AcDbLine
 10
53.282945
 20
-87.251428
 30
0.0
 11
53.282945
 21
56.73238
 31
0.0
  0
LINE
  5
100
330
1D
100
AcDbEntity
  8
型材断面
  6
DASHDOT
100
AcDbLine
 10
-30.050388
 20
-87.251428
 30
0.0
 11
-30.050388
 21
56.73238
 31
0.0
  0
LINE
  5
101
330
1D
100
AcDbEntity
  8
型材断面
  6
DASHDOT
100
AcDbLine
 10
-113.383723
 20
-87.251428
 30
0.0
 11
-113.383723
 21
56.73238
 31
0.0
  0
LINE
  5
102
330
1D
100
AcDbEntity
  8
型材断面
  6
DASHDOT
100
AcDbLine
 10
150.959707
 20
35.065715
 30
0.0
 11
-113.383723
 21
35.065715
 31
0.0
  0
LINE
  5
103
330
1D
100
AcDbEntity
  8
型材断面
  6
DASHDOT
100
AcDbLine
 10
150.959707
 20
13.399048
 30
0.0
 11
-113.383723
 21
13.399048
 31
0.0
  0
LINE
  5
104
330
1D
100
AcDbEntity
  8
型材断面
  6
Continuous
100
AcDbLine
 10
-116.013853
 20
35.065715
 30
0.0
 11
-118.60436
 21
36.561345
 31
0.0
  0
LINE
  5
105
330
1D
100
AcDbEntity
  8
型材断面
  6
Continuous
100
AcDbLine
 10
-116.013853
 20
35.065715
 30
0.0
 11
-118.60436
 21
33.570085
 31
0.0
  0
LINE
  5
106
330
1D
100
AcDbEntity
  8
型材断面
  6
Continuous
100
AcDbLine
 10
-118.60436
 20
33.570085
 30
0.0
 11
-118.60436
 21
36.561345
 31
0.0
  0
LINE
  5
107
330
1D
100
AcDbEntity
  8
型材断面
  6
Continuous
100
AcDbLine
 10
-96.717055
 20
59.36251
 30
0.0
 11
-98.21268499999999
 21
61.953017
 31
0.0
  0
LINE
  5
108
330
1D
100
AcDbEntity
  8
型材断面
  6
Continuous
100
AcDbLine
 10
-96.717055
 20
59.36251
 30
0.0
 11
-95.221425
 21
61.953017
 31
0.0
  0
LINE
  5
109
330
1D
100
AcDbEntity
  8
型材断面
  6
Continuous
100
AcDbLine
 10
-95.221425
 20
61.953017
 30
0.0
 11
-98.21268499999999
 21
61.953017
 31
0.0
  0
LINE
  5
10A
330
1D
100
AcDbEntity
  8
型材断面
  6
Continuous
100
AcDbLine
 10
-154.23593
 20
101.239727
 30
0.0
 11
-155.73156
 21
98.64922
 31
0.0
  0
LINE
  5
10B
330
1D
100
AcDbEntity
  8
型材断面
  6
Continuous
100
AcDbLine
 10
-154.23593
 20
101.239727
 30
0.0
 11
-152.7403
 21
98.64922
 31
0.0
  0
LINE
  5
10C
330
1D
100
AcDbEntity
  8
型材断面
  6
Continuous
100
AcDbLine
 10
-152.7403
 20
98.64922
 30
0.0
 11
-155.73156
 21
98.64922
 31
0.0
  0
LINE
  5
10D
330
1D
100
AcDbEntity
  8
型材断面
  6
Continuous
100
AcDbLine
 10
-160.258518
 20
97.71062499999999
 30
0.0
 11
-114.01674
 21
97.71062499999999
 31
0.0
  0
LINE
  5
10E
330
1D
100
AcDbEntity
  8
型材断面
  6
Continuous
100
AcDbLine
 10
-96.717055
 20
10.76892
 30
0.0
 11
-98.21268499999999
 21
8.178413000000001
 31
0.0
  0
LINE
  5
10F
330
1D
100
AcDbEntity
  8
型材断面
  6
Continuous
100
AcDbLine
 10
-96.717055
 20
10.76892
 30
0.0
 11
-95.221425
 21
8.178413000000001
 31
0.0
  0
LINE
  5
110
330
1D
100
AcDbEntity
  8
型材断面
  6
Continuous
100
AcDbLine
 10
-95.221425
 20
8.178413000000001
 30
0.0
 11
-98.21268499999999
 21
8.178413000000001
 31
0.0
  0
LINE
  5
111
330
1D
100
AcDbEntity
  8
型材断面
  6
Continuous
100
AcDbLine
 10
55.913077
 20
35.065715
 30
0.0
 11
58.503585
 21
36.561345
 31
0.0
  0
LINE
  5
112
330
1D
100
AcDbEntity
  8
型材断面
  6
Continuous
100
AcDbLine
 10
55.913077
 20
35.065715
 30
0.0
 11
58.503585
 21
33.570085
 31
0.0
  0
LINE
  5
113
330
1D
100
AcDbEntity
  8
型材断面
  6
Continuous
100
AcDbLine
 10
58.503585
 20
33.570085
 30
0.0
 11
58.503585
 21
36.561345
 31
0.0
  0
LINE
  5
114
330
1D
100
AcDbEntity
  8
型材断面
  6
Continuous
100
AcDbLine
 10
36.61628
 20
59.36251
 30
0.0
 11
38.11191
 21
61.953017
 31
0.0
  0
LINE
  5
115
330
1D
100
AcDbEntity
  8
型材断面
  6
Continuous
100
AcDbLine
 10
36.61628
 20
59.36251
 30
0.0
 11
35.12065
 21
61.953017
 31
0.0
  0
LINE
  5
116
330
1D
100
AcDbEntity
  8
型材断面
  6
Continuous
100
AcDbLine
 10
35.12065
 20
61.953017
 30
0.0
 11
38.11191
 21
61.953017
 31
0.0
  0
LINE
  5
117
330
1D
100
AcDbEntity
  8
型材断面
  6
Continuous
100
AcDbLine
 10
36.61628
 20
10.76892
 30
0.0
 11
38.11191
 21
8.178413000000001
 31
0.0
  0
LINE
  5
118
330
1D
100
AcDbEntity
  8
型材断面
  6
Continuous
100
AcDbLine
 10
36.61628
 20
10.76892
 30
0.0
 11
35.12065
 21
8.178413000000001
 31
0.0
  0
LINE
  5
119
330
1D
100
AcDbEntity
  8
型材断面
  6
Continuous
100
AcDbLine
 10
35.12065
 20
8.178413000000001
 30
0.0
 11
38.11191
 21
8.178413000000001
 31
0.0
  0
LINE
  5
11A
330
1D
100
AcDbEntity
  8
型材断面
  6
Continuous
100
AcDbLine
 10
-30.050388
 20
59.36251
 30
0.0
 11
-31.546018
 21
61.953017
 31
0.0
  0
LINE
  5
11B
330
1D
100
AcDbEntity
  8
型材断面
  6
Continuous
100
AcDbLine
 10
-30.050388
 20
59.36251
 30
0.0
 11
-28.554757
 21
61.953017
 31
0.0
  0
LINE
  5
11C
330
1D
100
AcDbEntity
  8
型材断面
  6
Continuous
100
AcDbLine
 10
-28.554757
 20
61.953017
 30
0.0
 11
-31.546018
 21
61.953017
 31
0.0
  0
LINE
  5
11D
330
1D
100
AcDbEntity
  8
型材断面
  6
Continuous
100
AcDbLine
 10
-30.050388
 20
10.76892
 30
0.0
 11
-31.546018
 21
8.178413000000001
 31
0.0
  0
LINE
  5
11E
330
1D
100
AcDbEntity
  8
型材断面
  6
Continuous
100
AcDbLine
 10
-30.050388
 20
10.76892
 30
0.0
 11
-28.554757
 21
8.178413000000001
 31
0.0
  0
LINE
  5
11F
330
1D
100
AcDbEntity
  8
型材断面
  6
Continuous
100
AcDbLine
 10
-28.554757
 20
8.178413000000001
 30
0.0
 11
-31.546018
 21
8.178413000000001
 31
0.0
  0
LINE
  5
120
330
1D
100
AcDbEntity
  8
型材断面
  6
Continuous
100
AcDbLine
 10
-160.258518
 20
92.246443
 30
0.0
 11
-114.01674
 21
92.246443
 31
0.0
  0
LINE
  5
121
330
1D
100
AcDbEntity
  8
型材断面
  6
Continuous
100
AcDbLine
 10
-116.550385
 20
59.899045
 30
0.0
 11
-116.550385
 21
10.232382
 31
0.0
  0
LINE
  5
122
330
1D
100
AcDbEntity
  8
型材断面
  6
Continuous
100
AcDbLine
 10
-116.550385
 20
10.232382
 30
0.0
 11
56.44961
 21
10.232382
 31
0.0
  0
LINE
  5
123
330
1D
100
AcDbEntity
  8
型材断面
  6
Continuous
100
AcDbLine
 10
-116.550385
 20
59.899045
 30
0.0
 11
56.44961
 21
59.899045
 31
0.0
  0
LINE
  5
124
330
1D
100
AcDbEntity
  8
型材断面
  6
Continuous
100
AcDbLine
 10
56.44961
 20
10.232382
 30
0.0
 11
56.44961
 21
59.899045
 31
0.0
  0
LINE
  5
125
330
1D
100
AcDbEntity
  8
型材断面
  6
DASHDOT
100
AcDbLine
 10
150.959707
 20
56.73238
 30
0.0
 11
-113.383723
 21
56.73238
 31
0.0
  0
LINE
  5
126
330
1D
100
AcDbEntity
  8
型材断面
  6
DASHDOT
100
AcDbLine
 10
-80.27039000000001
 20
13.399048
 30
0.0
 11
-80.27039000000001
 21
56.73238
 31
0.0
  0
LINE
  5
127
330
1D
100
AcDbEntity
  8
型材断面
  6
DASHDOT
100
AcDbLine
 10
-46.79039
 20
13.399048
 30
0.0
 11
-46.79039
 21
56.73238
 31
0.0
  0
LINE
  5
128
330
1D
100
AcDbEntity
  8
型材断面
  6
DASHDOT
100
AcDbLine
 10
20.169615
 20
13.399048
 30
0.0
 11
20.169615
 21
56.73238
 31
0.0
  0
LINE
  5
129
330
1D
100
AcDbEntity
  8
型材断面
  6
DASHDOT
100
AcDbLine
 10
-13.310385
 20
13.399048
 30
0.0
 11
-13.310385
 21
56.73238
 31
0.0
  0
LINE
  5
12A
330
1D
100
AcDbEntity
  8
型材断面
  6
Continuous
100
AcDbLine
 10
37.142948
 20
14.152527
 30
0.0
 11
37.142948
 21
11.652527
 31
0.0
  0
LINE
  5
12B
330
1D
100
AcDbEntity
  8
型材断面
  6
Continuous
100
AcDbLine
 10
36.309613
 20
14.152527
 30
0.0
 11
36.309613
 21
11.652527
 31
0.0
  0
LINE
  5
12C
330
1D
100
AcDbEntity
  8
型材断面
  6
Continuous
100
AcDbLine
 10
3.846283
 20
14.152527
 30
0.0
 11
3.846283
 21
11.652527
 31
0.0
  0
LINE
  5
12D
330
1D
100
AcDbEntity
  8
型材断面
  6
Continuous
100
AcDbLine
 10
3.012947
 20
14.152527
 30
0.0
 11
3.012947
 21
11.652527
 31
0.0
  0
LINE
  5
12E
330
1D
100
AcDbEntity
  8
型材断面
  6
Continuous
100
AcDbLine
 10
-29.63372
 20
14.152527
 30
0.0
 11
-29.63372
 21
11.652527
 31
0.0
  0
LINE
  5
12F
330
1D
100
AcDbEntity
  8
型材断面
  6
Continuous
100
AcDbLine
 10
-30.467055
 20
14.152527
 30
0.0
 11
-30.467055
 21
11.652527
 31
0.0
  0
LINE
  5
130
330
1D
100
AcDbEntity
  8
型材断面
  6
Continuous
100
AcDbLine
 10
-97.24372200000001
 20
14.152527
 30
0.0
 11
-97.24372200000001
 21
11.652527
 31
0.0
  0
LINE
  5
131
330
1D
100
AcDbEntity
  8
型材断面
  6
Continuous
100
AcDbLine
 10
-96.410387
 20
14.152527
 30
0.0
 11
-96.410387
 21
11.652527
 31
0.0
  0
LINE
  5
132
330
1D
100
AcDbEntity
  8
型材断面
  6
Continuous
100
AcDbLine
 10
-63.947058
 20
14.152527
 30
0.0
 11
-63.947058
 21
11.652527
 31
0.0
  0
LINE
  5
133
330
1D
100
AcDbEntity
  8
型材断面
  6
Continuous
100
AcDbLine
 10
-63.113723
 20
14.152527
 30
0.0
 11
-63.113723
 21
11.652527
 31
0.0
  0
LINE
  5
134
330
1D
100
AcDbEntity
  8
型材断面
  6
Continuous
100
AcDbLine
 10
37.142948
 20
55.978903
 30
0.0
 11
37.142948
 21
58.478903
 31
0.0
  0
LINE
  5
135
330
1D
100
AcDbEntity
  8
型材断面
  6
Continuous
100
AcDbLine
 10
36.309613
 20
55.978903
 30
0.0
 11
36.309613
 21
58.478903
 31
0.0
  0
LINE
  5
136
330
1D
100
AcDbEntity
  8
型材断面
  6
Continuous
100
AcDbLine
 10
3.846283
 20
55.978903
 30
0.0
 11
3.846283
 21
58.478903
 31
0.0
  0
LINE
  5
137
330
1D
100
AcDbEntity
  8
型材断面
  6
Continuous
100
AcDbLine
 10
3.012947
 20
55.978903
 30
0.0
 11
3.012947
 21
58.478903
 31
0.0
  0
LINE
  5
138
330
1D
100
AcDbEntity
  8
型材断面
  6
Continuous
100
AcDbLine
 10
-29.63372
 20
55.978903
 30
0.0
 11
-29.63372
 21
58.478903
 31
0.0
  0
LINE
  5
139
330
1D
100
AcDbEntity
  8
型材断面
  6
Continuous
100
AcDbLine
 10
-30.467055
 20
55.978903
 30
0.0
 11
-30.467055
 21
58.478903
 31
0.0
  0
LINE
  5
13A
330
1D
100
AcDbEntity
  8
型材断面
  6
Continuous
100
AcDbLine
 10
-97.24372200000001
 20
55.978903
 30
0.0
 11
-97.24372200000001
 21
58.478903
 31
0.0
  0
LINE
  5
13B
330
1D
100
AcDbEntity
  8
型材断面
  6
Continuous
100
AcDbLine
 10
-96.410387
 20
55.978903
 30
0.0
 11
-96.410387
 21
58.478903
 31
0.0
  0
LINE
  5
13C
330
1D
100
AcDbEntity
  8
型材断面
  6
Continuous
100
AcDbLine
 10
-63.947058
 20
55.978903
 30
0.0
 11
-63.947058
 21
58.478903
 31
0.0
  0
LINE
  5
13D
330
1D
100
AcDbEntity
  8
型材断面
  6
Continuous
100
AcDbLine
 10
-63.113723
 20
55.978903
 30
0.0
 11
-63.113723
 21
58.478903
 31
0.0
  0
LINE
  5
13E
330
1D
100
AcDbEntity
  8
型材断面
  6
Continuous
100
AcDbLine
 10
55.029467
 20
35.482382
 30
0.0
 11
52.529467
 21
35.482382
 31
0.0
  0
LINE
  5
13F
330
1D
100
AcDbEntity
  8
型材断面
  6
Continuous
100
AcDbLine
 10
55.029467
 20
34.649048
 30
0.0
 11
52.529467
 21
34.649048
 31
0.0
  0
LINE
  5
140
330
1D
100
AcDbEntity
  8
型材断面
  6
Continuous
100
AcDbLine
 10
-115.130242
 20
35.482382
 30
0.0
 11
-112.630242
 21
35.482382
 31
0.0
  0
LINE
  5
141
330
1D
100
AcDbEntity
  8
型材断面
  6
Continuous
100
AcDbLine
 10
-115.130242
 20
34.649048
 30
0.0
 11
-112.630242
 21
34.649048
 31
0.0
  0
LINE
  5
142
330
1D
100
AcDbEntity
  8
型材断面
  6
Continuous
100
AcDbLine
 10
54.793765
 20
11.652527
 30
0.0
 11
55.029465
 21
11.888227
 31
0.0
  0
LINE
  5
143
330
1D
100
AcDbEntity
  8
型材断面
  6
Continuous
100
AcDbLine
 10
52.293767
 20
55.978903
 30
0.0
 11
52.529465
 21
55.7432
 31
0.0
  0
LINE
  5
144
330
1D
100
AcDbEntity
  8
型材断面
  6
Continuous
100
AcDbLine
 10
-114.89454
 20
58.478903
 30
0.0
 11
-115.13024
 21
58.243203
 31
0.0
  0
LINE
  5
145
330
1D
100
AcDbEntity
  8
型材断面
  6
Continuous
100
AcDbLine
 10
-112.394542
 20
55.978903
 30
0.0
 11
-112.63024
 21
55.7432
 31
0.0
  0
LINE
  5
146
330
1D
100
AcDbEntity
  8
型材断面
  6
Continuous
100
AcDbLine
 10
-114.89454
 20
11.652527
 30
0.0
 11
-115.13024
 21
11.888227
 31
0.0
  0
LINE
  5
147
330
1D
100
AcDbEntity
  8
型材断面
  6
Continuous
100
AcDbLine
 10
-112.394542
 20
14.152527
 30
0.0
 11
-112.630242
 21
14.388233
 31
0.0
  0
LINE
  5
148
330
1D
100
AcDbEntity
  8
型材断面
  6
Continuous
100
AcDbLine
 10
-112.394542
 20
14.152527
 30
0.0
 11
-114.89454
 21
11.652527
 31
0.0
  0
LINE
  5
149
330
1D
100
AcDbEntity
  8
型材断面
  6
Continuous
100
AcDbLine
 10
-112.63024
 20
14.38823
 30
0.0
 11
-115.130242
 21
11.888225
 31
0.0
  0
LINE
  5
14A
330
1D
100
AcDbEntity
  8
型材断面
  6
Continuous
100
AcDbLine
 10
-116.550385
 20
10.232382
 30
0.0
 11
-115.01239
 21
11.770377
 31
0.0
  0
LINE
  5
14B
330
1D
100
AcDbEntity
  8
型材断面
  6
Continuous
100
AcDbLine
 10
-97.24372200000001
 20
14.152527
 30
0.0
 11
-112.394542
 21
14.152527
 31
0.0
  0
LINE
  5
14C
330
1D
100
AcDbEntity
  8
型材断面
  6
Continuous
100
AcDbLine
 10
-112.630242
 20
34.649048
 30
0.0
 11
-112.630242
 21
14.388233
 31
0.0
  0
LINE
  5
14D
330
1D
100
AcDbEntity
  8
型材断面
  6
Continuous
100
AcDbLine
 10
-97.24372200000001
 20
55.978903
 30
0.0
 11
-112.394542
 21
55.978903
 31
0.0
  0
LINE
  5
14E
330
1D
100
AcDbEntity
  8
型材断面
  6
Continuous
100
AcDbLine
 10
-112.630242
 20
35.482382
 30
0.0
 11
-112.630242
 21
55.743203
 31
0.0
  0
LINE
  5
14F
330
1D
100
AcDbEntity
  8
型材断面
  6
Continuous
100
AcDbLine
 10
-112.394542
 20
55.978903
 30
0.0
 11
-114.89454
 21
58.478903
 31
0.0
  0
LINE
  5
150
330
1D
100
AcDbEntity
  8
型材断面
  6
Continuous
100
AcDbLine
 10
-112.630242
 20
55.743203
 30
0.0
 11
-115.130242
 21
58.243205
 31
0.0
  0
LINE
  5
151
330
1D
100
AcDbEntity
  8
型材断面
  6
Continuous
100
AcDbLine
 10
-115.130242
 20
11.888225
 30
0.0
 11
-115.130242
 21
58.243205
 31
0.0
  0
LINE
  5
152
330
1D
100
AcDbEntity
  8
型材断面
  6
Continuous
100
AcDbLine
 10
-116.550385
 20
59.899045
 30
0.0
 11
-115.01239
 21
58.361053
 31
0.0
  0
LINE
  5
153
330
1D
100
AcDbEntity
  8
型材断面
  6
Continuous
100
AcDbLine
 10
-96.410387
 20
55.978903
 30
0.0
 11
-63.947058
 21
55.978903
 31
0.0
  0
LINE
  5
154
330
1D
100
AcDbEntity
  8
型材断面
  6
Continuous
100
AcDbLine
 10
-63.947058
 20
14.152527
 30
0.0
 11
-96.410387
 21
14.152527
 31
0.0
  0
LINE
  5
155
330
1D
100
AcDbEntity
  8
型材断面
  6
Continuous
100
AcDbLine
 10
-30.467055
 20
14.152527
 30
0.0
 11
-63.113723
 21
14.152527
 31
0.0
  0
LINE
  5
156
330
1D
100
AcDbEntity
  8
型材断面
  6
Continuous
100
AcDbLine
 10
-63.113723
 20
55.978903
 30
0.0
 11
-30.467055
 21
55.978903
 31
0.0
  0
LINE
  5
157
330
1D
100
AcDbEntity
  8
型材断面
  6
Continuous
100
AcDbLine
 10
-29.63372
 20
55.978903
 30
0.0
 11
3.012947
 21
55.978903
 31
0.0
  0
LINE
  5
158
330
1D
100
AcDbEntity
  8
型材断面
  6
Continuous
100
AcDbLine
 10
3.012947
 20
14.152527
 30
0.0
 11
-29.63372
 21
14.152527
 31
0.0
  0
LINE
  5
159
330
1D
100
AcDbEntity
  8
型材断面
  6
Continuous
100
AcDbLine
 10
36.309613
 20
14.152527
 30
0.0
 11
3.846283
 21
14.152527
 31
0.0
  0
LINE
  5
15A
330
1D
100
AcDbEntity
  8
型材断面
  6
Continuous
100
AcDbLine
 10
3.846283
 20
55.978903
 30
0.0
 11
36.309613
 21
55.978903
 31
0.0
  0
LINE
  5
15B
330
1D
100
AcDbEntity
  8
型材断面
  6
Continuous
100
AcDbLine
 10
55.029465
 20
58.243203
 30
0.0
 11
52.529467
 21
55.743203
 31
0.0
  0
LINE
  5
15C
330
1D
100
AcDbEntity
  8
型材断面
  6
Continuous
100
AcDbLine
 10
54.793765
 20
58.478903
 30
0.0
 11
52.293767
 21
55.978903
 31
0.0
  0
LINE
  5
15D
330
1D
100
AcDbEntity
  8
型材断面
  6
Continuous
100
AcDbLine
 10
37.142948
 20
55.978903
 30
0.0
 11
52.293767
 21
55.978903
 31
0.0
  0
LINE
  5
15E
330
1D
100
AcDbEntity
  8
型材断面
  6
Continuous
100
AcDbLine
 10
55.029467
 20
58.2432
 30
0.0
 11
54.793765
 21
58.478903
 31
0.0
  0
LINE
  5
15F
330
1D
100
AcDbEntity
  8
型材断面
  6
Continuous
100
AcDbLine
 10
-114.89454
 20
58.478903
 30
0.0
 11
54.793765
 21
58.478903
 31
0.0
  0
LINE
  5
160
330
1D
100
AcDbEntity
  8
型材断面
  6
Continuous
100
AcDbLine
 10
56.44961
 20
59.899045
 30
0.0
 11
54.911615
 21
58.361053
 31
0.0
  0
LINE
  5
161
330
1D
100
AcDbEntity
  8
型材断面
  6
Continuous
100
AcDbLine
 10
52.529467
 20
35.482382
 30
0.0
 11
52.529467
 21
55.743203
 31
0.0
  0
LINE
  5
162
330
1D
100
AcDbEntity
  8
型材断面
  6
Continuous
100
AcDbLine
 10
52.529467
 20
34.649048
 30
0.0
 11
52.529467
 21
14.388233
 31
0.0
  0
LINE
  5
163
330
1D
100
AcDbEntity
  8
型材断面
  6
Continuous
100
AcDbLine
 10
52.529467
 20
14.388233
 30
0.0
 11
52.293767
 21
14.152527
 31
0.0
  0
LINE
  5
164
330
1D
100
AcDbEntity
  8
型材断面
  6
Continuous
100
AcDbLine
 10
37.142948
 20
14.152527
 30
0.0
 11
52.293767
 21
14.152527
 31
0.0
  0
LINE
  5
165
330
1D
100
AcDbEntity
  8
型材断面
  6
Continuous
100
AcDbLine
 10
-114.89454
 20
11.652527
 30
0.0
 11
54.793765
 21
11.652527
 31
0.0
  0
LINE
  5
166
330
1D
100
AcDbEntity
  8
型材断面
  6
Continuous
100
AcDbLine
 10
52.293767
 20
14.152527
 30
0.0
 11
54.793765
 21
11.652527
 31
0.0
  0
LINE
  5
167
330
1D
100
AcDbEntity
  8
型材断面
  6
Continuous
100
AcDbLine
 10
52.529465
 20
14.38823
 30
0.0
 11
55.029467
 21
11.888225
 31
0.0
  0
LINE
  5
168
330
1D
100
AcDbEntity
  8
型材断面
  6
Continuous
100
AcDbLine
 10
55.029467
 20
58.2432
 30
0.0
 11
55.029467
 21
11.888225
 31
0.0
  0
LINE
  5
169
330
1D
100
AcDbEntity
  8
型材断面
  6
Continuous
100
AcDbLine
 10
56.44961
 20
10.232382
 30
0.0
 11
54.911615
 21
11.770377
 31
0.0
  0
LINE
  5
16A
330
1D
100
AcDbEntity
  8
型材断面
  6
Continuous
100
AcDbLine
 10
-79.103723
 20
55.14557
 30
0.0
 11
-81.437057
 21
55.14557
 31
0.0
  0
LINE
  5
16B
330
1D
100
AcDbEntity
  8
型材断面
  6
Continuous
100
AcDbLine
 10
-79.103723
 20
55.14557
 30
0.0
 11
-79.103723
 21
14.98586
 31
0.0
  0
LINE
  5
16C
330
1D
100
AcDbEntity
  8
型材断面
  6
Continuous
100
AcDbLine
 10
-79.103723
 20
14.98586
 30
0.0
 11
-81.437057
 21
14.98586
 31
0.0
  0
LINE
  5
16D
330
1D
100
AcDbEntity
  8
型材断面
  6
Continuous
100
AcDbLine
 10
-81.437057
 20
55.14557
 30
0.0
 11
-81.437057
 21
14.98586
 31
0.0
  0
LINE
  5
16E
330
1D
100
AcDbEntity
  8
型材断面
  6
Continuous
100
AcDbLine
 10
-45.623722
 20
55.14557
 30
0.0
 11
-47.957057
 21
55.14557
 31
0.0
  0
LINE
  5
16F
330
1D
100
AcDbEntity
  8
型材断面
  6
Continuous
100
AcDbLine
 10
-45.623722
 20
55.14557
 30
0.0
 11
-45.623722
 21
14.98586
 31
0.0
  0
LINE
  5
170
330
1D
100
AcDbEntity
  8
型材断面
  6
Continuous
100
AcDbLine
 10
-45.623722
 20
14.98586
 30
0.0
 11
-47.957057
 21
14.98586
 31
0.0
  0
LINE
  5
171
330
1D
100
AcDbEntity
  8
型材断面
  6
Continuous
100
AcDbLine
 10
-47.957057
 20
55.14557
 30
0.0
 11
-47.957057
 21
14.98586
 31
0.0
  0
LINE
  5
172
330
1D
100
AcDbEntity
  8
型材断面
  6
Continuous
100
AcDbLine
 10
-12.143718
 20
55.14557
 30
0.0
 11
-14.477052
 21
55.14557
 31
0.0
  0
LINE
  5
173
330
1D
100
AcDbEntity
  8
型材断面
  6
Continuous
100
AcDbLine
 10
-12.143718
 20
55.14557
 30
0.0
 11
-12.143718
 21
14.98586
 31
0.0
  0
LINE
  5
174
330
1D
100
AcDbEntity
  8
型材断面
  6
Continuous
100
AcDbLine
 10
-12.143718
 20
14.98586
 30
0.0
 11
-14.477052
 21
14.98586
 31
0.0
  0
LINE
  5
175
330
1D
100
AcDbEntity
  8
型材断面
  6
Continuous
100
AcDbLine
 10
-14.477052
 20
55.14557
 30
0.0
 11
-14.477052
 21
14.98586
 31
0.0
  0
LINE
  5
176
330
1D
100
AcDbEntity
  8
型材断面
  6
Continuous
100
AcDbLine
 10
21.336283
 20
55.14557
 30
0.0
 11
19.002947
 21
55.14557
 31
0.0
  0
LINE
  5
177
330
1D
100
AcDbEntity
  8
型材断面
  6
Continuous
100
AcDbLine
 10
21.336283
 20
55.14557
 30
0.0
 11
21.336283
 21
14.98586
 31
0.0
  0
LINE
  5
178
330
1D
100
AcDbEntity
  8
型材断面
  6
Continuous
100
AcDbLine
 10
21.336283
 20
14.98586
 30
0.0
 11
19.002947
 21
14.98586
 31
0.0
  0
LINE
  5
179
330
1D
100
AcDbEntity
  8
型材断面
  6
Continuous
100
AcDbLine
 10
19.002947
 20
55.14557
 30
0.0
 11
19.002947
 21
14.98586
 31
0.0
  0
LINE
  5
17A
330
1D
100
AcDbEntity
  8
型材断面
  6
Continuous
 62
    14
100
AcDbLine
 10
145.652773
 20
59.89905
 30
0.0
 11
145.152773
 21
59.89905
 31
0.0
  0
LINE
  5
17B
330
1D
100
AcDbEntity
  8
型材断面
  6
Continuous
100
AcDbLine
 10
144.98611
 20
58.065715
 30
0.0
 11
145.152773
 21
59.89905
 31
0.0
  0
LINE
  5
17C
330
1D
100
AcDbEntity
  8
型材断面
  6
Continuous
100
AcDbLine
 10
145.152773
 20
59.89905
 30
0.0
 11
145.652773
 21
59.89905
 31
0.0
  0
LINE
  5
17D
330
1D
100
AcDbEntity
  8
型材断面
  6
Continuous
100
AcDbLine
 10
145.652773
 20
59.065715
 30
0.0
 11
145.98611
 21
59.065715
 31
0.0
  0
LINE
  5
17E
330
1D
100
AcDbEntity
  8
型材断面
  6
Continuous
 62
    14
100
AcDbLine
 10
145.652773
 20
10.23238
 30
0.0
 11
145.152773
 21
10.23238
 31
0.0
  0
LINE
  5
17F
330
1D
100
AcDbEntity
  8
型材断面
  6
Continuous
100
AcDbLine
 10
144.98611
 20
12.065712
 30
0.0
 11
145.152773
 21
10.23238
 31
0.0
  0
LINE
  5
180
330
1D
100
AcDbEntity
  8
型材断面
  6
Continuous
100
AcDbLine
 10
145.152773
 20
10.23238
 30
0.0
 11
145.652773
 21
10.23238
 31
0.0
  0
LINE
  5
181
330
1D
100
AcDbEntity
  8
型材断面
  6
Continuous
100
AcDbLine
 10
145.652773
 20
11.065712
 30
0.0
 11
145.98611
 21
11.065712
 31
0.0
  0
LINE
  5
182
330
1D
100
AcDbEntity
  8
型材断面
  6
Continuous
100
AcDbLine
 10
144.98611
 20
12.065712
 30
0.0
 11
144.98611
 21
58.065715
 31
0.0
  0
LINE
  5
183
330
1D
100
AcDbEntity
  8
型材断面
  6
Continuous
100
AcDbLine
 10
145.152773
 20
10.23238
 30
0.0
 11
145.152773
 21
59.89905
 31
0.0
  0
LINE
  5
184
330
1D
100
AcDbEntity
  8
型材断面
  6
Continuous
100
AcDbLine
 10
145.652773
 20
10.23238
 30
0.0
 11
145.652773
 21
59.89905
 31
0.0
  0
LINE
  5
185
330
1D
100
AcDbEntity
  8
型材断面
  6
Continuous
100
AcDbLine
 10
145.986105
 20
11.065712
 30
0.0
 11
145.986105
 21
59.065715
 31
0.0
  0
LWPOLYLINE
  5
186
330
1D
100
AcDbEntity
  8
型材断面
  6
Continuous
100
AcDbPolyline
 90
        3
 70
     0
 43
0.0
 10
143.302773
 20
12.065715
 10
143.16944
 20
12.199048
 10
143.01944
 20
12.199048
  0
LINE
  5
18B
330
1D
100
AcDbEntity
  8
型材断面
  6
Continuous
100
AcDbLine
 10
144.98611
 20
12.065712
 30
0.0
 11
143.302775
 21
12.065712
 31
0.0
  0
LINE
  5
18C
330
1D
100
AcDbEntity
  8
型材断面
  6
Continuous
100
AcDbLine
 10
143.01944
 20
11.915715
 30
0.0
 11
143.01944
 21
58.215715
 31
0.0
  0
LINE
  5
18D
330
1D
100
AcDbEntity
  8
型材断面
  6
Continuous
100
AcDbLine
 10
141.51944
 20
11.759193
 30
0.0
 11
141.51944
 21
58.372235
 31
0.0
  0
LINE
  5
18E
330
1D
100
AcDbEntity
  8
型材断面
  6
Continuous
100
AcDbLine
 10
141.35277
 20
58.272237
 30
0.0
 11
141.35277
 21
11.859193
 31
0.0
  0
LWPOLYLINE
  5
18F
330
1D
100
AcDbEntity
  8
型材断面
  6
Continuous
100
AcDbPolyline
 90
        3
 70
     0
 43
0.0
 10
143.302773
 20
58.065715
 10
143.16944
 20
57.93238
 10
143.01944
 20
57.93238
  0
LINE
  5
194
330
1D
100
AcDbEntity
  8
型材断面
  6
Continuous
100
AcDbLine
 10
144.98611
 20
58.065715
 30
0.0
 11
143.302775
 21
58.065715
 31
0.0
  0
LINE
  5
195
330
1D
100
AcDbEntity
  8
型材断面
  6
Continuous
100
AcDbLine
 10
143.16944
 20
57.93238
 30
0.0
 11
143.16944
 21
12.199048
 31
0.0
  0
LINE
  5
196
330
1D
100
AcDbEntity
  8
型材断面
  6
Continuous
100
AcDbLine
 10
143.302773
 20
12.065715
 30
0.0
 11
143.302773
 21
58.065715
 31
0.0
  0
LINE
  5
197
330
1D
100
AcDbEntity
  8
型材断面
  6
Continuous
 62
    14
100
AcDbLine
 10
56.449612
 20
-82.23858
 30
0.0
 11
56.449612
 21
-81.73858
 31
0.0
  0
LINE
  5
198
330
1D
100
AcDbEntity
  8
型材断面
  6
Continuous
100
AcDbLine
 10
54.616278
 20
-81.571918
 30
0.0
 11
56.449612
 21
-81.73858
 31
0.0
  0
LINE
  5
199
330
1D
100
AcDbEntity
  8
型材断面
  6
Continuous
100
AcDbLine
 10
56.449612
 20
-81.73858
 30
0.0
 11
56.449612
 21
-82.23858
 31
0.0
  0
LINE
  5
19A
330
1D
100
AcDbEntity
  8
型材断面
  6
Continuous
100
AcDbLine
 10
55.616278
 20
-82.23858
 30
0.0
 11
55.616278
 21
-82.571918
 31
0.0
  0
LWPOLYLINE
  5
19B
330
1D
100
AcDbEntity
  8
型材断面
  6
Continuous
100
AcDbPolyline
 90
        3
 70
     0
 43
0.0
 10
54.616278
 20
-79.88858000000001
 10
54.482942
 20
-79.755248
 10
54.482942
 20
-79.605248
  0
LINE
  5
1A0
330
1D
100
AcDbEntity
  8
型材断面
  6
Continuous
100
AcDbLine
 10
54.616278
 20
-81.571918
 30
0.0
 11
54.616278
 21
-79.888583
 31
0.0
  0
LINE
  5
1A1
330
1D
100
AcDbEntity
  8
型材断面
  6
Continuous
 62
    14
100
AcDbLine
 10
-116.550388
 20
-82.23858
 30
0.0
 11
-116.550388
 21
-81.73858
 31
0.0
  0
LINE
  5
1A2
330
1D
100
AcDbEntity
  8
型材断面
  6
Continuous
100
AcDbLine
 10
-114.717055
 20
-81.571918
 30
0.0
 11
-116.550388
 21
-81.73858
 31
0.0
  0
LINE
  5
1A3
330
1D
100
AcDbEntity
  8
型材断面
  6
Continuous
100
AcDbLine
 10
-116.550388
 20
-81.73858
 30
0.0
 11
-116.550388
 21
-82.23858
 31
0.0
  0
LINE
  5
1A4
330
1D
100
AcDbEntity
  8
型材断面
  6
Continuous
100
AcDbLine
 10
-115.717055
 20
-82.23858
 30
0.0
 11
-115.717055
 21
-82.571918
 31
0.0
  0
LINE
  5
1A5
330
1D
100
AcDbEntity
  8
型材断面
  6
Continuous
100
AcDbLine
 10
-114.717055
 20
-81.571918
 30
0.0
 11
54.616278
 21
-81.571918
 31
0.0
  0
LINE
  5
1A6
330
1D
100
AcDbEntity
  8
型材断面
  6
Continuous
100
AcDbLine
 10
-116.550388
 20
-81.73858
 30
0.0
 11
56.449612
 21
-81.73858
 31
0.0
  0
LINE
  5
1A7
330
1D
100
AcDbEntity
  8
型材断面
  6
Continuous
100
AcDbLine
 10
-116.550388
 20
-82.23858
 30
0.0
 11
56.449612
 21
-82.23858
 31
0.0
  0
LINE
  5
1A8
330
1D
100
AcDbEntity
  8
型材断面
  6
Continuous
100
AcDbLine
 10
-115.717055
 20
-82.571912
 30
0.0
 11
55.616278
 21
-82.571912
 31
0.0
  0
LWPOLYLINE
  5
1A9
330
1D
100
AcDbEntity
  8
型材断面
  6
Continuous
100
AcDbPolyline
 90
        3
 70
     0
 43
0.0
 10
-114.717053
 20
-79.88858000000001
 10
-114.58372
 20
-79.755248
 10
-114.58372
 20
-79.605248
  0
LINE
  5
1AE
330
1D
100
AcDbEntity
  8
型材断面
  6
Continuous
100
AcDbLine
 10
-114.717055
 20
-81.571918
 30
0.0
 11
-114.717055
 21
-79.888583
 31
0.0
  0
LINE
  5
1AF
330
1D
100
AcDbEntity
  8
型材断面
  6
Continuous
100
AcDbLine
 10
-114.867053
 20
-79.605248
 30
0.0
 11
54.766278
 21
-79.605248
 31
0.0
  0
LINE
  5
1B0
330
1D
100
AcDbEntity
  8
型材断面
  6
Continuous
100
AcDbLine
 10
-115.023575
 20
-78.105248
 30
0.0
 11
54.922797
 21
-78.105248
 31
0.0
  0
LINE
  5
1B1
330
1D
100
AcDbEntity
  8
型材断面
  6
Continuous
100
AcDbLine
 10
54.8228
 20
-77.938577
 30
0.0
 11
-114.923575
 21
-77.938577
 31
0.0
  0
LINE
  5
1B2
330
1D
100
AcDbEntity
  8
型材断面
  6
Continuous
100
AcDbLine
 10
54.482942
 20
-79.755248
 30
0.0
 11
-114.58372
 21
-79.755248
 31
0.0
  0
LINE
  5
1B3
330
1D
100
AcDbEntity
  8
型材断面
  6
Continuous
100
AcDbLine
 10
-114.717053
 20
-79.88858000000001
 30
0.0
 11
54.616278
 21
-79.88858000000001
 31
0.0
  0
TEXT
  5
1B4
330
1D
100
AcDbEntity
  8
文字
  6
Continuous
100
AcDbText
 10
-151.425
 20
98.84999999999999
 30
0.0
 40
3.0
  1
は排水穴位置を示す
  7
TextStyle03
 72
     5
 11
-121.425
 21
98.84999999999999
 31
0.0
100
AcDbText
  0
TEXT
  5
1B5
330
1D
100
AcDbEntity
  8
文字
  6
Continuous
100
AcDbText
 10
137.0
 20
-86.09999999999999
 30
0.0
 40
3.0
  1
網入り6.8t
  7
TextStyle03
 72
     5
 11
153.6875
 21
-86.09999999999999
 31
0.0
100
AcDbText
  0
TEXT
  5
1B6
330
1D
100
AcDbEntity
  8
文字
  6
Continuous
100
AcDbText
 10
143.675
 20
-90.77500000000001
 30
0.0
 40
3.0
  1
×５枚
  7
TextStyle03
 72
     5
 11
153.425
 21
-90.77500000000001
 31
0.0
100
AcDbText
  0
TEXT
  5
1B7
330
1D
100
AcDbEntity
  8
文字
  6
Continuous
100
AcDbText
 10
-150.925
 20
23.975
 30
0.0
 40
3.0
  1
アンカーピッチ
 50
90.0
  7
TextStyle03
 72
     5
 11
-150.925
 21
47.225
 31
0.0
100
AcDbText
  0
TEXT
  5
1B8
330
1D
100
AcDbEntity
  8
文字
  6
Continuous
100
AcDbText
 10
-102.65
 20
94.175
 30
0.0
 40
3.0
  1
アンカーピッチ
  7
TextStyle03
 72
     5
 11
-79.40000000000001
 21
94.175
 31
0.0
100
AcDbText
  0
TEXT
  5
1B9
330
1D
100
AcDbEntity
  8
文字
  6
Continuous
100
AcDbText
 10
-155.15
 20
93.15000000000001
 30
0.0
 40
3.0
  1
アンカー数量　１８ヶ所
  7
TextStyle03
 72
     5
 11
-118.4
 21
93.15000000000001
 31
0.0
100
AcDbText
  0
LINE
  5
1BA
330
1D
100
AcDbEntity
  8
文字
  6
Continuous
100
AcDbLine
 10
141.35277
 20
70.815898
 30
0.0
 11
141.35277
 21
59.603357
 31
0.0
  0
LINE
  5
1BB
330
1D
100
AcDbEntity
  8
文字
  6
Continuous
100
AcDbLine
 10
145.652773
 20
70.815898
 30
0.0
 11
145.652773
 21
60.897417
 31
0.0
  0
LINE
  5
1BC
330
1D
100
AcDbEntity
  8
文字
  6
Continuous
100
AcDbLine
 10
67.366462
 20
-77.93858
 30
0.0
 11
56.153923
 21
-77.93858
 31
0.0
  0
LINE
  5
1BD
330
1D
100
AcDbEntity
  8
文字
  6
Continuous
100
AcDbLine
 10
67.366462
 20
-82.23858
 30
0.0
 11
57.447985
 21
-82.23858
 31
0.0
  0
TEXT
  5
1BE
330
1D
100
AcDbEntity
  8
文字
  6
Continuous
100
AcDbText
 10
64.8
 20
125.25
 30
0.0
 40
5.0
  1
シリーズ：ＴＦＦＫＬ
  7
TextStyle03
 72
     5
 11
120.425
 21
125.25
 31
0.0
100
AcDbText
  0
TEXT
  5
1BF
330
1D
100
AcDbEntity
  8
文字
  6
Continuous
100
AcDbText
 10
64.8
 20
119.625
 30
0.0
 40
5.0
  1
　　　　　（固定）1300×5000タイプ
  7
TextStyle03
 72
     5
 11
159.8
 21
119.625
 31
0.0
100
AcDbText
  0
TEXT
  5
1C0
330
1D
100
AcDbEntity
  8
文字
  6
Continuous
100
AcDbText
 10
64.8
 20
114.0
 30
0.0
 40
5.0
  1
図面名　：外観姿図
  7
TextStyle03
 72
     5
 11
114.8
 21
114.0
 31
0.0
100
AcDbText
  0
TEXT
  5
1C1
330
1D
100
AcDbEntity
  8
文字
  6
Continuous
100
AcDbText
 10
64.8
 20
108.375
 30
0.0
 40
5.0
  1
　　　　　　
  7
TextStyle03
 72
     5
 11
97.925
 21
108.375
 31
0.0
100
AcDbText
  0
INSERT
  5
1C2
330
1D
100
AcDbEntity
  8
寸法
  6
Continuous
100
AcDbBlockReference
  2
*U1
 10
0.0
 20
0.0
 30
0.0
  0
INSERT
  5
1C3
330
1D
100
AcDbEntity
  8
寸法
  6
Continuous
100
AcDbBlockReference
  2
*U2
 10
0.0
 20
0.0
 30
0.0
  0
INSERT
  5
1C4
330
1D
100
AcDbEntity
  8
寸法
  6
Continuous
100
AcDbBlockReference
  2
*U3
 10
0.0
 20
0.0
 30
0.0
  0
INSERT
  5
1C5
330
1D
100
AcDbEntity
  8
寸法
  6
Continuous
100
AcDbBlockReference
  2
*U4
 10
0.0
 20
0.0
 30
0.0
  0
INSERT
  5
1C6
330
1D
100
AcDbEntity
  8
寸法
  6
Continuous
100
AcDbBlockReference
  2
*U5
 10
0.0
 20
0.0
 30
0.0
  0
INSERT
  5
1C7
330
1D
100
AcDbEntity
  8
寸法
  6
Continuous
100
AcDbBlockReference
  2
*U6
 10
0.0
 20
0.0
 30
0.0
  0
INSERT
  5
1C8
330
1D
100
AcDbEntity
  8
寸法
  6
Continuous
100
AcDbBlockReference
  2
*U7
 10
0.0
 20
0.0
 30
0.0
  0
INSERT
  5
1C9
330
1D
100
AcDbEntity
  8
寸法
  6
Continuous
100
AcDbBlockReference
  2
*U8
 10
0.0
 20
0.0
 30
0.0
  0
INSERT
  5
1CA
330
1D
100
AcDbEntity
  8
寸法
  6
Continuous
100
AcDbBlockReference
  2
*U9
 10
0.0
 20
0.0
 30
0.0
  0
INSERT
  5
1CB
330
1D
100
AcDbEntity
  8
寸法
  6
Continuous
100
AcDbBlockReference
  2
*U10
 10
0.0
 20
0.0
 30
0.0
  0
INSERT
  5
1CC
330
1D
100
AcDbEntity
  8
寸法
  6
Continuous
100
AcDbBlockReference
  2
*U11
 10
0.0
 20
0.0
 30
0.0
  0
INSERT
  5
1CD
330
1D
100
AcDbEntity
  8
寸法
  6
Continuous
100
AcDbBlockReference
  2
*U12
 10
0.0
 20
0.0
 30
0.0
  0
INSERT
  5
1CE
330
1D
100
AcDbEntity
  8
寸法
  6
Continuous
100
AcDbBlockReference
  2
*U13
 10
0.0
 20
0.0
 30
0.0
  0
INSERT
  5
1CF
330
1D
100
AcDbEntity
  8
寸法
  6
Continuous
100
AcDbBlockReference
  2
*U14
 10
0.0
 20
0.0
 30
0.0
  0
INSERT
  5
1D0
330
1D
100
AcDbEntity
  8
寸法
  6
Continuous
100
AcDbBlockReference
  2
*U15
 10
0.0
 20
0.0
 30
0.0
  0
INSERT
  5
1D1
330
1D
100
AcDbEntity
  8
寸法
  6
Continuous
100
AcDbBlockReference
  2
*U16
 10
0.0
 20
0.0
 30
0.0
  0
INSERT
  5
1D2
330
1D
100
AcDbEntity
  8
寸法
  6
Continuous
100
AcDbBlockReference
  2
*U17
 10
0.0
 20
0.0
 30
0.0
  0
INSERT
  5
1D3
330
1D
100
AcDbEntity
  8
寸法
  6
Continuous
100
AcDbBlockReference
  2
*U18
 10
0.0
 20
0.0
 30
0.0
  0
INSERT
  5
1D4
330
1D
100
AcDbEntity
  8
寸法
  6
Continuous
100
AcDbBlockReference
  2
*U19
 10
0.0
 20
0.0
 30
0.0
  0
LINE
  5
1D5
330
1D
100
AcDbEntity
  8
別途部材
  6
Continuous
 62
    47
100
AcDbLine
 10
141.45277
 20
11.759193
 30
0.0
 11
141.51944
 21
11.759193
 31
0.0
  0
ARC
  5
1D6
330
1D
100
AcDbEntity
  8
別途部材
  6
Continuous
 62
    47
100
AcDbCircle
 10
141.452772
 20
11.859192
 30
0.0
 40
0.1
100
AcDbArc
 50
180.0
 51
270.0
  0
LINE
  5
1D7
330
1D
100
AcDbEntity
  8
別途部材
  6
Continuous
 62
    47
100
AcDbLine
 10
141.51944
 20
11.915715
 30
0.0
 11
143.01944
 21
11.915715
 31
0.0
  0
LINE
  5
1D8
330
1D
100
AcDbEntity
  8
別途部材
  6
Continuous
 62
    47
100
AcDbLine
 10
141.45277
 20
58.372235
 30
0.0
 11
141.51944
 21
58.372235
 31
0.0
  0
ARC
  5
1D9
330
1D
100
AcDbEntity
  8
別途部材
  6
Continuous
 62
    47
100
AcDbCircle
 10
141.452772
 20
58.272235
 30
0.0
 40
0.1
100
AcDbArc
 50
90.0
 51
180.0
  0
LINE
  5
1DA
330
1D
100
AcDbEntity
  8
別途部材
  6
Continuous
 62
    47
100
AcDbLine
 10
141.51944
 20
58.215715
 30
0.0
 11
143.01944
 21
58.215715
 31
0.0
  0
LINE
  5
1DB
330
1D
100
AcDbEntity
  8
別途部材
  6
Continuous
 62
    47
100
AcDbLine
 10
54.922797
 20
-78.038577
 30
0.0
 11
54.922797
 21
-78.105248
 31
0.0
  0
ARC
  5
1DC
330
1D
100
AcDbEntity
  8
別途部材
  6
Continuous
 62
    47
100
AcDbCircle
 10
54.822798
 20
-78.038579
 30
0.0
 40
0.1
100
AcDbArc
 50
0.0
 51
90.0
  0
LINE
  5
1DD
330
1D
100
AcDbEntity
  8
別途部材
  6
Continuous
 62
    47
100
AcDbLine
 10
54.766278
 20
-78.105248
 30
0.0
 11
54.766278
 21
-79.605248
 31
0.0
  0
LINE
  5
1DE
330
1D
100
AcDbEntity
  8
別途部材
  6
Continuous
 62
    47
100
AcDbLine
 10
-115.023575
 20
-78.038577
 30
0.0
 11
-115.023575
 21
-78.105248
 31
0.0
  0
ARC
  5
1DF
330
1D
100
AcDbEntity
  8
別途部材
  6
Continuous
 62
    47
100
AcDbCircle
 10
-114.923576
 20
-78.038579
 30
0.0
 40
0.1
100
AcDbArc
 50
90.0
 51
180.0
  0
LINE
  5
1E0
330
1D
100
AcDbEntity
  8
別途部材
  6
Continuous
 62
    47
100
AcDbLine
 10
-114.867053
 20
-78.105248
 30
0.0
 11
-114.867053
 21
-79.605248
 31
0.0
  0
LINE
  5
1E1
330
1D
100
AcDbEntity
  8
曲げ物
  6
Continuous
100
AcDbLine
 10
155.537835
 20
-92.53371300000001
 30
0.0
 11
123.124503
 21
-92.53371300000001
 31
0.0
  0
LINE
  5
1E2
330
1D
100
AcDbEntity
  8
曲げ物
  6
Continuous
100
AcDbLine
 10
123.124503
 20
-92.53371300000001
 30
0.0
 11
123.124503
 21
-49.533713
 31
0.0
  0
LINE
  5
1E3
330
1D
100
AcDbEntity
  8
曲げ物
  6
Continuous
100
AcDbLine
 10
123.124503
 20
-49.533713
 30
0.0
 11
155.537835
 21
-49.533713
 31
0.0
  0
LINE
  5
1E4
330
1D
100
AcDbEntity
  8
曲げ物
  6
Continuous
100
AcDbLine
 10
155.537835
 20
-92.53371300000001
 30
0.0
 11
155.537835
 21
-49.533713
 31
0.0
  0
LINE
  5
1E5
330
1D
100
AcDbEntity
  8
曲げ物
  6
Continuous
100
AcDbLine
 10
-28.24763
 20
36.868472
 30
0.0
 11
-31.942943
 21
33.17316
 31
0.0
  0
LINE
  5
1E6
330
1D
100
AcDbEntity
  8
曲げ物
  6
Continuous
100
AcDbLine
 10
-28.9511
 20
35.332363
 30
0.0
 11
-30.40683
 21
33.876633
 31
0.0
  0
LINE
  5
1E7
330
1D
100
AcDbEntity
  8
曲げ物
  6
Continuous
100
AcDbLine
 10
-29.78374
 20
36.165003
 30
0.0
 11
-31.23947
 21
34.709273
 31
0.0
  0
LINE
  5
1E8
330
1D
100
AcDbEntity
  8
曲げ物
  6
Continuous
100
AcDbLine
 10
5.099045
 20
36.868472
 30
0.0
 11
1.403732
 21
33.17316
 31
0.0
  0
LINE
  5
1E9
330
1D
100
AcDbEntity
  8
曲げ物
  6
Continuous
100
AcDbLine
 10
4.395575
 20
35.332363
 30
0.0
 11
2.939845
 21
33.876633
 31
0.0
  0
LINE
  5
1EA
330
1D
100
AcDbEntity
  8
曲げ物
  6
Continuous
100
AcDbLine
 10
3.562935
 20
36.165003
 30
0.0
 11
2.107205
 21
34.709273
 31
0.0
  0
LINE
  5
1EB
330
1D
100
AcDbEntity
  8
曲げ物
  6
Continuous
100
AcDbLine
 10
38.479042
 20
36.868472
 30
0.0
 11
34.78373
 21
33.17316
 31
0.0
  0
LINE
  5
1EC
330
1D
100
AcDbEntity
  8
曲げ物
  6
Continuous
100
AcDbLine
 10
37.775573
 20
35.332363
 30
0.0
 11
36.319843
 21
33.876633
 31
0.0
  0
LINE
  5
1ED
330
1D
100
AcDbEntity
  8
曲げ物
  6
Continuous
100
AcDbLine
 10
36.942932
 20
36.165003
 30
0.0
 11
35.487203
 21
34.709273
 31
0.0
  0
LINE
  5
1EE
330
1D
100
AcDbEntity
  8
曲げ物
  6
Continuous
100
AcDbLine
 10
-94.97430199999999
 20
36.868472
 30
0.0
 11
-98.66961499999999
 21
33.17316
 31
0.0
  0
LINE
  5
1EF
330
1D
100
AcDbEntity
  8
曲げ物
  6
Continuous
100
AcDbLine
 10
-95.677772
 20
35.332363
 30
0.0
 11
-97.13350300000001
 21
33.876633
 31
0.0
  0
LINE
  5
1F0
330
1D
100
AcDbEntity
  8
曲げ物
  6
Continuous
100
AcDbLine
 10
-96.510412
 20
36.165003
 30
0.0
 11
-97.966143
 21
34.709273
 31
0.0
  0
LINE
  5
1F1
330
1D
100
AcDbEntity
  8
曲げ物
  6
Continuous
100
AcDbLine
 10
-61.627628
 20
36.868472
 30
0.0
 11
-65.32294
 21
33.17316
 31
0.0
  0
LINE
  5
1F2
330
1D
100
AcDbEntity
  8
曲げ物
  6
Continuous
100
AcDbLine
 10
-62.331098
 20
35.332363
 30
0.0
 11
-63.786827
 21
33.876633
 31
0.0
  0
LINE
  5
1F3
330
1D
100
AcDbEntity
  8
曲げ物
  6
Continuous
100
AcDbLine
 10
-63.163738
 20
36.165003
 30
0.0
 11
-64.619467
 21
34.709273
 31
0.0
  0
LINE
  5
1F4
330
1D
100
AcDbEntity
  8
曲げ物
  6
Continuous
100
AcDbLine
 10
-28.24763
 20
36.868472
 30
0.0
 11
-31.942943
 21
33.17316
 31
0.0
  0
LINE
  5
1F5
330
1D
100
AcDbEntity
  8
曲げ物
  6
Continuous
100
AcDbLine
 10
-28.9511
 20
35.332363
 30
0.0
 11
-30.40683
 21
33.876633
 31
0.0
  0
LINE
  5
1F6
330
1D
100
AcDbEntity
  8
曲げ物
  6
Continuous
100
AcDbLine
 10
-29.78374
 20
36.165003
 30
0.0
 11
-31.23947
 21
34.709273
 31
0.0
  0
ENDSEC
  0
SECTION
  2
OBJECTS
  0
DICTIONARY
  5
C
330
0
100
AcDbDictionary
281
     1
  3
ACAD_GROUP
350
D
  3
ACAD_LAYOUT
350
1A
  3
ACAD_MLINESTYLE
350
17
  3
ACAD_PLOTSETTINGS
350
19
  3
ACAD_PLOTSTYLENAME
350
E
  0
DICTIONARY
  5
D
102
{ACAD_REACTORS
330
C
102
}
330
C
100
AcDbDictionary
281
     1
  0
DICTIONARY
  5
1A
102
{ACAD_REACTORS
330
C
102
}
330
C
100
AcDbDictionary
281
     1
  3
Layout1
350
1C
  3
Model
350
1E
  0
DICTIONARY
  5
17
102
{ACAD_REACTORS
330
C
102
}
330
C
100
AcDbDictionary
281
     1
  3
Standard
350
18
  0
DICTIONARY
  5
19
102
{ACAD_REACTORS
330
C
102
}
330
C
100
AcDbDictionary
281
     1
  0
ACDBDICTIONARYWDFLT
  5
E
102
{ACAD_REACTORS
330
C
102
}
330
C
100
AcDbDictionary
281
     1
  3
Normal
350
F
100
AcDbDictionaryWithDefault
340
F
  0
LAYOUT
  5
1C
102
{ACAD_REACTORS
330
1A
102
}
330
1A
100
AcDbPlotSettings
  1

  2

  4

  6

 40
0.0
 41
0.0
 42
0.0
 43
0.0
 44
0.0
 45
0.0
 46
0.0
 47
0.0
 48
0.0
 49
0.0
140
0.0
141
0.0
142
1.0
143
1.0
 70
   688
 72
     0
 73
     0
 74
     5
  7

 75
    16
 76
     0
 77
     2
 78
   300
147
1.0
148
0.0
149
0.0
100
AcDbLayout
  1
Layout1
 70
     1
 71
     1
 10
0.0
 20
0.0
 11
12.0
 21
9.0
 12
0.0
 22
0.0
 32
0.0
 14
1.000000000000000E+20
 24
1.000000000000000E+20
 34
1.000000000000000E+20
 15
-1.000000000000000E+20
 25
-1.000000000000000E+20
 35
-1.000000000000000E+20
146
0.0
 13
0.0
 23
0.0
 33
0.0
 16
1.0
 26
0.0
 36
0.0
 17
0.0
 27
1.0
 37
0.0
 76
     0
330
1B
  0
LAYOUT
  5
1E
102
{ACAD_REACTORS
330
1A
102
}
330
1A
100
AcDbPlotSettings
  1

  2

  4

  6

 40
0.0
 41
0.0
 42
0.0
 43
0.0
 44
0.0
 45
0.0
 46
0.0
 47
0.0
 48
0.0
 49
0.0
140
0.0
141
0.0
142
1.0
143
1.0
 70
  1712
 72
     0
 73
     0
 74
     0
  7

 75
     0
 76
     0
 77
     2
 78
   300
147
1.0
148
0.0
149
0.0
100
AcDbLayout
  1
Model
 70
     1
 71
     0
 10
0.0
 20
0.0
 11
0.0
 21
0.0
 12
0.0
 22
0.0
 32
0.0
 14
-210.0
 24
-148.5
 34
0.0
 15
210.0
 25
148.5
 35
0.0
146
0.0
 13
0.0
 23
0.0
 33
0.0
 16
1.0
 26
0.0
 36
0.0
 17
0.0
 27
1.0
 37
0.0
 76
     0
330
1D
  0
MLINESTYLE
  5
18
102
{ACAD_REACTORS
330
17
102
}
330
17
100
AcDbMlineStyle
  2
Standard
 70
     0
  3

 62
   256
 51
90.0
 52
90.0
 71
     2
 49
0.5
 62
   256
  6
BYLAYER
 49
-0.5
 62
   256
  6
BYLAYER
  0
ACDBPLACEHOLDER
  5
F
102
{ACAD_REACTORS
330
E
102
}
330
E
  0
ENDSEC
  0
EOF
