  0
SECTION
  2
HEADER
  9
$ACADVER
  1
AC1018
  9
$ACADMAINTVER
 70
     0
  9
$DWGCODEPAGE
  3
ANSI_932
  9
$INSBASE
 10
0.0
 20
0.0
 30
0.0
  9
$EXTMIN
 10
-210.0
 20
-148.5
 30
0.0
  9
$EXTMAX
 10
210.0
 20
148.5
 30
0.0
  9
$LIMMIN
 10
0.0
 20
0.0
  9
$LIMMAX
 10
12.0
 20
9.0
  9
$ORTHOMODE
 70
     0
  9
$REGENMODE
 70
     1
  9
$FILLMODE
 70
     1
  9
$QTEXTMODE
 70
     0
  9
$MIRRTEXT
 70
     1
  9
$LTSCALE
 40
10.0
  9
$ATTMODE
 70
     1
  9
$TEXTSIZE
 40
0.2
  9
$TRACEWID
 40
0.05
  9
$TEXTSTYLE
  7
STANDARD
  9
$CLAYER
  8
0
  9
$CELTYPE
  6
ByBlock
  9
$CECOLOR
 62
   256
  9
$CELTSCALE
 40
1.0
  9
$DISPSILH
 70
     0
  9
$DIMSCALE
 40
1.0
  9
$DIMASZ
 40
0.18
  9
$DIMEXO
 40
0.0625
  9
$DIMDLI
 40
0.38
  9
$DIMRND
 40
0.0
  9
$DIMDLE
 40
0.0
  9
$DIMEXE
 40
0.18
  9
$DIMTP
 40
0.0
  9
$DIMTM
 40
0.0
  9
$DIMTXT
 40
0.18
  9
$DIMCEN
 40
0.09
  9
$DIMTSZ
 40
0.0
  9
$DIMTOL
 70
     0
  9
$DIMLIM
 70
     0
  9
$DIMTIH
 70
     1
  9
$DIMTOH
 70
     1
  9
$DIMSE1
 70
     0
  9
$DIMSE2
 70
     0
  9
$DIMTAD
 70
     0
  9
$DIMZIN
 70
     0
  9
$DIMBLK
  1

  9
$DIMASO
 70
     1
  9
$DIMSHO
 70
     1
  9
$DIMPOST
  1

  9
$DIMAPOST
  1

  9
$DIMALT
 70
     0
  9
$DIMALTD
 70
     2
  9
$DIMALTF
 40
25.4
  9
$DIMLFAC
 40
1.0
  9
$DIMTOFL
 70
     0
  9
$DIMTVP
 40
0.0
  9
$DIMTIX
 70
     0
  9
$DIMSOXD
 70
     0
  9
$DIMSAH
 70
     0
  9
$DIMBLK1
  1

  9
$DIMBLK2
  1

  9
$DIMSTYLE
  2
Standard
  9
$DIMCLRD
 70
     0
  9
$DIMCLRE
 70
     0
  9
$DIMCLRT
 70
     0
  9
$DIMTFAC
 40
1.0
  9
$DIMGAP
 40
0.09
  9
$DIMJUST
 70
     0
  9
$DIMSD1
 70
     0
  9
$DIMSD2
 70
     0
  9
$DIMTOLJ
 70
     1
  9
$DIMTZIN
 70
     0
  9
$DIMALTZ
 70
     0
  9
$DIMALTTZ
 70
     0
  9
$DIMUPT
 70
     0
  9
$DIMDEC
 70
     4
  9
$DIMTDEC
 70
     4
  9
$DIMALTU
 70
     2
  9
$DIMALTTD
 70
     2
  9
$DIMTXSTY
  7
STANDARD
  9
$DIMAUNIT
 70
     0
  9
$DIMADEC
 70
     0
  9
$DIMALTRND
 40
0.0
  9
$DIMAZIN
 70
     0
  9
$DIMDSEP
 70
    46
  9
$DIMATFIT
 70
     3
  9
$DIMFRAC
 70
     0
  9
$DIMLDRBLK
  1

  9
$DIMLUNIT
 70
     2
  9
$DIMLWD
 70
    -2
  9
$DIMLWE
 70
    -2
  9
$DIMTMOVE
 70
     0
  9
$LUNITS
 70
     2
  9
$LUPREC
 70
     4
  9
$SKETCHINC
 40
0.1
  9
$FILLETRAD
 40
0.5
  9
$AUNITS
 70
     0
  9
$AUPREC
 70
     0
  9
$MENU
  1
.
  9
$ELEVATION
 40
0.0
  9
$PELEVATION
 40
0.0
  9
$THICKNESS
 40
0.0
  9
$LIMCHECK
 70
     0
  9
$CHAMFERA
 40
0.5
  9
$CHAMFERB
 40
0.5
  9
$CHAMFERC
 40
1.0
  9
$CHAMFERD
 40
0.0
  9
$SKPOLY
 70
     0
  9
$TDCREATE
 40
2460242.412764977
  9
$TDUCREATE
 40
2460242.037764977
  9
$TDUPDATE
 40
2460242.412764988
  9
$TDUUPDATE
 40
2460242.037764988
  9
$TDINDWG
 40
0.0000000116
  9
$TDUSRTIMER
 40
0.0000000116
  9
$USRTIMER
 70
     1
  9
$ANGBASE
 50
0.0
  9
$ANGDIR
 70
     0
  9
$PDMODE
 70
    32
  9
$PDSIZE
 40
1.5
  9
$PLINEWID
 40
0.0
  9
$SPLFRAME
 70
     0
  9
$SPLINETYPE
 70
     6
  9
$SPLINESEGS
 70
     8
  9
$HANDSEED
  5
218
  9
$SURFTAB1
 70
     6
  9
$SURFTAB2
 70
     6
  9
$SURFTYPE
 70
     6
  9
$SURFU
 70
     6
  9
$SURFV
 70
     6
  9
$UCSBASE
  2

  9
$UCSNAME
  2

  9
$UCSORG
 10
0.0
 20
0.0
 30
0.0
  9
$UCSXDIR
 10
1.0
 20
0.0
 30
0.0
  9
$UCSYDIR
 10
0.0
 20
1.0
 30
0.0
  9
$UCSORTHOREF
  2

  9
$UCSORTHOVIEW
 70
     0
  9
$UCSORGTOP
 10
0.0
 20
0.0
 30
0.0
  9
$UCSORGBOTTOM
 10
0.0
 20
0.0
 30
0.0
  9
$UCSORGLEFT
 10
0.0
 20
0.0
 30
0.0
  9
$UCSORGRIGHT
 10
0.0
 20
0.0
 30
0.0
  9
$UCSORGFRONT
 10
0.0
 20
0.0
 30
0.0
  9
$UCSORGBACK
 10
0.0
 20
0.0
 30
0.0
  9
$PUCSBASE
  2

  9
$PUCSNAME
  2

  9
$PUCSORG
 10
0.0
 20
0.0
 30
0.0
  9
$PUCSXDIR
 10
1.0
 20
0.0
 30
0.0
  9
$PUCSYDIR
 10
0.0
 20
1.0
 30
0.0
  9
$PUCSORTHOREF
  2

  9
$PUCSORTHOVIEW
 70
     0
  9
$PUCSORGTOP
 10
0.0
 20
0.0
 30
0.0
  9
$PUCSORGBOTTOM
 10
0.0
 20
0.0
 30
0.0
  9
$PUCSORGLEFT
 10
0.0
 20
0.0
 30
0.0
  9
$PUCSORGRIGHT
 10
0.0
 20
0.0
 30
0.0
  9
$PUCSORGFRONT
 10
0.0
 20
0.0
 30
0.0
  9
$PUCSORGBACK
 10
0.0
 20
0.0
 30
0.0
  9
$USERI1
 70
     0
  9
$USERI2
 70
     0
  9
$USERI3
 70
     0
  9
$USERI4
 70
     0
  9
$USERI5
 70
     0
  9
$USERR1
 40
0.0
  9
$USERR2
 40
0.0
  9
$USERR3
 40
0.0
  9
$USERR4
 40
0.0
  9
$USERR5
 40
0.0
  9
$WORLDVIEW
 70
     1
  9
$SHADEDGE
 70
     3
  9
$SHADEDIF
 70
    70
  9
$TILEMODE
 70
     1
  9
$MAXACTVP
 70
    64
  9
$PINSBASE
 10
0.0
 20
0.0
 30
0.0
  9
$PLIMCHECK
 70
     0
  9
$PEXTMIN
 10
1.000000000000000E+20
 20
1.000000000000000E+20
 30
1.000000000000000E+20
  9
$PEXTMAX
 10
-1.000000000000000E+20
 20
-1.000000000000000E+20
 30
-1.000000000000000E+20
  9
$PLIMMIN
 10
0.0
 20
0.0
  9
$PLIMMAX
 10
12.0
 20
9.0
  9
$UNITMODE
 70
     0
  9
$VISRETAIN
 70
     1
  9
$PLINEGEN
 70
     0
  9
$PSLTSCALE
 70
     1
  9
$TREEDEPTH
 70
  3020
  9
$CMLSTYLE
  2
Standard
  9
$CMLJUST
 70
     0
  9
$CMLSCALE
 40
1.0
  9
$PROXYGRAPHICS
 70
     1
  9
$MEASUREMENT
 70
     0
  9
$CELWEIGHT
370
    -1
  9
$ENDCAPS
280
     0
  9
$JOINSTYLE
280
     0
  9
$LWDISPLAY
290
     0
  9
$INSUNITS
 70
     0
  9
$HYPERLINKBASE
  1

  9
$STYLESHEET
  1

  9
$XEDIT
290
     1
  9
$CEPSNTYPE
380
     0
  9
$PSTYLEMODE
290
     1
  9
$FINGERPRINTGUID
  2
{B2EF14B0-B779-41FC-9422-6AB52CBA5867}
  9
$VERSIONGUID
  2
{FAEB1C32-E019-11D5-929B-00C0DF256EC4}
  9
$EXTNAMES
290
     1
  9
$PSVPSCALE
 40
0.0
  9
$OLESTARTUP
290
     0
  9
$SORTENTS
280
   127
  9
$INDEXCTL
280
     0
  9
$HIDETEXT
280
     1
  9
$XCLIPFRAME
290
     0
  9
$HALOGAP
280
     0
  9
$OBSCOLOR
 70
   257
  9
$OBSLTYPE
280
     0
  9
$INTERSECTIONDISPLAY
280
     0
  9
$INTERSECTIONCOLOR
 70
   257
  9
$DIMASSOC
280
     2
  9
$PROJECTNAME
  1

  0
ENDSEC
  0
SECTION
  2
CLASSES
  0
CLASS
  1
ACDBDICTIONARYWDFLT
  2
AcDbDictionaryWithDefault
  3
ObjectDBX Classes
 90
        0
 91
        3
280
     0
281
     0
  0
ENDSEC
  0
SECTION
  2
TABLES
  0
TABLE
  2
VPORT
  5
8
330
0
100
AcDbSymbolTable
 70
     1
  0
VPORT
  5
213
330
8
100
AcDbSymbolTableRecord
100
AcDbViewportTableRecord
  2
*Active
 70
     0
 10
0.0
 20
0.0
 11
1.0
 21
1.0
 12
10.42990654205607
 22
4.5
 13
0.0
 23
0.0
 14
0.5
 24
0.5
 15
0.5
 25
0.5
 16
0.0
 26
0.0
 36
1.0
 17
0.0
 27
0.0
 37
0.0
 40
9.0
 41
1.972972972850329
 42
50.0
 43
0.0
 44
0.0
 50
0.0
 51
0.0
 71
     0
 72
   100
 73
     1
 74
     3
 75
     0
 76
     0
 77
     0
 78
     0
281
     0
 65
     1
110
0.0
120
0.0
130
0.0
111
1.0
121
0.0
131
0.0
112
0.0
122
1.0
132
0.0
 79
     0
146
0.0
  0
ENDTAB
  0
TABLE
  2
LTYPE
  5
5
330
0
100
AcDbSymbolTable
 70
     9
  0
LTYPE
  5
14
330
5
100
AcDbSymbolTableRecord
100
AcDbLinetypeTableRecord
  2
ByBlock
 70
     0
  3

 72
    65
 73
     0
 40
0.0
  0
LTYPE
  5
15
330
5
100
AcDbSymbolTableRecord
100
AcDbLinetypeTableRecord
  2
ByLayer
 70
     0
  3

 72
    65
 73
     0
 40
0.0
  0
LTYPE
  5
16
330
5
100
AcDbSymbolTableRecord
100
AcDbLinetypeTableRecord
  2
CONTINUOUS
 70
     0
  3
実線
 72
    65
 73
     0
 40
0.0
  0
LTYPE
  5
21
330
5
100
AcDbSymbolTableRecord
100
AcDbLinetypeTableRecord
  2
DASHED
 70
     0
  3
破線A
 72
    65
 73
     2
 40
0.6000000000000001
 49
0.4
 74
     0
 49
-0.2
 74
     0
  0
LTYPE
  5
22
330
5
100
AcDbSymbolTableRecord
100
AcDbLinetypeTableRecord
  2
DASHEDX2
 70
     0
  3
破線B
 72
    65
 73
     2
 40
1.3
 49
0.9
 74
     0
 49
-0.4
 74
     0
  0
LTYPE
  5
23
330
5
100
AcDbSymbolTableRecord
100
AcDbLinetypeTableRecord
  2
DASHDOT
 70
     0
  3
１点鎖線A
 72
    65
 73
     4
 40
0.5375
 49
0.375
 74
     0
 49
-0.05
 74
     0
 49
0.0625
 74
     0
 49
-0.05
 74
     0
  0
LTYPE
  5
24
330
5
100
AcDbSymbolTableRecord
100
AcDbLinetypeTableRecord
  2
DASHDOTX2
 70
     0
  3
１点鎖線B
 72
    65
 73
     4
 40
1.075
 49
0.75
 74
     0
 49
-0.1
 74
     0
 49
0.125
 74
     0
 49
-0.1
 74
     0
  0
LTYPE
  5
25
330
5
100
AcDbSymbolTableRecord
100
AcDbLinetypeTableRecord
  2
DIVIDE2
 70
     0
  3
２点鎖線A
 72
    65
 73
     6
 40
0.5125
 49
0.3
 74
     0
 49
-0.0375
 74
     0
 49
0.05
 74
     0
 49
-0.0375
 74
     0
 49
0.05
 74
     0
 49
-0.0375
 74
     0
  0
LTYPE
  5
26
330
5
100
AcDbSymbolTableRecord
100
AcDbLinetypeTableRecord
  2
DIVIDE
 70
     0
  3
２点鎖線B
 72
    65
 73
     6
 40
1.05
 49
0.55
 74
     0
 49
-0.1
 74
     0
 49
0.1
 74
     0
 49
-0.1
 74
     0
 49
0.1
 74
     0
 49
-0.1
 74
     0
  0
LTYPE
  5
27
330
5
100
AcDbSymbolTableRecord
100
AcDbLinetypeTableRecord
  2
DOT
 70
     0
  3
点線A
 72
    65
 73
     2
 40
0.1125
 49
0.0625
 74
     0
 49
-0.05
 74
     0
  0
LTYPE
  5
28
330
5
100
AcDbSymbolTableRecord
100
AcDbLinetypeTableRecord
  2
DOTX2
 70
     0
  3
点線B
 72
    65
 73
     2
 40
0.275
 49
0.15
 74
     0
 49
-0.125
 74
     0
  0
ENDTAB
  0
TABLE
  2
LAYER
  5
2
330
0
100
AcDbSymbolTable
 70
    34
  0
LAYER
  5
10
330
2
100
AcDbSymbolTableRecord
100
AcDbLayerTableRecord
  2
0
 70
     0
 62
    17
  6
CONTINUOUS
370
    -3
390
F
  0
LAYER
  5
2F
330
2
100
AcDbSymbolTableRecord
100
AcDbLayerTableRecord
  2
通り芯
 70
     0
 62
    15
  6
CONTINUOUS
370
    -3
390
F
  0
LAYER
  5
30
330
2
100
AcDbSymbolTableRecord
100
AcDbLayerTableRecord
  2
補助線
 70
     0
 62
    16
  6
DOT
370
    -3
390
F
  0
LAYER
  5
31
330
2
100
AcDbSymbolTableRecord
100
AcDbLayerTableRecord
  2
躯体
 70
     0
 62
    31
  6
CONTINUOUS
370
    -3
390
F
  0
LAYER
  5
32
330
2
100
AcDbSymbolTableRecord
100
AcDbLayerTableRecord
  2
型材
 70
     0
 62
    32
  6
CONTINUOUS
370
    -3
390
F
  0
LAYER
  5
33
330
2
100
AcDbSymbolTableRecord
100
AcDbLayerTableRecord
  2
型材断面
 70
     0
 62
    47
  6
CONTINUOUS
370
    -3
390
F
  0
LAYER
  5
34
330
2
100
AcDbSymbolTableRecord
100
AcDbLayerTableRecord
  2
ガラス
 70
     0
 62
    48
  6
CONTINUOUS
370
    -3
390
F
  0
LAYER
  5
35
330
2
100
AcDbSymbolTableRecord
100
AcDbLayerTableRecord
  2
ゴム等
 70
     0
 62
    63
  6
CONTINUOUS
370
    -3
390
F
  0
LAYER
  5
36
330
2
100
AcDbSymbolTableRecord
100
AcDbLayerTableRecord
  2
ボルト／ビス
 70
     0
 62
    64
  6
CONTINUOUS
370
    -3
390
F
  0
LAYER
  5
37
330
2
100
AcDbSymbolTableRecord
100
AcDbLayerTableRecord
  2
文字
 70
     0
 62
    79
  6
CONTINUOUS
370
    -3
390
F
  0
LAYER
  5
38
330
2
100
AcDbSymbolTableRecord
100
AcDbLayerTableRecord
  2
寸法
 70
     0
 62
    80
  6
CONTINUOUS
370
    -3
390
F
  0
LAYER
  5
39
330
2
100
AcDbSymbolTableRecord
100
AcDbLayerTableRecord
  2
ﾊｯﾁﾝｸﾞ
 70
     0
 62
    95
  6
CONTINUOUS
370
    -3
390
F
  0
LAYER
  5
3A
330
2
100
AcDbSymbolTableRecord
100
AcDbLayerTableRecord
  2
別途部材
 70
     0
 62
    96
  6
CONTINUOUS
370
    -3
390
F
  0
LAYER
  5
3B
330
2
100
AcDbSymbolTableRecord
100
AcDbLayerTableRecord
  2
曲げ物
 70
     0
 62
   111
  6
CONTINUOUS
370
    -3
390
F
  0
LAYER
  5
3C
330
2
100
AcDbSymbolTableRecord
100
AcDbLayerTableRecord
  2
鉄骨等
 70
     0
 62
   112
  6
CONTINUOUS
370
    -3
390
F
  0
LAYER
  5
3D
330
2
100
AcDbSymbolTableRecord
100
AcDbLayerTableRecord
  2
St
 70
     0
 62
   127
  6
CONTINUOUS
370
    -3
390
F
  0
LAYER
  5
3E
330
2
100
AcDbSymbolTableRecord
100
AcDbLayerTableRecord
  2
その他部品等
 70
     0
 62
   128
  6
CONTINUOUS
370
    -3
390
F
  0
LAYER
  5
3F
330
2
100
AcDbSymbolTableRecord
100
AcDbLayerTableRecord
  2
ｶﾞｽｹｯﾄ
 70
     0
 62
   143
  6
CONTINUOUS
370
    -3
390
F
  0
LAYER
  5
40
330
2
100
AcDbSymbolTableRecord
100
AcDbLayerTableRecord
  2
ｽｹｯﾁ
 70
     0
 62
    14
  6
CONTINUOUS
370
    -3
390
F
  0
LAYER
  5
42
330
2
100
AcDbSymbolTableRecord
100
AcDbLayerTableRecord
  2
1
 70
     0
 62
    30
  6
CONTINUOUS
370
    -3
390
F
  0
LAYER
  5
43
330
2
100
AcDbSymbolTableRecord
100
AcDbLayerTableRecord
  2
4
 70
     0
 62
    33
  6
CONTINUOUS
370
    -3
390
F
  0
LAYER
  5
44
330
2
100
AcDbSymbolTableRecord
100
AcDbLayerTableRecord
  2
ﾚｲﾔ3
 70
     0
 62
    46
  6
CONTINUOUS
370
    -3
390
F
  0
LAYER
  5
45
330
2
100
AcDbSymbolTableRecord
100
AcDbLayerTableRecord
  2
外形線
 70
     0
 62
    49
  6
CONTINUOUS
370
    -3
390
F
  0
LAYER
  5
46
330
2
100
AcDbSymbolTableRecord
100
AcDbLayerTableRecord
  2
部品
 70
     0
 62
    14
  6
CONTINUOUS
370
    -3
390
F
  0
LAYER
  5
47
330
2
100
AcDbSymbolTableRecord
100
AcDbLayerTableRecord
  2
サッシ芯
 70
     0
 62
    17
  6
DASHDOTX2
370
    -3
390
F
  0
LAYER
  5
48
330
2
100
AcDbSymbolTableRecord
100
AcDbLayerTableRecord
  2
寸法線
 70
     0
 62
    62
  6
CONTINUOUS
370
    -3
390
F
  0
LAYER
  5
49
330
2
100
AcDbSymbolTableRecord
100
AcDbLayerTableRecord
  2
姿図外形線
 70
     0
 62
    65
  6
CONTINUOUS
370
    -3
390
F
  0
LAYER
  5
4A
330
2
100
AcDbSymbolTableRecord
100
AcDbLayerTableRecord
  2
姿補助線
 70
     0
 62
    30
  6
CONTINUOUS
370
    -3
390
F
  0
LAYER
  5
4B
330
2
100
AcDbSymbolTableRecord
100
AcDbLayerTableRecord
  2
透視線
 70
     0
 62
    78
  6
DOT
370
    -3
390
F
  0
LAYER
  5
4C
330
2
100
AcDbSymbolTableRecord
100
AcDbLayerTableRecord
  2
用紙
 70
     0
 62
    81
  6
CONTINUOUS
370
    -3
390
F
  0
LAYER
  5
4D
330
2
100
AcDbSymbolTableRecord
100
AcDbLayerTableRecord
  2
実線図枠
 70
     0
 62
    94
  6
CONTINUOUS
370
    -3
390
F
  0
LAYER
  5
4E
330
2
100
AcDbSymbolTableRecord
100
AcDbLayerTableRecord
  2
補助図枠
 70
     0
 62
    97
  6
CONTINUOUS
370
    -3
390
F
  0
LAYER
  5
4F
330
2
100
AcDbSymbolTableRecord
100
AcDbLayerTableRecord
  2
建具記号
 70
     0
 62
   110
  6
CONTINUOUS
370
    -3
390
F
  0
LAYER
  5
50
330
2
100
AcDbSymbolTableRecord
100
AcDbLayerTableRecord
  2
補助文字
 70
     0
 62
   113
  6
CONTINUOUS
370
    -3
390
F
  0
ENDTAB
  0
TABLE
  2
STYLE
  5
3
330
0
100
AcDbSymbolTable
 70
    10
  0
STYLE
  5
11
330
3
100
AcDbSymbolTableRecord
100
AcDbTextStyleTableRecord
  2
STANDARD
 70
     0
 40
1.0
 41
1.0
 50
0.0
 71
     0
 42
1.0
  3
TXT
  4
BIGFONT
  0
STYLE
  5
52
330
3
100
AcDbSymbolTableRecord
100
AcDbTextStyleTableRecord
  2
TATE
 70
     4
 40
1.0
 41
1.0
 50
0.0
 71
     0
 42
1.0
  3
TXT
  4
BIGFONT
  0
STYLE
  5
53
330
3
100
AcDbSymbolTableRecord
100
AcDbTextStyleTableRecord
  2
TextStyle03
 70
     0
 40
1.0
 41
1.0
 50
0.0
 71
     0
 42
1.0
  3
MONOTXT
  4
BIGFONT
  0
STYLE
  5
54
330
3
100
AcDbSymbolTableRecord
100
AcDbTextStyleTableRecord
  2
TextStyle04
 70
     0
 40
1.0
 41
1.0
 50
0.0
 71
     0
 42
1.0
  3
MONOTXT
  4
BIGFONT
  0
STYLE
  5
55
330
3
100
AcDbSymbolTableRecord
100
AcDbTextStyleTableRecord
  2
TextStyle05
 70
     0
 40
1.0
 41
1.0
 50
0.0
 71
     0
 42
1.0
  3
MONOTXT
  4
BIGFONT
  0
STYLE
  5
56
330
3
100
AcDbSymbolTableRecord
100
AcDbTextStyleTableRecord
  2
TextStyle06
 70
     0
 40
1.0
 41
1.0
 50
0.0
 71
     0
 42
1.0
  3
MONOTXT
  4
BIGFONT
  0
STYLE
  5
57
330
3
100
AcDbSymbolTableRecord
100
AcDbTextStyleTableRecord
  2
TextStyle07
 70
     0
 40
1.0
 41
1.0
 50
0.0
 71
     0
 42
1.0
  3
MONOTXT
  4
BIGFONT
  0
STYLE
  5
58
330
3
100
AcDbSymbolTableRecord
100
AcDbTextStyleTableRecord
  2
TextStyle08
 70
     0
 40
1.0
 41
1.0
 50
0.0
 71
     0
 42
1.0
  3
MONOTXT
  4
BIGFONT
  0
STYLE
  5
59
330
3
100
AcDbSymbolTableRecord
100
AcDbTextStyleTableRecord
  2
TextStyle09
 70
     0
 40
1.0
 41
1.0
 50
0.0
 71
     0
 42
1.0
  3
MONOTXT
  4
BIGFONT
  0
STYLE
  5
5A
330
3
100
AcDbSymbolTableRecord
100
AcDbTextStyleTableRecord
  2
TextStyle10
 70
     0
 40
1.0
 41
1.0
 50
0.0
 71
     0
 42
1.0
  3
MONOTXT
  4
BIGFONT
  0
ENDTAB
  0
TABLE
  2
VIEW
  5
6
330
0
100
AcDbSymbolTable
 70
     0
  0
ENDTAB
  0
TABLE
  2
UCS
  5
7
330
0
100
AcDbSymbolTable
 70
     0
  0
ENDTAB
  0
TABLE
  2
APPID
  5
9
330
0
100
AcDbSymbolTable
 70
     1
  0
APPID
  5
12
330
9
100
AcDbSymbolTableRecord
100
AcDbRegAppTableRecord
  2
ACAD
 70
     0
  0
ENDTAB
  0
TABLE
  2
DIMSTYLE
  5
A
330
0
100
AcDbSymbolTable
 70
     1
100
AcDbDimStyleTable
  0
DIMSTYLE
105
5B
330
A
100
AcDbSymbolTableRecord
100
AcDbDimStyleTableRecord
  2
Standard
 70
     0
340
11
  0
ENDTAB
  0
TABLE
  2
BLOCK_RECORD
  5
1
330
0
100
AcDbSymbolTable
 70
    22
  0
BLOCK_RECORD
  5
1D
330
1
100
AcDbSymbolTableRecord
100
AcDbBlockTableRecord
  2
*Model_Space
340
1E
  0
BLOCK_RECORD
  5
1B
330
1
100
AcDbSymbolTableRecord
100
AcDbBlockTableRecord
  2
*Paper_Space
340
1C
  0
BLOCK_RECORD
  5
5D
330
1
100
AcDbSymbolTableRecord
100
AcDbBlockTableRecord
  2
*U0
340
0
102
{BLKREFS
331
10C
102
}
  0
BLOCK_RECORD
  5
66
330
1
100
AcDbSymbolTableRecord
100
AcDbBlockTableRecord
  2
*U1
340
0
102
{BLKREFS
331
1DC
102
}
  0
BLOCK_RECORD
  5
6F
330
1
100
AcDbSymbolTableRecord
100
AcDbBlockTableRecord
  2
*U2
340
0
102
{BLKREFS
331
1DD
102
}
  0
BLOCK_RECORD
  5
78
330
1
100
AcDbSymbolTableRecord
100
AcDbBlockTableRecord
  2
*U3
340
0
102
{BLKREFS
331
1DE
102
}
  0
BLOCK_RECORD
  5
7F
330
1
100
AcDbSymbolTableRecord
100
AcDbBlockTableRecord
  2
*U4
340
0
102
{BLKREFS
331
1DF
102
}
  0
BLOCK_RECORD
  5
86
330
1
100
AcDbSymbolTableRecord
100
AcDbBlockTableRecord
  2
*U5
340
0
102
{BLKREFS
331
1E0
102
}
  0
BLOCK_RECORD
  5
8F
330
1
100
AcDbSymbolTableRecord
100
AcDbBlockTableRecord
  2
*U6
340
0
102
{BLKREFS
331
1E1
102
}
  0
BLOCK_RECORD
  5
98
330
1
100
AcDbSymbolTableRecord
100
AcDbBlockTableRecord
  2
*U7
340
0
102
{BLKREFS
331
1E2
102
}
  0
BLOCK_RECORD
  5
9F
330
1
100
AcDbSymbolTableRecord
100
AcDbBlockTableRecord
  2
*U8
340
0
102
{BLKREFS
331
1E3
102
}
  0
BLOCK_RECORD
  5
A6
330
1
100
AcDbSymbolTableRecord
100
AcDbBlockTableRecord
  2
*U9
340
0
102
{BLKREFS
331
1E4
102
}
  0
BLOCK_RECORD
  5
AD
330
1
100
AcDbSymbolTableRecord
100
AcDbBlockTableRecord
  2
*U10
340
0
102
{BLKREFS
331
1E5
102
}
  0
BLOCK_RECORD
  5
B4
330
1
100
AcDbSymbolTableRecord
100
AcDbBlockTableRecord
  2
*U11
340
0
102
{BLKREFS
331
1E6
102
}
  0
BLOCK_RECORD
  5
BB
330
1
100
AcDbSymbolTableRecord
100
AcDbBlockTableRecord
  2
*U12
340
0
102
{BLKREFS
331
1E7
102
}
  0
BLOCK_RECORD
  5
C2
330
1
100
AcDbSymbolTableRecord
100
AcDbBlockTableRecord
  2
*U13
340
0
102
{BLKREFS
331
1E8
102
}
  0
BLOCK_RECORD
  5
C9
330
1
100
AcDbSymbolTableRecord
100
AcDbBlockTableRecord
  2
*U14
340
0
102
{BLKREFS
331
1E9
102
}
  0
BLOCK_RECORD
  5
D1
330
1
100
AcDbSymbolTableRecord
100
AcDbBlockTableRecord
  2
*U15
340
0
102
{BLKREFS
331
1EA
102
}
  0
BLOCK_RECORD
  5
D9
330
1
100
AcDbSymbolTableRecord
100
AcDbBlockTableRecord
  2
*U16
340
0
102
{BLKREFS
331
1EB
102
}
  0
BLOCK_RECORD
  5
E1
330
1
100
AcDbSymbolTableRecord
100
AcDbBlockTableRecord
  2
*U17
340
0
102
{BLKREFS
331
1EC
102
}
  0
BLOCK_RECORD
  5
E9
330
1
100
AcDbSymbolTableRecord
100
AcDbBlockTableRecord
  2
*U18
340
0
102
{BLKREFS
331
1ED
102
}
  0
BLOCK_RECORD
  5
F2
330
1
100
AcDbSymbolTableRecord
100
AcDbBlockTableRecord
  2
*U19
340
0
102
{BLKREFS
331
1EE
102
}
  0
BLOCK_RECORD
  5
F9
330
1
100
AcDbSymbolTableRecord
100
AcDbBlockTableRecord
  2
*U20
340
0
102
{BLKREFS
331
1EF
102
}
  0
BLOCK_RECORD
  5
100
330
1
100
AcDbSymbolTableRecord
100
AcDbBlockTableRecord
  2
*U21
340
0
102
{BLKREFS
331
1F0
102
}
  0
ENDTAB
  0
ENDSEC
  0
SECTION
  2
BLOCKS
  0
BLOCK
  5
214
330
1D
100
AcDbEntity
  8
0
100
AcDbBlockBegin
  2
*Model_Space
 70
     0
 71
     0
 10
0.0
 20
0.0
 30
0.0
  3
*Model_Space
  1

  0
ENDBLK
  5
215
330
1D
100
AcDbEntity
  8
0
100
AcDbBlockEnd
  0
BLOCK
  5
216
330
1B
100
AcDbEntity
 67
     1
  8
0
100
AcDbBlockBegin
  2
*Paper_Space
 70
     0
 71
     0
 10
0.0
 20
0.0
 30
0.0
  3
*Paper_Space
  1

  0
ENDBLK
  5
217
330
1B
100
AcDbEntity
 67
     1
  8
0
100
AcDbBlockEnd
  0
BLOCK
  5
5C
330
5D
100
AcDbEntity
  8
0
100
AcDbBlockBegin
  2
*U0
 70
     1
 71
     0
 10
0.0
 20
0.0
 30
0.0
  3
*U0
  1

  0
LINE
  5
5E
330
5D
100
AcDbEntity
  8
型材断面
  6
Continuous
100
AcDbLine
 10
195.0
 20
133.5
 30
0.0
 11
195.0
 21
-133.5
 31
0.0
  0
LINE
  5
5F
330
5D
100
AcDbEntity
  8
型材断面
  6
Continuous
100
AcDbLine
 10
195.0
 20
-133.5
 30
0.0
 11
-185.0
 21
-133.5
 31
0.0
  0
LINE
  5
60
330
5D
100
AcDbEntity
  8
型材断面
  6
Continuous
100
AcDbLine
 10
-185.0
 20
-133.5
 30
0.0
 11
-185.0
 21
133.5
 31
0.0
  0
LINE
  5
61
330
5D
100
AcDbEntity
  8
型材断面
  6
Continuous
100
AcDbLine
 10
195.0
 20
133.5
 30
0.0
 11
-185.0
 21
133.5
 31
0.0
  0
LINE
  5
62
330
5D
100
AcDbEntity
  8
型材断面
  6
Continuous
100
AcDbLine
 10
145.0
 20
-133.5
 30
0.0
 11
145.0
 21
-118.5
 31
0.0
  0
LINE
  5
63
330
5D
100
AcDbEntity
  8
型材断面
  6
Continuous
100
AcDbLine
 10
195.0
 20
-118.5
 30
0.0
 11
145.0
 21
-118.5
 31
0.0
  0
ENDBLK
  5
64
330
5D
100
AcDbEntity
  8
0
100
AcDbBlockEnd
  0
BLOCK
  5
65
330
66
100
AcDbEntity
  8
0
100
AcDbBlockBegin
  2
*U1
 70
     1
 71
     0
 10
0.0
 20
0.0
 30
0.0
  3
*U1
  1

  0
LINE
  5
67
330
66
100
AcDbEntity
  8
寸法
  6
ByBlock
 62
     0
100
AcDbLine
 10
-128.742993
 20
-22.207025
 30
0.0
 11
-128.742993
 21
-22.536362
 31
0.0
  0
LINE
  5
68
330
66
100
AcDbEntity
  8
寸法
  6
ByBlock
 62
     0
100
AcDbLine
 10
71.257007
 20
-22.207025
 30
0.0
 11
71.257007
 21
-22.536362
 31
0.0
  0
LINE
  5
69
330
66
100
AcDbEntity
  8
寸法
  6
ByBlock
 62
     0
100
AcDbLine
 10
-128.742993
 20
-22.536362
 30
0.0
 11
71.257007
 21
-22.536362
 31
0.0
  0
POINT
  5
6A
330
66
100
AcDbEntity
  8
寸法
 62
     0
100
AcDbPoint
 10
-128.742993
 20
-22.536362
 30
0.0
  0
POINT
  5
6B
330
66
100
AcDbEntity
  8
寸法
 62
     0
100
AcDbPoint
 10
71.257007
 20
-22.536362
 30
0.0
  0
TEXT
  5
6C
330
66
100
AcDbEntity
  8
寸法
  6
Continuous
 62
     0
100
AcDbText
 10
-40.46875
 20
-22.175
 30
0.0
 40
3.0
  1
呼称寸法　6000
  7
TextStyle03
 72
     5
 11
-17.03125
 21
-22.175
 31
0.0
100
AcDbText
  0
ENDBLK
  5
6D
330
66
100
AcDbEntity
  8
0
100
AcDbBlockEnd
  0
BLOCK
  5
6E
330
6F
100
AcDbEntity
  8
0
100
AcDbBlockBegin
  2
*U2
 70
     1
 71
     0
 10
0.0
 20
0.0
 30
0.0
  3
*U2
  1

  0
LINE
  5
70
330
6F
100
AcDbEntity
  8
寸法
  6
ByBlock
 62
     0
100
AcDbLine
 10
-112.076325
 20
9.76892
 30
0.0
 11
-112.076325
 21
4.684867
 31
0.0
  0
LINE
  5
71
330
6F
100
AcDbEntity
  8
寸法
  6
ByBlock
 62
     0
100
AcDbLine
 10
-28.742993
 20
9.76892
 30
0.0
 11
-28.742993
 21
4.684867
 31
0.0
  0
LINE
  5
72
330
6F
100
AcDbEntity
  8
寸法
  6
ByBlock
 62
     0
100
AcDbLine
 10
-112.076325
 20
4.684867
 30
0.0
 11
-28.742993
 21
4.684867
 31
0.0
  0
POINT
  5
73
330
6F
100
AcDbEntity
  8
寸法
 62
     0
100
AcDbPoint
 10
-112.076325
 20
4.684867
 30
0.0
  0
POINT
  5
74
330
6F
100
AcDbEntity
  8
寸法
 62
     0
100
AcDbPoint
 10
-28.742993
 20
4.684867
 30
0.0
  0
TEXT
  5
75
330
6F
100
AcDbEntity
  8
寸法
  6
Continuous
 62
     0
100
AcDbText
 10
-73.70625
 20
5.05
 30
0.0
 40
3.0
  1
2500
  7
TextStyle03
 72
     5
 11
-67.14375
 21
5.05
 31
0.0
100
AcDbText
  0
ENDBLK
  5
76
330
6F
100
AcDbEntity
  8
0
100
AcDbBlockEnd
  0
BLOCK
  5
77
330
78
100
AcDbEntity
  8
0
100
AcDbBlockBegin
  2
*U3
 70
     1
 71
     0
 10
0.0
 20
0.0
 30
0.0
  3
*U3
  1

  0
LINE
  5
79
330
78
100
AcDbEntity
  8
寸法
  6
ByBlock
 62
     0
100
AcDbLine
 10
54.59034
 20
9.76892
 30
0.0
 11
54.59034
 21
4.684867
 31
0.0
  0
LINE
  5
7A
330
78
100
AcDbEntity
  8
寸法
  6
ByBlock
 62
     0
100
AcDbLine
 10
-28.742993
 20
4.684867
 30
0.0
 11
54.59034
 21
4.684867
 31
0.0
  0
POINT
  5
7B
330
78
100
AcDbEntity
  8
寸法
 62
     0
100
AcDbPoint
 10
54.59034
 20
4.684867
 30
0.0
  0
TEXT
  5
7C
330
78
100
AcDbEntity
  8
寸法
  6
Continuous
 62
     0
100
AcDbText
 10
9.61875
 20
5.05
 30
0.0
 40
3.0
  1
2500
  7
TextStyle03
 72
     5
 11
16.18125
 21
5.05
 31
0.0
100
AcDbText
  0
ENDBLK
  5
7D
330
78
100
AcDbEntity
  8
0
100
AcDbBlockEnd
  0
BLOCK
  5
7E
330
7F
100
AcDbEntity
  8
0
100
AcDbBlockBegin
  2
*U4
 70
     1
 71
     0
 10
0.0
 20
0.0
 30
0.0
  3
*U4
  1

  0
LINE
  5
80
330
7F
100
AcDbEntity
  8
寸法
  6
ByBlock
 62
     0
100
AcDbLine
 10
105.276657
 20
13.399048
 30
0.0
 11
105.276657
 21
56.73238
 31
0.0
  0
POINT
  5
81
330
7F
100
AcDbEntity
  8
寸法
 62
     0
100
AcDbPoint
 10
105.276657
 20
13.399048
 30
0.0
  0
POINT
  5
82
330
7F
100
AcDbEntity
  8
寸法
 62
     0
100
AcDbPoint
 10
105.276657
 20
56.73238
 30
0.0
  0
TEXT
  5
83
330
7F
100
AcDbEntity
  8
寸法
  6
Continuous
 62
     0
100
AcDbText
 10
104.9
 20
23.33125
 30
0.0
 40
3.0
  1
呼称寸法　1300
 50
90.0
  7
TextStyle03
 72
     5
 11
104.9
 21
46.76875
 31
0.0
100
AcDbText
  0
ENDBLK
  5
84
330
7F
100
AcDbEntity
  8
0
100
AcDbBlockEnd
  0
BLOCK
  5
85
330
86
100
AcDbEntity
  8
0
100
AcDbBlockBegin
  2
*U5
 70
     1
 71
     0
 10
0.0
 20
0.0
 30
0.0
  3
*U5
  1

  0
LINE
  5
87
330
86
100
AcDbEntity
  8
寸法
  6
ByBlock
 62
     0
100
AcDbLine
 10
-131.742993
 20
23.399048
 30
0.0
 11
-160.688158
 21
23.399048
 31
0.0
  0
LINE
  5
88
330
86
100
AcDbEntity
  8
寸法
  6
ByBlock
 62
     0
100
AcDbLine
 10
-131.742993
 20
46.732382
 30
0.0
 11
-160.688158
 21
46.732382
 31
0.0
  0
LINE
  5
89
330
86
100
AcDbEntity
  8
寸法
  6
ByBlock
 62
     0
100
AcDbLine
 10
-160.688158
 20
23.399048
 30
0.0
 11
-160.688158
 21
46.732382
 31
0.0
  0
POINT
  5
8A
330
86
100
AcDbEntity
  8
寸法
 62
     0
100
AcDbPoint
 10
-160.688158
 20
23.399048
 30
0.0
  0
POINT
  5
8B
330
86
100
AcDbEntity
  8
寸法
 62
     0
100
AcDbPoint
 10
-160.688158
 20
46.732382
 30
0.0
  0
TEXT
  5
8C
330
86
100
AcDbEntity
  8
寸法
  6
Continuous
 62
     0
100
AcDbText
 10
-161.075
 20
32.6125
 30
0.0
 40
3.0
  1
700
 50
90.0
  7
TextStyle03
 72
     5
 11
-161.075
 21
37.4875
 31
0.0
100
AcDbText
  0
ENDBLK
  5
8D
330
86
100
AcDbEntity
  8
0
100
AcDbBlockEnd
  0
BLOCK
  5
8E
330
8F
100
AcDbEntity
  8
0
100
AcDbBlockBegin
  2
*U6
 70
     1
 71
     0
 10
0.0
 20
0.0
 30
0.0
  3
*U6
  1

  0
LINE
  5
90
330
8F
100
AcDbEntity
  8
寸法
  6
ByBlock
 62
     0
100
AcDbLine
 10
-122.076325
 20
59.73238
 30
0.0
 11
-122.076325
 21
88.840452
 31
0.0
  0
LINE
  5
91
330
8F
100
AcDbEntity
  8
寸法
  6
ByBlock
 62
     0
100
AcDbLine
 10
-98.742993
 20
59.73238
 30
0.0
 11
-98.742993
 21
88.840452
 31
0.0
  0
LINE
  5
92
330
8F
100
AcDbEntity
  8
寸法
  6
ByBlock
 62
     0
100
AcDbLine
 10
-122.076325
 20
88.840452
 30
0.0
 11
-98.742993
 21
88.840452
 31
0.0
  0
POINT
  5
93
330
8F
100
AcDbEntity
  8
寸法
 62
     0
100
AcDbPoint
 10
-122.076325
 20
88.840452
 30
0.0
  0
POINT
  5
94
330
8F
100
AcDbEntity
  8
寸法
 62
     0
100
AcDbPoint
 10
-98.742993
 20
88.840452
 30
0.0
  0
TEXT
  5
95
330
8F
100
AcDbEntity
  8
寸法
  6
Continuous
 62
     0
100
AcDbText
 10
-112.8625
 20
89.2
 30
0.0
 40
3.0
  1
700
  7
TextStyle03
 72
     5
 11
-107.9875
 21
89.2
 31
0.0
100
AcDbText
  0
ENDBLK
  5
96
330
8F
100
AcDbEntity
  8
0
100
AcDbBlockEnd
  0
BLOCK
  5
97
330
98
100
AcDbEntity
  8
0
100
AcDbBlockBegin
  2
*U7
 70
     1
 71
     0
 10
0.0
 20
0.0
 30
0.0
  3
*U7
  1

  0
LINE
  5
99
330
98
100
AcDbEntity
  8
寸法
  6
ByBlock
 62
     0
100
AcDbLine
 10
-75.40966
 20
59.73238
 30
0.0
 11
-75.40966
 21
88.840452
 31
0.0
  0
LINE
  5
9A
330
98
100
AcDbEntity
  8
寸法
  6
ByBlock
 62
     0
100
AcDbLine
 10
-98.742993
 20
88.840452
 30
0.0
 11
-75.40966
 21
88.840452
 31
0.0
  0
POINT
  5
9B
330
98
100
AcDbEntity
  8
寸法
 62
     0
100
AcDbPoint
 10
-75.40966
 20
88.840452
 30
0.0
  0
TEXT
  5
9C
330
98
100
AcDbEntity
  8
寸法
  6
Continuous
 62
     0
100
AcDbText
 10
-89.53749999999999
 20
89.2
 30
0.0
 40
3.0
  1
700
  7
TextStyle03
 72
     5
 11
-84.66249999999999
 21
89.2
 31
0.0
100
AcDbText
  0
ENDBLK
  5
9D
330
98
100
AcDbEntity
  8
0
100
AcDbBlockEnd
  0
BLOCK
  5
9E
330
9F
100
AcDbEntity
  8
0
100
AcDbBlockBegin
  2
*U8
 70
     1
 71
     0
 10
0.0
 20
0.0
 30
0.0
  3
*U8
  1

  0
LINE
  5
A0
330
9F
100
AcDbEntity
  8
寸法
  6
ByBlock
 62
     0
100
AcDbLine
 10
-52.076325
 20
59.73238
 30
0.0
 11
-52.076325
 21
88.840452
 31
0.0
  0
LINE
  5
A1
330
9F
100
AcDbEntity
  8
寸法
  6
ByBlock
 62
     0
100
AcDbLine
 10
-75.40966
 20
88.840452
 30
0.0
 11
-52.076325
 21
88.840452
 31
0.0
  0
POINT
  5
A2
330
9F
100
AcDbEntity
  8
寸法
 62
     0
100
AcDbPoint
 10
-52.076325
 20
88.840452
 30
0.0
  0
TEXT
  5
A3
330
9F
100
AcDbEntity
  8
寸法
  6
Continuous
 62
     0
100
AcDbText
 10
-66.1875
 20
89.2
 30
0.0
 40
3.0
  1
700
  7
TextStyle03
 72
     5
 11
-61.3125
 21
89.2
 31
0.0
100
AcDbText
  0
ENDBLK
  5
A4
330
9F
100
AcDbEntity
  8
0
100
AcDbBlockEnd
  0
BLOCK
  5
A5
330
A6
100
AcDbEntity
  8
0
100
AcDbBlockBegin
  2
*U9
 70
     1
 71
     0
 10
0.0
 20
0.0
 30
0.0
  3
*U9
  1

  0
LINE
  5
A7
330
A6
100
AcDbEntity
  8
寸法
  6
ByBlock
 62
     0
100
AcDbLine
 10
-28.742993
 20
59.73238
 30
0.0
 11
-28.742993
 21
88.840452
 31
0.0
  0
LINE
  5
A8
330
A6
100
AcDbEntity
  8
寸法
  6
ByBlock
 62
     0
100
AcDbLine
 10
-52.076325
 20
88.840452
 30
0.0
 11
-28.742993
 21
88.840452
 31
0.0
  0
POINT
  5
A9
330
A6
100
AcDbEntity
  8
寸法
 62
     0
100
AcDbPoint
 10
-28.742993
 20
88.840452
 30
0.0
  0
TEXT
  5
AA
330
A6
100
AcDbEntity
  8
寸法
  6
Continuous
 62
     0
100
AcDbText
 10
-42.8625
 20
89.2
 30
0.0
 40
3.0
  1
700
  7
TextStyle03
 72
     5
 11
-37.9875
 21
89.2
 31
0.0
100
AcDbText
  0
ENDBLK
  5
AB
330
A6
100
AcDbEntity
  8
0
100
AcDbBlockEnd
  0
BLOCK
  5
AC
330
AD
100
AcDbEntity
  8
0
100
AcDbBlockBegin
  2
*U10
 70
     1
 71
     0
 10
0.0
 20
0.0
 30
0.0
  3
*U10
  1

  0
LINE
  5
AE
330
AD
100
AcDbEntity
  8
寸法
  6
ByBlock
 62
     0
100
AcDbLine
 10
-5.40966
 20
59.73238
 30
0.0
 11
-5.40966
 21
88.840452
 31
0.0
  0
LINE
  5
AF
330
AD
100
AcDbEntity
  8
寸法
  6
ByBlock
 62
     0
100
AcDbLine
 10
-28.742993
 20
88.840452
 30
0.0
 11
-5.40966
 21
88.840452
 31
0.0
  0
POINT
  5
B0
330
AD
100
AcDbEntity
  8
寸法
 62
     0
100
AcDbPoint
 10
-5.40966
 20
88.840452
 30
0.0
  0
TEXT
  5
B1
330
AD
100
AcDbEntity
  8
寸法
  6
Continuous
 62
     0
100
AcDbText
 10
-19.5375
 20
89.2
 30
0.0
 40
3.0
  1
700
  7
TextStyle03
 72
     5
 11
-14.6625
 21
89.2
 31
0.0
100
AcDbText
  0
ENDBLK
  5
B2
330
AD
100
AcDbEntity
  8
0
100
AcDbBlockEnd
  0
BLOCK
  5
B3
330
B4
100
AcDbEntity
  8
0
100
AcDbBlockBegin
  2
*U11
 70
     1
 71
     0
 10
0.0
 20
0.0
 30
0.0
  3
*U11
  1

  0
LINE
  5
B5
330
B4
100
AcDbEntity
  8
寸法
  6
ByBlock
 62
     0
100
AcDbLine
 10
17.923675
 20
59.73238
 30
0.0
 11
17.923675
 21
88.840452
 31
0.0
  0
LINE
  5
B6
330
B4
100
AcDbEntity
  8
寸法
  6
ByBlock
 62
     0
100
AcDbLine
 10
-5.40966
 20
88.840452
 30
0.0
 11
17.923675
 21
88.840452
 31
0.0
  0
POINT
  5
B7
330
B4
100
AcDbEntity
  8
寸法
 62
     0
100
AcDbPoint
 10
17.923675
 20
88.840452
 30
0.0
  0
TEXT
  5
B8
330
B4
100
AcDbEntity
  8
寸法
  6
Continuous
 62
     0
100
AcDbText
 10
3.8125
 20
89.2
 30
0.0
 40
3.0
  1
700
  7
TextStyle03
 72
     5
 11
8.6875
 21
89.2
 31
0.0
100
AcDbText
  0
ENDBLK
  5
B9
330
B4
100
AcDbEntity
  8
0
100
AcDbBlockEnd
  0
BLOCK
  5
BA
330
BB
100
AcDbEntity
  8
0
100
AcDbBlockBegin
  2
*U12
 70
     1
 71
     0
 10
0.0
 20
0.0
 30
0.0
  3
*U12
  1

  0
LINE
  5
BC
330
BB
100
AcDbEntity
  8
寸法
  6
ByBlock
 62
     0
100
AcDbLine
 10
41.257007
 20
59.73238
 30
0.0
 11
41.257007
 21
88.840452
 31
0.0
  0
LINE
  5
BD
330
BB
100
AcDbEntity
  8
寸法
  6
ByBlock
 62
     0
100
AcDbLine
 10
17.923675
 20
88.840452
 30
0.0
 11
41.257007
 21
88.840452
 31
0.0
  0
POINT
  5
BE
330
BB
100
AcDbEntity
  8
寸法
 62
     0
100
AcDbPoint
 10
41.257007
 20
88.840452
 30
0.0
  0
TEXT
  5
BF
330
BB
100
AcDbEntity
  8
寸法
  6
Continuous
 62
     0
100
AcDbText
 10
27.1375
 20
89.2
 30
0.0
 40
3.0
  1
700
  7
TextStyle03
 72
     5
 11
32.0125
 21
89.2
 31
0.0
100
AcDbText
  0
ENDBLK
  5
C0
330
BB
100
AcDbEntity
  8
0
100
AcDbBlockEnd
  0
BLOCK
  5
C1
330
C2
100
AcDbEntity
  8
0
100
AcDbBlockBegin
  2
*U13
 70
     1
 71
     0
 10
0.0
 20
0.0
 30
0.0
  3
*U13
  1

  0
LINE
  5
C3
330
C2
100
AcDbEntity
  8
寸法
  6
ByBlock
 62
     0
100
AcDbLine
 10
64.59034
 20
59.73238
 30
0.0
 11
64.59034
 21
88.840452
 31
0.0
  0
LINE
  5
C4
330
C2
100
AcDbEntity
  8
寸法
  6
ByBlock
 62
     0
100
AcDbLine
 10
41.257007
 20
88.840452
 30
0.0
 11
64.59034
 21
88.840452
 31
0.0
  0
POINT
  5
C5
330
C2
100
AcDbEntity
  8
寸法
 62
     0
100
AcDbPoint
 10
64.59034
 20
88.840452
 30
0.0
  0
TEXT
  5
C6
330
C2
100
AcDbEntity
  8
寸法
  6
Continuous
 62
     0
100
AcDbText
 10
50.4625
 20
89.2
 30
0.0
 40
3.0
  1
700
  7
TextStyle03
 72
     5
 11
55.3375
 21
89.2
 31
0.0
100
AcDbText
  0
ENDBLK
  5
C7
330
C2
100
AcDbEntity
  8
0
100
AcDbBlockEnd
  0
BLOCK
  5
C8
330
C9
100
AcDbEntity
  8
0
100
AcDbBlockBegin
  2
*U14
 70
     1
 71
     0
 10
0.0
 20
0.0
 30
0.0
  3
*U14
  1

  0
LINE
  5
CA
330
C9
100
AcDbEntity
  8
寸法
  6
ByBlock
 62
     0
100
AcDbLine
 10
74.423675
 20
-79.95817
 30
0.0
 11
74.423675
 21
-22.536362
 31
0.0
  0
LINE
  5
CB
330
C9
100
AcDbEntity
  8
寸法
  6
ByBlock
 62
     0
100
AcDbLine
 10
71.257007
 20
-22.536362
 30
0.0
 11
74.423675
 21
-22.536362
 31
0.0
  0
POINT
  5
CC
330
C9
100
AcDbEntity
  8
寸法
 62
     0
100
AcDbPoint
 10
71.257007
 20
-22.536362
 30
0.0
  0
POINT
  5
CD
330
C9
100
AcDbEntity
  8
寸法
 62
     0
100
AcDbPoint
 10
74.423675
 20
-22.536362
 30
0.0
  0
TEXT
  5
CE
330
C9
100
AcDbEntity
  8
寸法
  6
Continuous
 62
     0
100
AcDbText
 10
71.23125
 20
-22.175
 30
0.0
 40
3.0
  1
95
  7
TextStyle03
 72
     5
 11
74.41875
 21
-22.175
 31
0.0
100
AcDbText
  0
ENDBLK
  5
CF
330
C9
100
AcDbEntity
  8
0
100
AcDbBlockEnd
  0
BLOCK
  5
D0
330
D1
100
AcDbEntity
  8
0
100
AcDbBlockBegin
  2
*U15
 70
     1
 71
     0
 10
0.0
 20
0.0
 30
0.0
  3
*U15
  1

  0
LINE
  5
D2
330
D1
100
AcDbEntity
  8
寸法
  6
ByBlock
 62
     0
100
AcDbLine
 10
-131.90966
 20
-79.95817
 30
0.0
 11
-131.90966
 21
-22.536362
 31
0.0
  0
LINE
  5
D3
330
D1
100
AcDbEntity
  8
寸法
  6
ByBlock
 62
     0
100
AcDbLine
 10
-128.742993
 20
-22.536362
 30
0.0
 11
-131.90966
 21
-22.536362
 31
0.0
  0
POINT
  5
D4
330
D1
100
AcDbEntity
  8
寸法
 62
     0
100
AcDbPoint
 10
-128.742993
 20
-22.536362
 30
0.0
  0
POINT
  5
D5
330
D1
100
AcDbEntity
  8
寸法
 62
     0
100
AcDbPoint
 10
-131.90966
 20
-22.536362
 30
0.0
  0
TEXT
  5
D6
330
D1
100
AcDbEntity
  8
寸法
  6
Continuous
 62
     0
100
AcDbText
 10
-131.94375
 20
-22.175
 30
0.0
 40
3.0
  1
95
  7
TextStyle03
 72
     5
 11
-128.75625
 21
-22.175
 31
0.0
100
AcDbText
  0
ENDBLK
  5
D7
330
D1
100
AcDbEntity
  8
0
100
AcDbBlockEnd
  0
BLOCK
  5
D8
330
D9
100
AcDbEntity
  8
0
100
AcDbBlockBegin
  2
*U16
 70
     1
 71
     0
 10
0.0
 20
0.0
 30
0.0
  3
*U16
  1

  0
LINE
  5
DA
330
D9
100
AcDbEntity
  8
寸法
  6
ByBlock
 62
     0
100
AcDbLine
 10
161.123845
 20
10.23238
 30
0.0
 11
105.276657
 21
10.23238
 31
0.0
  0
LINE
  5
DB
330
D9
100
AcDbEntity
  8
寸法
  6
ByBlock
 62
     0
100
AcDbLine
 10
105.276657
 20
13.399048
 30
0.0
 11
105.276657
 21
10.23238
 31
0.0
  0
POINT
  5
DC
330
D9
100
AcDbEntity
  8
寸法
 62
     0
100
AcDbPoint
 10
105.276657
 20
13.399048
 30
0.0
  0
POINT
  5
DD
330
D9
100
AcDbEntity
  8
寸法
 62
     0
100
AcDbPoint
 10
105.276657
 20
10.23238
 30
0.0
  0
TEXT
  5
DE
330
D9
100
AcDbEntity
  8
寸法
  6
Continuous
 62
     0
100
AcDbText
 10
104.9
 20
10.20625
 30
0.0
 40
3.0
  1
95
 50
90.0
  7
TextStyle03
 72
     5
 11
104.9
 21
13.39375
 31
0.0
100
AcDbText
  0
ENDBLK
  5
DF
330
D9
100
AcDbEntity
  8
0
100
AcDbBlockEnd
  0
BLOCK
  5
E0
330
E1
100
AcDbEntity
  8
0
100
AcDbBlockBegin
  2
*U17
 70
     1
 71
     0
 10
0.0
 20
0.0
 30
0.0
  3
*U17
  1

  0
LINE
  5
E2
330
E1
100
AcDbEntity
  8
寸法
  6
ByBlock
 62
     0
100
AcDbLine
 10
161.123845
 20
59.89905
 30
0.0
 11
105.276657
 21
59.89905
 31
0.0
  0
LINE
  5
E3
330
E1
100
AcDbEntity
  8
寸法
  6
ByBlock
 62
     0
100
AcDbLine
 10
105.276657
 20
56.73238
 30
0.0
 11
105.276657
 21
59.89905
 31
0.0
  0
POINT
  5
E4
330
E1
100
AcDbEntity
  8
寸法
 62
     0
100
AcDbPoint
 10
105.276657
 20
56.73238
 30
0.0
  0
POINT
  5
E5
330
E1
100
AcDbEntity
  8
寸法
 62
     0
100
AcDbPoint
 10
105.276657
 20
59.89905
 30
0.0
  0
TEXT
  5
E6
330
E1
100
AcDbEntity
  8
寸法
  6
Continuous
 62
     0
100
AcDbText
 10
104.9
 20
56.70625
 30
0.0
 40
3.0
  1
95
 50
90.0
  7
TextStyle03
 72
     5
 11
104.9
 21
59.89375
 31
0.0
100
AcDbText
  0
ENDBLK
  5
E7
330
E1
100
AcDbEntity
  8
0
100
AcDbBlockEnd
  0
BLOCK
  5
E8
330
E9
100
AcDbEntity
  8
0
100
AcDbBlockBegin
  2
*U18
 70
     1
 71
     0
 10
0.0
 20
0.0
 30
0.0
  3
*U18
  1

  0
LINE
  5
EA
330
E9
100
AcDbEntity
  8
寸法
  6
ByBlock
 62
     0
100
AcDbLine
 10
158.537835
 20
-92.53371300000001
 30
0.0
 11
165.404422
 21
-92.53371300000001
 31
0.0
  0
LINE
  5
EB
330
E9
100
AcDbEntity
  8
寸法
  6
ByBlock
 62
     0
100
AcDbLine
 10
158.537835
 20
-49.533713
 30
0.0
 11
165.404422
 21
-49.533713
 31
0.0
  0
LINE
  5
EC
330
E9
100
AcDbEntity
  8
寸法
  6
ByBlock
 62
     0
100
AcDbLine
 10
165.404422
 20
-92.53371300000001
 30
0.0
 11
165.404422
 21
-49.533713
 31
0.0
  0
POINT
  5
ED
330
E9
100
AcDbEntity
  8
寸法
 62
     0
100
AcDbPoint
 10
165.404422
 20
-92.53371300000001
 30
0.0
  0
POINT
  5
EE
330
E9
100
AcDbEntity
  8
寸法
 62
     0
100
AcDbPoint
 10
165.404422
 20
-49.533713
 30
0.0
  0
TEXT
  5
EF
330
E9
100
AcDbEntity
  8
寸法
  6
Continuous
 62
     0
100
AcDbText
 10
165.025
 20
-75.425
 30
0.0
 40
4.0
  1
1290
 50
90.0
  7
TextStyle03
 72
     5
 11
165.025
 21
-66.675
 31
0.0
100
AcDbText
  0
ENDBLK
  5
F0
330
E9
100
AcDbEntity
  8
0
100
AcDbBlockEnd
  0
BLOCK
  5
F1
330
F2
100
AcDbEntity
  8
0
100
AcDbBlockBegin
  2
*U19
 70
     1
 71
     0
 10
0.0
 20
0.0
 30
0.0
  3
*U19
  1

  0
LINE
  5
F3
330
F2
100
AcDbEntity
  8
寸法
  6
Continuous
100
AcDbLine
 10
163.528805
 20
70.815898
 30
0.0
 11
159.228802
 21
70.815898
 31
0.0
  0
POINT
  5
F4
330
F2
100
AcDbEntity
  8
寸法
100
AcDbPoint
 10
163.528805
 20
70.815898
 30
0.0
  0
POINT
  5
F5
330
F2
100
AcDbEntity
  8
寸法
100
AcDbPoint
 10
159.228802
 20
70.815898
 30
0.0
  0
TEXT
  5
F6
330
F2
100
AcDbEntity
  8
寸法
  6
Continuous
100
AcDbText
 10
158.9375
 20
71.175
 30
0.0
 40
3.0
  1
129
  7
TextStyle03
 72
     5
 11
163.8125
 21
71.175
 31
0.0
100
AcDbText
  0
ENDBLK
  5
F7
330
F2
100
AcDbEntity
  8
0
100
AcDbBlockEnd
  0
BLOCK
  5
F8
330
F9
100
AcDbEntity
  8
0
100
AcDbBlockBegin
  2
*U20
 70
     1
 71
     0
 10
0.0
 20
0.0
 30
0.0
  3
*U20
  1

  0
LINE
  5
FA
330
F9
100
AcDbEntity
  8
寸法
  6
Continuous
100
AcDbLine
 10
85.34052300000001
 20
-81.65040500000001
 30
0.0
 11
85.34052300000001
 21
-77.350403
 31
0.0
  0
POINT
  5
FB
330
F9
100
AcDbEntity
  8
寸法
100
AcDbPoint
 10
85.34052300000001
 20
-81.65040500000001
 30
0.0
  0
POINT
  5
FC
330
F9
100
AcDbEntity
  8
寸法
100
AcDbPoint
 10
85.34052300000001
 20
-77.350403
 30
0.0
  0
TEXT
  5
FD
330
F9
100
AcDbEntity
  8
寸法
  6
Continuous
100
AcDbText
 10
88.65000000000001
 20
-82.0125
 30
0.0
 40
3.0
  1
129
 50
90.0
  7
TextStyle03
 72
     5
 11
88.65000000000001
 21
-77.1375
 31
0.0
100
AcDbText
  0
ENDBLK
  5
FE
330
F9
100
AcDbEntity
  8
0
100
AcDbBlockEnd
  0
BLOCK
  5
FF
330
100
100
AcDbEntity
  8
0
100
AcDbBlockBegin
  2
*U21
 70
     1
 71
     0
 10
0.0
 20
0.0
 30
0.0
  3
*U21
  1

  0
LINE
  5
101
330
100
100
AcDbEntity
  8
寸法
  6
Continuous
100
AcDbLine
 10
155.537835
 20
-39.918
 30
0.0
 11
123.147835
 21
-39.918
 31
0.0
  0
POINT
  5
102
330
100
100
AcDbEntity
  8
寸法
100
AcDbPoint
 10
155.537835
 20
-39.918
 30
0.0
  0
POINT
  5
103
330
100
100
AcDbEntity
  8
寸法
100
AcDbPoint
 10
123.147835
 20
-39.918
 30
0.0
  0
TEXT
  5
104
330
100
100
AcDbEntity
  8
寸法
  6
Continuous
100
AcDbText
 10
133.825
 20
-39.525
 30
0.0
 40
4.0
  1
971.7
  7
TextStyle03
 72
     5
 11
144.825
 21
-39.525
 31
0.0
100
AcDbText
  0
ENDBLK
  5
105
330
100
100
AcDbEntity
  8
0
100
AcDbBlockEnd
  0
ENDSEC
  0
SECTION
  2
ENTITIES
  0
LWPOLYLINE
  5
106
330
1D
100
AcDbEntity
  8
通り芯
  6
Continuous
100
AcDbPolyline
 90
        4
 70
     1
 43
0.0
 10
-210.0
 20
-148.5
 10
210.0
 20
-148.5
 10
210.0
 20
148.5
 10
-210.0
 20
148.5
  0
INSERT
  5
10C
330
1D
100
AcDbEntity
  8
型材断面
  6
Continuous
100
AcDbBlockReference
  2
*U0
 10
0.0
 20
0.0
 30
0.0
  0
LINE
  5
10D
330
1D
100
AcDbEntity
  8
型材断面
  6
DASHDOT
100
AcDbLine
 10
-128.742993
 20
13.399048
 30
0.0
 11
168.93377
 21
13.399048
 31
0.0
  0
LINE
  5
10E
330
1D
100
AcDbEntity
  8
型材断面
  6
DASHDOT
100
AcDbLine
 10
-128.742993
 20
56.73238
 30
0.0
 11
168.93377
 21
56.73238
 31
0.0
  0
LINE
  5
10F
330
1D
100
AcDbEntity
  8
型材断面
  6
DASHDOT
100
AcDbLine
 10
-128.742993
 20
35.065715
 30
0.0
 11
168.93377
 21
35.065715
 31
0.0
  0
LINE
  5
110
330
1D
100
AcDbEntity
  8
型材断面
  6
DASHDOT
100
AcDbLine
 10
-128.742993
 20
-87.251428
 30
0.0
 11
-128.742993
 21
56.73238
 31
0.0
  0
LINE
  5
111
330
1D
100
AcDbEntity
  8
型材断面
  6
DASHDOT
100
AcDbLine
 10
-28.742993
 20
-87.251428
 30
0.0
 11
-28.742993
 21
56.73238
 31
0.0
  0
LINE
  5
112
330
1D
100
AcDbEntity
  8
型材断面
  6
DASHDOT
100
AcDbLine
 10
71.257007
 20
-87.251428
 30
0.0
 11
71.257007
 21
56.73238
 31
0.0
  0
LINE
  5
113
330
1D
100
AcDbEntity
  8
型材断面
  6
Continuous
100
AcDbLine
 10
-131.373123
 20
35.065715
 30
0.0
 11
-133.96363
 21
36.561345
 31
0.0
  0
LINE
  5
114
330
1D
100
AcDbEntity
  8
型材断面
  6
Continuous
100
AcDbLine
 10
-131.373123
 20
35.065715
 30
0.0
 11
-133.96363
 21
33.570085
 31
0.0
  0
LINE
  5
115
330
1D
100
AcDbEntity
  8
型材断面
  6
Continuous
100
AcDbLine
 10
-133.96363
 20
33.570085
 30
0.0
 11
-133.96363
 21
36.561345
 31
0.0
  0
LINE
  5
116
330
1D
100
AcDbEntity
  8
型材断面
  6
Continuous
100
AcDbLine
 10
-112.076325
 20
59.36251
 30
0.0
 11
-113.571955
 21
61.953017
 31
0.0
  0
LINE
  5
117
330
1D
100
AcDbEntity
  8
型材断面
  6
Continuous
100
AcDbLine
 10
-112.076325
 20
59.36251
 30
0.0
 11
-110.580695
 21
61.953017
 31
0.0
  0
LINE
  5
118
330
1D
100
AcDbEntity
  8
型材断面
  6
Continuous
100
AcDbLine
 10
-110.580695
 20
61.953017
 30
0.0
 11
-113.571955
 21
61.953017
 31
0.0
  0
LINE
  5
119
330
1D
100
AcDbEntity
  8
型材断面
  6
Continuous
100
AcDbLine
 10
-28.742993
 20
59.36251
 30
0.0
 11
-30.238623
 21
61.953017
 31
0.0
  0
LINE
  5
11A
330
1D
100
AcDbEntity
  8
型材断面
  6
Continuous
100
AcDbLine
 10
-28.742993
 20
59.36251
 30
0.0
 11
-27.247362
 21
61.953017
 31
0.0
  0
LINE
  5
11B
330
1D
100
AcDbEntity
  8
型材断面
  6
Continuous
100
AcDbLine
 10
-27.247362
 20
61.953017
 30
0.0
 11
-30.238623
 21
61.953017
 31
0.0
  0
LINE
  5
11C
330
1D
100
AcDbEntity
  8
型材断面
  6
Continuous
100
AcDbLine
 10
54.59034
 20
59.36251
 30
0.0
 11
53.09471
 21
61.953017
 31
0.0
  0
LINE
  5
11D
330
1D
100
AcDbEntity
  8
型材断面
  6
Continuous
100
AcDbLine
 10
54.59034
 20
59.36251
 30
0.0
 11
56.08597
 21
61.953017
 31
0.0
  0
LINE
  5
11E
330
1D
100
AcDbEntity
  8
型材断面
  6
Continuous
100
AcDbLine
 10
56.08597
 20
61.953017
 30
0.0
 11
53.09471
 21
61.953017
 31
0.0
  0
LINE
  5
11F
330
1D
100
AcDbEntity
  8
型材断面
  6
Continuous
100
AcDbLine
 10
-169.5952
 20
101.239727
 30
0.0
 11
-171.09083
 21
98.64922
 31
0.0
  0
LINE
  5
120
330
1D
100
AcDbEntity
  8
型材断面
  6
Continuous
100
AcDbLine
 10
-169.5952
 20
101.239727
 30
0.0
 11
-168.09957
 21
98.64922
 31
0.0
  0
LINE
  5
121
330
1D
100
AcDbEntity
  8
型材断面
  6
Continuous
100
AcDbLine
 10
-168.09957
 20
98.64922
 30
0.0
 11
-171.09083
 21
98.64922
 31
0.0
  0
LINE
  5
122
330
1D
100
AcDbEntity
  8
型材断面
  6
Continuous
100
AcDbLine
 10
-175.617788
 20
97.71062499999999
 30
0.0
 11
-129.37601
 21
97.71062499999999
 31
0.0
  0
LINE
  5
123
330
1D
100
AcDbEntity
  8
型材断面
  6
Continuous
100
AcDbLine
 10
-112.076325
 20
10.76892
 30
0.0
 11
-113.571955
 21
8.178413000000001
 31
0.0
  0
LINE
  5
124
330
1D
100
AcDbEntity
  8
型材断面
  6
Continuous
100
AcDbLine
 10
-112.076325
 20
10.76892
 30
0.0
 11
-110.580695
 21
8.178413000000001
 31
0.0
  0
LINE
  5
125
330
1D
100
AcDbEntity
  8
型材断面
  6
Continuous
100
AcDbLine
 10
-110.580695
 20
8.178413000000001
 30
0.0
 11
-113.571955
 21
8.178413000000001
 31
0.0
  0
LINE
  5
126
330
1D
100
AcDbEntity
  8
型材断面
  6
Continuous
100
AcDbLine
 10
-28.742993
 20
10.76892
 30
0.0
 11
-30.238623
 21
8.178413000000001
 31
0.0
  0
LINE
  5
127
330
1D
100
AcDbEntity
  8
型材断面
  6
Continuous
100
AcDbLine
 10
-28.742993
 20
10.76892
 30
0.0
 11
-27.247362
 21
8.178413000000001
 31
0.0
  0
LINE
  5
128
330
1D
100
AcDbEntity
  8
型材断面
  6
Continuous
100
AcDbLine
 10
-27.247362
 20
8.178413000000001
 30
0.0
 11
-30.238623
 21
8.178413000000001
 31
0.0
  0
LINE
  5
129
330
1D
100
AcDbEntity
  8
型材断面
  6
Continuous
100
AcDbLine
 10
54.59034
 20
10.76892
 30
0.0
 11
53.09471
 21
8.178413000000001
 31
0.0
  0
LINE
  5
12A
330
1D
100
AcDbEntity
  8
型材断面
  6
Continuous
100
AcDbLine
 10
54.59034
 20
10.76892
 30
0.0
 11
56.08597
 21
8.178413000000001
 31
0.0
  0
LINE
  5
12B
330
1D
100
AcDbEntity
  8
型材断面
  6
Continuous
100
AcDbLine
 10
56.08597
 20
8.178413000000001
 30
0.0
 11
53.09471
 21
8.178413000000001
 31
0.0
  0
LINE
  5
12C
330
1D
100
AcDbEntity
  8
型材断面
  6
Continuous
100
AcDbLine
 10
73.88713799999999
 20
35.065715
 30
0.0
 11
76.477645
 21
36.561345
 31
0.0
  0
LINE
  5
12D
330
1D
100
AcDbEntity
  8
型材断面
  6
Continuous
100
AcDbLine
 10
73.88713799999999
 20
35.065715
 30
0.0
 11
76.477645
 21
33.570085
 31
0.0
  0
LINE
  5
12E
330
1D
100
AcDbEntity
  8
型材断面
  6
Continuous
100
AcDbLine
 10
76.477645
 20
33.570085
 30
0.0
 11
76.477645
 21
36.561345
 31
0.0
  0
LINE
  5
12F
330
1D
100
AcDbEntity
  8
型材断面
  6
Continuous
100
AcDbLine
 10
-175.617788
 20
92.246443
 30
0.0
 11
-129.37601
 21
92.246443
 31
0.0
  0
LINE
  5
130
330
1D
100
AcDbEntity
  8
型材断面
  6
Continuous
100
AcDbLine
 10
-131.909657
 20
10.232382
 30
0.0
 11
-131.909657
 21
59.899045
 31
0.0
  0
LINE
  5
131
330
1D
100
AcDbEntity
  8
型材断面
  6
Continuous
100
AcDbLine
 10
-131.909657
 20
59.899045
 30
0.0
 11
74.42367299999999
 21
59.899045
 31
0.0
  0
LINE
  5
132
330
1D
100
AcDbEntity
  8
型材断面
  6
Continuous
100
AcDbLine
 10
74.42367299999999
 20
59.899045
 30
0.0
 11
74.42367299999999
 21
10.232382
 31
0.0
  0
LINE
  5
133
330
1D
100
AcDbEntity
  8
型材断面
  6
Continuous
100
AcDbLine
 10
-131.909657
 20
10.232382
 30
0.0
 11
74.42367299999999
 21
10.232382
 31
0.0
  0
LINE
  5
134
330
1D
100
AcDbEntity
  8
型材断面
  6
DASHDOT
100
AcDbLine
 10
-95.652992
 20
13.399048
 30
0.0
 11
-95.652992
 21
56.73238
 31
0.0
  0
LINE
  5
135
330
1D
100
AcDbEntity
  8
型材断面
  6
DASHDOT
100
AcDbLine
 10
-62.196325
 20
13.399048
 30
0.0
 11
-62.196325
 21
56.73238
 31
0.0
  0
LINE
  5
136
330
1D
100
AcDbEntity
  8
型材断面
  6
DASHDOT
100
AcDbLine
 10
38.167007
 20
13.399048
 30
0.0
 11
38.167007
 21
56.73238
 31
0.0
  0
LINE
  5
137
330
1D
100
AcDbEntity
  8
型材断面
  6
DASHDOT
100
AcDbLine
 10
4.71034
 20
13.399048
 30
0.0
 11
4.71034
 21
56.73238
 31
0.0
  0
LINE
  5
138
330
1D
100
AcDbEntity
  8
型材断面
  6
Continuous
100
AcDbLine
 10
55.128675
 20
14.152527
 30
0.0
 11
55.128675
 21
11.652527
 31
0.0
  0
LINE
  5
139
330
1D
100
AcDbEntity
  8
型材断面
  6
Continuous
100
AcDbLine
 10
54.29534
 20
14.152527
 30
0.0
 11
54.29534
 21
11.652527
 31
0.0
  0
LINE
  5
13A
330
1D
100
AcDbEntity
  8
型材断面
  6
Continuous
100
AcDbLine
 10
21.855343
 20
14.152527
 30
0.0
 11
21.855343
 21
11.652527
 31
0.0
  0
LINE
  5
13B
330
1D
100
AcDbEntity
  8
型材断面
  6
Continuous
100
AcDbLine
 10
21.022007
 20
14.152527
 30
0.0
 11
21.022007
 21
11.652527
 31
0.0
  0
LINE
  5
13C
330
1D
100
AcDbEntity
  8
型材断面
  6
Continuous
100
AcDbLine
 10
-11.601325
 20
14.152527
 30
0.0
 11
-11.601325
 21
11.652527
 31
0.0
  0
LINE
  5
13D
330
1D
100
AcDbEntity
  8
型材断面
  6
Continuous
100
AcDbLine
 10
-12.43466
 20
14.152527
 30
0.0
 11
-12.43466
 21
11.652527
 31
0.0
  0
LINE
  5
13E
330
1D
100
AcDbEntity
  8
型材断面
  6
Continuous
100
AcDbLine
 10
-112.61466
 20
14.152527
 30
0.0
 11
-112.61466
 21
11.652527
 31
0.0
  0
LINE
  5
13F
330
1D
100
AcDbEntity
  8
型材断面
  6
Continuous
100
AcDbLine
 10
-111.781325
 20
14.152527
 30
0.0
 11
-111.781325
 21
11.652527
 31
0.0
  0
LINE
  5
140
330
1D
100
AcDbEntity
  8
型材断面
  6
Continuous
100
AcDbLine
 10
-79.34132700000001
 20
14.152527
 30
0.0
 11
-79.34132700000001
 21
11.652527
 31
0.0
  0
LINE
  5
141
330
1D
100
AcDbEntity
  8
型材断面
  6
Continuous
100
AcDbLine
 10
-78.507993
 20
14.152527
 30
0.0
 11
-78.507993
 21
11.652527
 31
0.0
  0
LINE
  5
142
330
1D
100
AcDbEntity
  8
型材断面
  6
Continuous
100
AcDbLine
 10
-45.88466
 20
14.152527
 30
0.0
 11
-45.88466
 21
11.652527
 31
0.0
  0
LINE
  5
143
330
1D
100
AcDbEntity
  8
型材断面
  6
Continuous
100
AcDbLine
 10
-45.051325
 20
14.152527
 30
0.0
 11
-45.051325
 21
11.652527
 31
0.0
  0
LINE
  5
144
330
1D
100
AcDbEntity
  8
型材断面
  6
Continuous
100
AcDbLine
 10
-112.61466
 20
55.978903
 30
0.0
 11
-112.61466
 21
58.478903
 31
0.0
  0
LINE
  5
145
330
1D
100
AcDbEntity
  8
型材断面
  6
Continuous
100
AcDbLine
 10
-111.781325
 20
55.978903
 30
0.0
 11
-111.781325
 21
58.478903
 31
0.0
  0
LINE
  5
146
330
1D
100
AcDbEntity
  8
型材断面
  6
Continuous
100
AcDbLine
 10
-79.34132700000001
 20
55.978903
 30
0.0
 11
-79.34132700000001
 21
58.478903
 31
0.0
  0
LINE
  5
147
330
1D
100
AcDbEntity
  8
型材断面
  6
Continuous
100
AcDbLine
 10
-78.507993
 20
55.978903
 30
0.0
 11
-78.507993
 21
58.478903
 31
0.0
  0
LINE
  5
148
330
1D
100
AcDbEntity
  8
型材断面
  6
Continuous
100
AcDbLine
 10
-45.88466
 20
55.978903
 30
0.0
 11
-45.88466
 21
58.478903
 31
0.0
  0
LINE
  5
149
330
1D
100
AcDbEntity
  8
型材断面
  6
Continuous
100
AcDbLine
 10
-45.051325
 20
55.978903
 30
0.0
 11
-45.051325
 21
58.478903
 31
0.0
  0
LINE
  5
14A
330
1D
100
AcDbEntity
  8
型材断面
  6
Continuous
100
AcDbLine
 10
55.128675
 20
55.978903
 30
0.0
 11
55.128675
 21
58.478903
 31
0.0
  0
LINE
  5
14B
330
1D
100
AcDbEntity
  8
型材断面
  6
Continuous
100
AcDbLine
 10
54.29534
 20
55.978903
 30
0.0
 11
54.29534
 21
58.478903
 31
0.0
  0
LINE
  5
14C
330
1D
100
AcDbEntity
  8
型材断面
  6
Continuous
100
AcDbLine
 10
21.855343
 20
55.978903
 30
0.0
 11
21.855343
 21
58.478903
 31
0.0
  0
LINE
  5
14D
330
1D
100
AcDbEntity
  8
型材断面
  6
Continuous
100
AcDbLine
 10
21.022007
 20
55.978903
 30
0.0
 11
21.022007
 21
58.478903
 31
0.0
  0
LINE
  5
14E
330
1D
100
AcDbEntity
  8
型材断面
  6
Continuous
100
AcDbLine
 10
-11.601325
 20
55.978903
 30
0.0
 11
-11.601325
 21
58.478903
 31
0.0
  0
LINE
  5
14F
330
1D
100
AcDbEntity
  8
型材断面
  6
Continuous
100
AcDbLine
 10
-12.43466
 20
55.978903
 30
0.0
 11
-12.43466
 21
58.478903
 31
0.0
  0
LINE
  5
150
330
1D
100
AcDbEntity
  8
型材断面
  6
Continuous
100
AcDbLine
 10
73.003528
 20
34.649048
 30
0.0
 11
70.503528
 21
34.649048
 31
0.0
  0
LINE
  5
151
330
1D
100
AcDbEntity
  8
型材断面
  6
Continuous
100
AcDbLine
 10
73.003528
 20
35.482382
 30
0.0
 11
70.503528
 21
35.482382
 31
0.0
  0
LINE
  5
152
330
1D
100
AcDbEntity
  8
型材断面
  6
Continuous
100
AcDbLine
 10
-130.489512
 20
34.649048
 30
0.0
 11
-127.989513
 21
34.649048
 31
0.0
  0
LINE
  5
153
330
1D
100
AcDbEntity
  8
型材断面
  6
Continuous
100
AcDbLine
 10
-130.489512
 20
35.482382
 30
0.0
 11
-127.989513
 21
35.482382
 31
0.0
  0
LINE
  5
154
330
1D
100
AcDbEntity
  8
型材断面
  6
Continuous
100
AcDbLine
 10
-111.781325
 20
55.978903
 30
0.0
 11
-79.34132700000001
 21
55.978903
 31
0.0
  0
LINE
  5
155
330
1D
100
AcDbEntity
  8
型材断面
  6
Continuous
100
AcDbLine
 10
-111.781325
 20
14.152527
 30
0.0
 11
-79.34132700000001
 21
14.152527
 31
0.0
  0
LINE
  5
156
330
1D
100
AcDbEntity
  8
型材断面
  6
Continuous
100
AcDbLine
 10
-78.507993
 20
14.152527
 30
0.0
 11
-45.88466
 21
14.152527
 31
0.0
  0
LINE
  5
157
330
1D
100
AcDbEntity
  8
型材断面
  6
Continuous
100
AcDbLine
 10
-78.507993
 20
55.978903
 30
0.0
 11
-45.88466
 21
55.978903
 31
0.0
  0
LINE
  5
158
330
1D
100
AcDbEntity
  8
型材断面
  6
Continuous
100
AcDbLine
 10
-45.051325
 20
55.978903
 30
0.0
 11
-12.43466
 21
55.978903
 31
0.0
  0
LINE
  5
159
330
1D
100
AcDbEntity
  8
型材断面
  6
Continuous
100
AcDbLine
 10
-45.051325
 20
14.152527
 30
0.0
 11
-12.43466
 21
14.152527
 31
0.0
  0
LINE
  5
15A
330
1D
100
AcDbEntity
  8
型材断面
  6
Continuous
100
AcDbLine
 10
-11.601325
 20
14.152527
 30
0.0
 11
21.022007
 21
14.152527
 31
0.0
  0
LINE
  5
15B
330
1D
100
AcDbEntity
  8
型材断面
  6
Continuous
100
AcDbLine
 10
-11.601325
 20
55.978903
 30
0.0
 11
21.022007
 21
55.978903
 31
0.0
  0
LINE
  5
15C
330
1D
100
AcDbEntity
  8
型材断面
  6
Continuous
100
AcDbLine
 10
21.855343
 20
55.978903
 30
0.0
 11
54.29534
 21
55.978903
 31
0.0
  0
LINE
  5
15D
330
1D
100
AcDbEntity
  8
型材断面
  6
Continuous
100
AcDbLine
 10
21.855343
 20
14.152527
 30
0.0
 11
54.29534
 21
14.152527
 31
0.0
  0
LINE
  5
15E
330
1D
100
AcDbEntity
  8
型材断面
  6
Continuous
100
AcDbLine
 10
72.76782799999999
 20
58.478903
 30
0.0
 11
73.003528
 21
58.243203
 31
0.0
  0
LINE
  5
15F
330
1D
100
AcDbEntity
  8
型材断面
  6
Continuous
100
AcDbLine
 10
70.26783
 20
55.978903
 30
0.0
 11
70.503528
 21
55.7432
 31
0.0
  0
LINE
  5
160
330
1D
100
AcDbEntity
  8
型材断面
  6
Continuous
100
AcDbLine
 10
70.503528
 20
55.7432
 30
0.0
 11
73.003528
 21
58.243203
 31
0.0
  0
LINE
  5
161
330
1D
100
AcDbEntity
  8
型材断面
  6
Continuous
100
AcDbLine
 10
70.26783
 20
55.978903
 30
0.0
 11
72.76782799999999
 21
58.478903
 31
0.0
  0
LINE
  5
162
330
1D
100
AcDbEntity
  8
型材断面
  6
Continuous
100
AcDbLine
 10
74.42367299999999
 20
59.899045
 30
0.0
 11
72.885678
 21
58.361053
 31
0.0
  0
LINE
  5
163
330
1D
100
AcDbEntity
  8
型材断面
  6
Continuous
100
AcDbLine
 10
70.503528
 20
35.482382
 30
0.0
 11
70.503528
 21
55.7432
 31
0.0
  0
LINE
  5
164
330
1D
100
AcDbEntity
  8
型材断面
  6
Continuous
100
AcDbLine
 10
55.128675
 20
55.978903
 30
0.0
 11
70.26783
 21
55.978903
 31
0.0
  0
LINE
  5
165
330
1D
100
AcDbEntity
  8
型材断面
  6
Continuous
100
AcDbLine
 10
72.76782799999999
 20
11.652527
 30
0.0
 11
73.003528
 21
11.888227
 31
0.0
  0
LINE
  5
166
330
1D
100
AcDbEntity
  8
型材断面
  6
Continuous
100
AcDbLine
 10
-130.253813
 20
11.652527
 30
0.0
 11
-130.489512
 21
11.888227
 31
0.0
  0
LINE
  5
167
330
1D
100
AcDbEntity
  8
型材断面
  6
Continuous
100
AcDbLine
 10
-130.253813
 20
58.478903
 30
0.0
 11
-130.489512
 21
58.243203
 31
0.0
  0
LINE
  5
168
330
1D
100
AcDbEntity
  8
型材断面
  6
Continuous
100
AcDbLine
 10
-94.48632499999999
 20
14.98586
 30
0.0
 11
-96.81966
 21
14.98586
 31
0.0
  0
LINE
  5
169
330
1D
100
AcDbEntity
  8
型材断面
  6
Continuous
100
AcDbLine
 10
-94.48632499999999
 20
14.98586
 30
0.0
 11
-94.48632499999999
 21
55.14557
 31
0.0
  0
LINE
  5
16A
330
1D
100
AcDbEntity
  8
型材断面
  6
Continuous
100
AcDbLine
 10
-96.81966
 20
14.98586
 30
0.0
 11
-96.81966
 21
55.14557
 31
0.0
  0
LINE
  5
16B
330
1D
100
AcDbEntity
  8
型材断面
  6
Continuous
100
AcDbLine
 10
-94.48632499999999
 20
55.14557
 30
0.0
 11
-96.81966
 21
55.14557
 31
0.0
  0
LINE
  5
16C
330
1D
100
AcDbEntity
  8
型材断面
  6
Continuous
100
AcDbLine
 10
-61.029658
 20
14.98586
 30
0.0
 11
-63.362993
 21
14.98586
 31
0.0
  0
LINE
  5
16D
330
1D
100
AcDbEntity
  8
型材断面
  6
Continuous
100
AcDbLine
 10
-61.029658
 20
14.98586
 30
0.0
 11
-61.029658
 21
55.14557
 31
0.0
  0
LINE
  5
16E
330
1D
100
AcDbEntity
  8
型材断面
  6
Continuous
100
AcDbLine
 10
-63.362993
 20
14.98586
 30
0.0
 11
-63.362993
 21
55.14557
 31
0.0
  0
LINE
  5
16F
330
1D
100
AcDbEntity
  8
型材断面
  6
Continuous
100
AcDbLine
 10
-61.029658
 20
55.14557
 30
0.0
 11
-63.362993
 21
55.14557
 31
0.0
  0
LINE
  5
170
330
1D
100
AcDbEntity
  8
型材断面
  6
Continuous
100
AcDbLine
 10
-27.576325
 20
14.98586
 30
0.0
 11
-29.90966
 21
14.98586
 31
0.0
  0
LINE
  5
171
330
1D
100
AcDbEntity
  8
型材断面
  6
Continuous
100
AcDbLine
 10
-27.576325
 20
14.98586
 30
0.0
 11
-27.576325
 21
55.14557
 31
0.0
  0
LINE
  5
172
330
1D
100
AcDbEntity
  8
型材断面
  6
Continuous
100
AcDbLine
 10
-29.90966
 20
14.98586
 30
0.0
 11
-29.90966
 21
55.14557
 31
0.0
  0
LINE
  5
173
330
1D
100
AcDbEntity
  8
型材断面
  6
Continuous
100
AcDbLine
 10
-27.576325
 20
55.14557
 30
0.0
 11
-29.90966
 21
55.14557
 31
0.0
  0
LINE
  5
174
330
1D
100
AcDbEntity
  8
型材断面
  6
Continuous
100
AcDbLine
 10
5.877008
 20
14.98586
 30
0.0
 11
3.543672
 21
14.98586
 31
0.0
  0
LINE
  5
175
330
1D
100
AcDbEntity
  8
型材断面
  6
Continuous
100
AcDbLine
 10
5.877008
 20
14.98586
 30
0.0
 11
5.877008
 21
55.14557
 31
0.0
  0
LINE
  5
176
330
1D
100
AcDbEntity
  8
型材断面
  6
Continuous
100
AcDbLine
 10
3.543672
 20
14.98586
 30
0.0
 11
3.543672
 21
55.14557
 31
0.0
  0
LINE
  5
177
330
1D
100
AcDbEntity
  8
型材断面
  6
Continuous
100
AcDbLine
 10
5.877008
 20
55.14557
 30
0.0
 11
3.543672
 21
55.14557
 31
0.0
  0
LINE
  5
178
330
1D
100
AcDbEntity
  8
型材断面
  6
Continuous
100
AcDbLine
 10
39.333675
 20
14.98586
 30
0.0
 11
37.00034
 21
14.98586
 31
0.0
  0
LINE
  5
179
330
1D
100
AcDbEntity
  8
型材断面
  6
Continuous
100
AcDbLine
 10
39.333675
 20
14.98586
 30
0.0
 11
39.333675
 21
55.14557
 31
0.0
  0
LINE
  5
17A
330
1D
100
AcDbEntity
  8
型材断面
  6
Continuous
100
AcDbLine
 10
37.00034
 20
14.98586
 30
0.0
 11
37.00034
 21
55.14557
 31
0.0
  0
LINE
  5
17B
330
1D
100
AcDbEntity
  8
型材断面
  6
Continuous
100
AcDbLine
 10
39.333675
 20
55.14557
 30
0.0
 11
37.00034
 21
55.14557
 31
0.0
  0
LINE
  5
17C
330
1D
100
AcDbEntity
  8
型材断面
  6
Continuous
100
AcDbLine
 10
-112.61466
 20
55.978903
 30
0.0
 11
-127.753815
 21
55.978903
 31
0.0
  0
LINE
  5
17D
330
1D
100
AcDbEntity
  8
型材断面
  6
Continuous
100
AcDbLine
 10
-127.753815
 20
55.978903
 30
0.0
 11
-127.989515
 21
55.743197
 31
0.0
  0
LINE
  5
17E
330
1D
100
AcDbEntity
  8
型材断面
  6
Continuous
100
AcDbLine
 10
-127.989515
 20
35.482382
 30
0.0
 11
-127.989515
 21
55.743197
 31
0.0
  0
LINE
  5
17F
330
1D
100
AcDbEntity
  8
型材断面
  6
Continuous
100
AcDbLine
 10
-127.753815
 20
55.978903
 30
0.0
 11
-130.253813
 21
58.478903
 31
0.0
  0
LINE
  5
180
330
1D
100
AcDbEntity
  8
型材断面
  6
Continuous
100
AcDbLine
 10
72.76782799999999
 20
58.478903
 30
0.0
 11
-130.253813
 21
58.478903
 31
0.0
  0
LINE
  5
181
330
1D
100
AcDbEntity
  8
型材断面
  6
Continuous
100
AcDbLine
 10
-127.989513
 20
55.7432
 30
0.0
 11
-130.489515
 21
58.243205
 31
0.0
  0
LINE
  5
182
330
1D
100
AcDbEntity
  8
型材断面
  6
Continuous
100
AcDbLine
 10
-131.909657
 20
59.899045
 30
0.0
 11
-130.371663
 21
58.361053
 31
0.0
  0
LINE
  5
183
330
1D
100
AcDbEntity
  8
型材断面
  6
Continuous
100
AcDbLine
 10
-112.61466
 20
14.152527
 30
0.0
 11
-127.753815
 21
14.152527
 31
0.0
  0
LINE
  5
184
330
1D
100
AcDbEntity
  8
型材断面
  6
Continuous
100
AcDbLine
 10
-127.753815
 20
14.152527
 30
0.0
 11
-127.989515
 21
14.388233
 31
0.0
  0
LINE
  5
185
330
1D
100
AcDbEntity
  8
型材断面
  6
Continuous
100
AcDbLine
 10
-127.989515
 20
34.649048
 30
0.0
 11
-127.989515
 21
14.388233
 31
0.0
  0
LINE
  5
186
330
1D
100
AcDbEntity
  8
型材断面
  6
Continuous
100
AcDbLine
 10
-127.753815
 20
14.152527
 30
0.0
 11
-130.253813
 21
11.652527
 31
0.0
  0
LINE
  5
187
330
1D
100
AcDbEntity
  8
型材断面
  6
Continuous
100
AcDbLine
 10
-127.989513
 20
14.38823
 30
0.0
 11
-130.489515
 21
11.888225
 31
0.0
  0
LINE
  5
188
330
1D
100
AcDbEntity
  8
型材断面
  6
Continuous
100
AcDbLine
 10
-130.489515
 20
58.243205
 30
0.0
 11
-130.489515
 21
11.888225
 31
0.0
  0
LINE
  5
189
330
1D
100
AcDbEntity
  8
型材断面
  6
Continuous
100
AcDbLine
 10
-131.909657
 20
10.232382
 30
0.0
 11
-130.371663
 21
11.770377
 31
0.0
  0
LINE
  5
18A
330
1D
100
AcDbEntity
  8
型材断面
  6
Continuous
100
AcDbLine
 10
-130.253813
 20
11.652527
 30
0.0
 11
72.76782799999999
 21
11.652527
 31
0.0
  0
LINE
  5
18B
330
1D
100
AcDbEntity
  8
型材断面
  6
Continuous
100
AcDbLine
 10
70.26783
 20
14.152527
 30
0.0
 11
72.76782799999999
 21
11.652527
 31
0.0
  0
LINE
  5
18C
330
1D
100
AcDbEntity
  8
型材断面
  6
Continuous
100
AcDbLine
 10
70.503528
 20
14.38823
 30
0.0
 11
73.003528
 21
11.888227
 31
0.0
  0
LINE
  5
18D
330
1D
100
AcDbEntity
  8
型材断面
  6
Continuous
100
AcDbLine
 10
73.003528
 20
58.243203
 30
0.0
 11
73.003528
 21
11.888227
 31
0.0
  0
LINE
  5
18E
330
1D
100
AcDbEntity
  8
型材断面
  6
Continuous
100
AcDbLine
 10
74.42367299999999
 20
10.232382
 30
0.0
 11
72.885678
 21
11.770377
 31
0.0
  0
LINE
  5
18F
330
1D
100
AcDbEntity
  8
型材断面
  6
Continuous
100
AcDbLine
 10
55.128675
 20
14.152527
 30
0.0
 11
70.26783
 21
14.152527
 31
0.0
  0
LINE
  5
190
330
1D
100
AcDbEntity
  8
型材断面
  6
Continuous
100
AcDbLine
 10
70.26783
 20
14.152527
 30
0.0
 11
70.503528
 21
14.38823
 31
0.0
  0
LINE
  5
191
330
1D
100
AcDbEntity
  8
型材断面
  6
Continuous
100
AcDbLine
 10
70.503528
 20
34.649048
 30
0.0
 11
70.503528
 21
14.38823
 31
0.0
  0
LINE
  5
192
330
1D
100
AcDbEntity
  8
型材断面
  6
Continuous
 62
    14
100
AcDbLine
 10
163.528805
 20
59.89905
 30
0.0
 11
163.028805
 21
59.89905
 31
0.0
  0
LINE
  5
193
330
1D
100
AcDbEntity
  8
型材断面
  6
Continuous
100
AcDbLine
 10
162.862142
 20
58.065715
 30
0.0
 11
163.028805
 21
59.89905
 31
0.0
  0
LINE
  5
194
330
1D
100
AcDbEntity
  8
型材断面
  6
Continuous
100
AcDbLine
 10
163.028805
 20
59.89905
 30
0.0
 11
163.528805
 21
59.89905
 31
0.0
  0
LINE
  5
195
330
1D
100
AcDbEntity
  8
型材断面
  6
Continuous
100
AcDbLine
 10
163.528805
 20
59.065715
 30
0.0
 11
163.862142
 21
59.065715
 31
0.0
  0
LINE
  5
196
330
1D
100
AcDbEntity
  8
型材断面
  6
Continuous
 62
    14
100
AcDbLine
 10
163.528805
 20
10.23238
 30
0.0
 11
163.028805
 21
10.23238
 31
0.0
  0
LINE
  5
197
330
1D
100
AcDbEntity
  8
型材断面
  6
Continuous
100
AcDbLine
 10
162.862142
 20
12.065712
 30
0.0
 11
163.028805
 21
10.23238
 31
0.0
  0
LINE
  5
198
330
1D
100
AcDbEntity
  8
型材断面
  6
Continuous
100
AcDbLine
 10
163.028805
 20
10.23238
 30
0.0
 11
163.528805
 21
10.23238
 31
0.0
  0
LINE
  5
199
330
1D
100
AcDbEntity
  8
型材断面
  6
Continuous
100
AcDbLine
 10
163.528805
 20
11.065712
 30
0.0
 11
163.862142
 21
11.065712
 31
0.0
  0
LINE
  5
19A
330
1D
100
AcDbEntity
  8
型材断面
  6
Continuous
100
AcDbLine
 10
162.862142
 20
12.065712
 30
0.0
 11
162.862142
 21
58.065715
 31
0.0
  0
LINE
  5
19B
330
1D
100
AcDbEntity
  8
型材断面
  6
Continuous
100
AcDbLine
 10
163.028805
 20
10.23238
 30
0.0
 11
163.028805
 21
59.89905
 31
0.0
  0
LINE
  5
19C
330
1D
100
AcDbEntity
  8
型材断面
  6
Continuous
100
AcDbLine
 10
163.528805
 20
10.23238
 30
0.0
 11
163.528805
 21
59.89905
 31
0.0
  0
LINE
  5
19D
330
1D
100
AcDbEntity
  8
型材断面
  6
Continuous
100
AcDbLine
 10
163.862138
 20
11.065712
 30
0.0
 11
163.862138
 21
59.065715
 31
0.0
  0
LWPOLYLINE
  5
19E
330
1D
100
AcDbEntity
  8
型材断面
  6
Continuous
100
AcDbPolyline
 90
        3
 70
     0
 43
0.0
 10
161.178805
 20
12.065715
 10
161.045472
 20
12.199048
 10
160.895472
 20
12.199048
  0
LINE
  5
1A3
330
1D
100
AcDbEntity
  8
型材断面
  6
Continuous
100
AcDbLine
 10
162.862142
 20
12.065712
 30
0.0
 11
161.178808
 21
12.065712
 31
0.0
  0
LINE
  5
1A4
330
1D
100
AcDbEntity
  8
型材断面
  6
Continuous
100
AcDbLine
 10
160.895472
 20
11.915715
 30
0.0
 11
160.895472
 21
58.215715
 31
0.0
  0
LINE
  5
1A5
330
1D
100
AcDbEntity
  8
型材断面
  6
Continuous
100
AcDbLine
 10
159.395472
 20
11.759193
 30
0.0
 11
159.395472
 21
58.372235
 31
0.0
  0
LINE
  5
1A6
330
1D
100
AcDbEntity
  8
型材断面
  6
Continuous
100
AcDbLine
 10
159.228802
 20
58.272237
 30
0.0
 11
159.228802
 21
11.859193
 31
0.0
  0
LWPOLYLINE
  5
1A7
330
1D
100
AcDbEntity
  8
型材断面
  6
Continuous
100
AcDbPolyline
 90
        3
 70
     0
 43
0.0
 10
161.178805
 20
58.065715
 10
161.045472
 20
57.93238
 10
160.895472
 20
57.93238
  0
LINE
  5
1AC
330
1D
100
AcDbEntity
  8
型材断面
  6
Continuous
100
AcDbLine
 10
162.862142
 20
58.065715
 30
0.0
 11
161.178808
 21
58.065715
 31
0.0
  0
LINE
  5
1AD
330
1D
100
AcDbEntity
  8
型材断面
  6
Continuous
100
AcDbLine
 10
161.045472
 20
57.93238
 30
0.0
 11
161.045472
 21
12.199048
 31
0.0
  0
LINE
  5
1AE
330
1D
100
AcDbEntity
  8
型材断面
  6
Continuous
100
AcDbLine
 10
161.178805
 20
12.065715
 30
0.0
 11
161.178805
 21
58.065715
 31
0.0
  0
LINE
  5
1AF
330
1D
100
AcDbEntity
  8
型材断面
  6
Continuous
 62
    14
100
AcDbLine
 10
74.423675
 20
-81.65040500000001
 30
0.0
 11
74.423675
 21
-81.15040500000001
 31
0.0
  0
LINE
  5
1B0
330
1D
100
AcDbEntity
  8
型材断面
  6
Continuous
100
AcDbLine
 10
72.59034
 20
-80.98374200000001
 30
0.0
 11
74.423675
 21
-81.15040500000001
 31
0.0
  0
LINE
  5
1B1
330
1D
100
AcDbEntity
  8
型材断面
  6
Continuous
100
AcDbLine
 10
74.423675
 20
-81.15040500000001
 30
0.0
 11
74.423675
 21
-81.65040500000001
 31
0.0
  0
LINE
  5
1B2
330
1D
100
AcDbEntity
  8
型材断面
  6
Continuous
100
AcDbLine
 10
73.59034
 20
-81.65040500000001
 30
0.0
 11
73.59034
 21
-81.98374200000001
 31
0.0
  0
LWPOLYLINE
  5
1B3
330
1D
100
AcDbEntity
  8
型材断面
  6
Continuous
100
AcDbPolyline
 90
        3
 70
     0
 43
0.0
 10
72.59034
 20
-79.300405
 10
72.457005
 20
-79.16707200000001
 10
72.457005
 20
-79.017072
  0
LINE
  5
1B8
330
1D
100
AcDbEntity
  8
型材断面
  6
Continuous
100
AcDbLine
 10
72.59034
 20
-80.98374200000001
 30
0.0
 11
72.59034
 21
-79.30040700000001
 31
0.0
  0
LINE
  5
1B9
330
1D
100
AcDbEntity
  8
型材断面
  6
Continuous
 62
    14
100
AcDbLine
 10
-131.90966
 20
-81.65040500000001
 30
0.0
 11
-131.90966
 21
-81.15040500000001
 31
0.0
  0
LINE
  5
1BA
330
1D
100
AcDbEntity
  8
型材断面
  6
Continuous
100
AcDbLine
 10
-130.076328
 20
-80.98374200000001
 30
0.0
 11
-131.90966
 21
-81.15040500000001
 31
0.0
  0
LINE
  5
1BB
330
1D
100
AcDbEntity
  8
型材断面
  6
Continuous
100
AcDbLine
 10
-131.90966
 20
-81.15040500000001
 30
0.0
 11
-131.90966
 21
-81.65040500000001
 31
0.0
  0
LINE
  5
1BC
330
1D
100
AcDbEntity
  8
型材断面
  6
Continuous
100
AcDbLine
 10
-131.076328
 20
-81.65040500000001
 30
0.0
 11
-131.076328
 21
-81.98374200000001
 31
0.0
  0
LINE
  5
1BD
330
1D
100
AcDbEntity
  8
型材断面
  6
Continuous
100
AcDbLine
 10
-130.076328
 20
-80.98374200000001
 30
0.0
 11
72.59034
 21
-80.98374200000001
 31
0.0
  0
LINE
  5
1BE
330
1D
100
AcDbEntity
  8
型材断面
  6
Continuous
100
AcDbLine
 10
-131.90966
 20
-81.15040500000001
 30
0.0
 11
74.423675
 21
-81.15040500000001
 31
0.0
  0
LINE
  5
1BF
330
1D
100
AcDbEntity
  8
型材断面
  6
Continuous
100
AcDbLine
 10
-131.90966
 20
-81.65040500000001
 30
0.0
 11
74.423675
 21
-81.65040500000001
 31
0.0
  0
LINE
  5
1C0
330
1D
100
AcDbEntity
  8
型材断面
  6
Continuous
100
AcDbLine
 10
-131.076328
 20
-81.983738
 30
0.0
 11
73.59034
 21
-81.983738
 31
0.0
  0
LWPOLYLINE
  5
1C1
330
1D
100
AcDbEntity
  8
型材断面
  6
Continuous
100
AcDbPolyline
 90
        3
 70
     0
 43
0.0
 10
-130.076325
 20
-79.300405
 10
-129.942993
 20
-79.16707200000001
 10
-129.942993
 20
-79.017072
  0
LINE
  5
1C6
330
1D
100
AcDbEntity
  8
型材断面
  6
Continuous
100
AcDbLine
 10
-130.076328
 20
-80.98374200000001
 30
0.0
 11
-130.076328
 21
-79.30040700000001
 31
0.0
  0
LINE
  5
1C7
330
1D
100
AcDbEntity
  8
型材断面
  6
Continuous
100
AcDbLine
 10
-130.226325
 20
-79.017072
 30
0.0
 11
72.74034
 21
-79.017072
 31
0.0
  0
LINE
  5
1C8
330
1D
100
AcDbEntity
  8
型材断面
  6
Continuous
100
AcDbLine
 10
-130.382848
 20
-77.517072
 30
0.0
 11
72.89686
 21
-77.517072
 31
0.0
  0
LINE
  5
1C9
330
1D
100
AcDbEntity
  8
型材断面
  6
Continuous
100
AcDbLine
 10
72.796862
 20
-77.350403
 30
0.0
 11
-130.282848
 21
-77.350403
 31
0.0
  0
LINE
  5
1CA
330
1D
100
AcDbEntity
  8
型材断面
  6
Continuous
100
AcDbLine
 10
72.457005
 20
-79.16707200000001
 30
0.0
 11
-129.942993
 21
-79.16707200000001
 31
0.0
  0
LINE
  5
1CB
330
1D
100
AcDbEntity
  8
型材断面
  6
Continuous
100
AcDbLine
 10
-130.076325
 20
-79.300405
 30
0.0
 11
72.59034
 21
-79.300405
 31
0.0
  0
TEXT
  5
1CC
330
1D
100
AcDbEntity
  8
文字
  6
Continuous
100
AcDbText
 10
-166.775
 20
98.84999999999999
 30
0.0
 40
3.0
  1
は排水穴位置を示す
  7
TextStyle03
 72
     5
 11
-136.775
 21
98.84999999999999
 31
0.0
100
AcDbText
  0
TEXT
  5
1CD
330
1D
100
AcDbEntity
  8
文字
  6
Continuous
100
AcDbText
 10
137.0
 20
-86.09999999999999
 30
0.0
 40
3.0
  1
網入り6.8t
  7
TextStyle03
 72
     5
 11
153.6875
 21
-86.09999999999999
 31
0.0
100
AcDbText
  0
TEXT
  5
1CE
330
1D
100
AcDbEntity
  8
文字
  6
Continuous
100
AcDbText
 10
143.675
 20
-90.77500000000001
 30
0.0
 40
3.0
  1
×６枚
  7
TextStyle03
 72
     5
 11
153.425
 21
-90.77500000000001
 31
0.0
100
AcDbText
  0
TEXT
  5
1CF
330
1D
100
AcDbEntity
  8
文字
  6
Continuous
100
AcDbText
 10
-166.275
 20
23.975
 30
0.0
 40
3.0
  1
アンカーピッチ
 50
90.0
  7
TextStyle03
 72
     5
 11
-166.275
 21
47.225
 31
0.0
100
AcDbText
  0
TEXT
  5
1D0
330
1D
100
AcDbEntity
  8
文字
  6
Continuous
100
AcDbText
 10
-115.3
 20
93.875
 30
0.0
 40
3.0
  1
アンカーピッチ
  7
TextStyle03
 72
     5
 11
-92.05
 21
93.875
 31
0.0
100
AcDbText
  0
TEXT
  5
1D1
330
1D
100
AcDbEntity
  8
文字
  6
Continuous
100
AcDbText
 10
-170.5
 20
93.15000000000001
 30
0.0
 40
3.0
  1
アンカー数量　２２ヶ所
  7
TextStyle03
 72
     5
 11
-133.75
 21
93.15000000000001
 31
0.0
100
AcDbText
  0
LINE
  5
1D2
330
1D
100
AcDbEntity
  8
文字
  6
Continuous
100
AcDbLine
 10
159.228802
 20
70.815898
 30
0.0
 11
159.228802
 21
59.603357
 31
0.0
  0
LINE
  5
1D3
330
1D
100
AcDbEntity
  8
文字
  6
Continuous
100
AcDbLine
 10
163.528805
 20
70.815898
 30
0.0
 11
163.528805
 21
60.897417
 31
0.0
  0
LINE
  5
1D4
330
1D
100
AcDbEntity
  8
文字
  6
Continuous
100
AcDbLine
 10
85.34052300000001
 20
-77.350403
 30
0.0
 11
74.127982
 21
-77.350403
 31
0.0
  0
LINE
  5
1D5
330
1D
100
AcDbEntity
  8
文字
  6
Continuous
100
AcDbLine
 10
85.34052300000001
 20
-81.65040500000001
 30
0.0
 11
75.422045
 21
-81.65040500000001
 31
0.0
  0
LINE
  5
1D6
330
1D
100
AcDbEntity
  8
文字
  6
Continuous
100
AcDbLine
 10
155.537835
 20
-39.918
 30
0.0
 11
155.537835
 21
-45.939
 31
0.0
  0
LINE
  5
1D7
330
1D
100
AcDbEntity
  8
文字
  6
Continuous
100
AcDbLine
 10
123.147835
 20
-39.918
 30
0.0
 11
123.147835
 21
-45.939
 31
0.0
  0
TEXT
  5
1D8
330
1D
100
AcDbEntity
  8
文字
  6
Continuous
100
AcDbText
 10
64.59999999999999
 20
122.45
 30
0.0
 40
5.0
  1
シリーズ：ＴＦＦＫＬ
  7
TextStyle03
 72
     5
 11
120.225
 21
122.45
 31
0.0
100
AcDbText
  0
TEXT
  5
1D9
330
1D
100
AcDbEntity
  8
文字
  6
Continuous
100
AcDbText
 10
64.59999999999999
 20
116.825
 30
0.0
 40
5.0
  1
　　　　　（固定）1300×6000タイプ
  7
TextStyle03
 72
     5
 11
159.6
 21
116.825
 31
0.0
100
AcDbText
  0
TEXT
  5
1DA
330
1D
100
AcDbEntity
  8
文字
  6
Continuous
100
AcDbText
 10
64.59999999999999
 20
111.2
 30
0.0
 40
5.0
  1
図面名　：外観姿図
  7
TextStyle03
 72
     5
 11
114.6
 21
111.2
 31
0.0
100
AcDbText
  0
TEXT
  5
1DB
330
1D
100
AcDbEntity
  8
文字
  6
Continuous
100
AcDbText
 10
64.59999999999999
 20
105.575
 30
0.0
 40
5.0
  1
　　　　　　
  7
TextStyle03
 72
     5
 11
97.72499999999999
 21
105.575
 31
0.0
100
AcDbText
  0
INSERT
  5
1DC
330
1D
100
AcDbEntity
  8
寸法
  6
Continuous
100
AcDbBlockReference
  2
*U1
 10
0.0
 20
0.0
 30
0.0
  0
INSERT
  5
1DD
330
1D
100
AcDbEntity
  8
寸法
  6
Continuous
100
AcDbBlockReference
  2
*U2
 10
0.0
 20
0.0
 30
0.0
  0
INSERT
  5
1DE
330
1D
100
AcDbEntity
  8
寸法
  6
Continuous
100
AcDbBlockReference
  2
*U3
 10
0.0
 20
0.0
 30
0.0
  0
INSERT
  5
1DF
330
1D
100
AcDbEntity
  8
寸法
  6
Continuous
100
AcDbBlockReference
  2
*U4
 10
0.0
 20
0.0
 30
0.0
  0
INSERT
  5
1E0
330
1D
100
AcDbEntity
  8
寸法
  6
Continuous
100
AcDbBlockReference
  2
*U5
 10
0.0
 20
0.0
 30
0.0
  0
INSERT
  5
1E1
330
1D
100
AcDbEntity
  8
寸法
  6
Continuous
100
AcDbBlockReference
  2
*U6
 10
0.0
 20
0.0
 30
0.0
  0
INSERT
  5
1E2
330
1D
100
AcDbEntity
  8
寸法
  6
Continuous
100
AcDbBlockReference
  2
*U7
 10
0.0
 20
0.0
 30
0.0
  0
INSERT
  5
1E3
330
1D
100
AcDbEntity
  8
寸法
  6
Continuous
100
AcDbBlockReference
  2
*U8
 10
0.0
 20
0.0
 30
0.0
  0
INSERT
  5
1E4
330
1D
100
AcDbEntity
  8
寸法
  6
Continuous
100
AcDbBlockReference
  2
*U9
 10
0.0
 20
0.0
 30
0.0
  0
INSERT
  5
1E5
330
1D
100
AcDbEntity
  8
寸法
  6
Continuous
100
AcDbBlockReference
  2
*U10
 10
0.0
 20
0.0
 30
0.0
  0
INSERT
  5
1E6
330
1D
100
AcDbEntity
  8
寸法
  6
Continuous
100
AcDbBlockReference
  2
*U11
 10
0.0
 20
0.0
 30
0.0
  0
INSERT
  5
1E7
330
1D
100
AcDbEntity
  8
寸法
  6
Continuous
100
AcDbBlockReference
  2
*U12
 10
0.0
 20
0.0
 30
0.0
  0
INSERT
  5
1E8
330
1D
100
AcDbEntity
  8
寸法
  6
Continuous
100
AcDbBlockReference
  2
*U13
 10
0.0
 20
0.0
 30
0.0
  0
INSERT
  5
1E9
330
1D
100
AcDbEntity
  8
寸法
  6
Continuous
100
AcDbBlockReference
  2
*U14
 10
0.0
 20
0.0
 30
0.0
  0
INSERT
  5
1EA
330
1D
100
AcDbEntity
  8
寸法
  6
Continuous
100
AcDbBlockReference
  2
*U15
 10
0.0
 20
0.0
 30
0.0
  0
INSERT
  5
1EB
330
1D
100
AcDbEntity
  8
寸法
  6
Continuous
100
AcDbBlockReference
  2
*U16
 10
0.0
 20
0.0
 30
0.0
  0
INSERT
  5
1EC
330
1D
100
AcDbEntity
  8
寸法
  6
Continuous
100
AcDbBlockReference
  2
*U17
 10
0.0
 20
0.0
 30
0.0
  0
INSERT
  5
1ED
330
1D
100
AcDbEntity
  8
寸法
  6
Continuous
100
AcDbBlockReference
  2
*U18
 10
0.0
 20
0.0
 30
0.0
  0
INSERT
  5
1EE
330
1D
100
AcDbEntity
  8
寸法
  6
Continuous
100
AcDbBlockReference
  2
*U19
 10
0.0
 20
0.0
 30
0.0
  0
INSERT
  5
1EF
330
1D
100
AcDbEntity
  8
寸法
  6
Continuous
100
AcDbBlockReference
  2
*U20
 10
0.0
 20
0.0
 30
0.0
  0
INSERT
  5
1F0
330
1D
100
AcDbEntity
  8
寸法
  6
Continuous
100
AcDbBlockReference
  2
*U21
 10
0.0
 20
0.0
 30
0.0
  0
LINE
  5
1F1
330
1D
100
AcDbEntity
  8
別途部材
  6
Continuous
 62
    47
100
AcDbLine
 10
159.328802
 20
11.759193
 30
0.0
 11
159.395472
 21
11.759193
 31
0.0
  0
ARC
  5
1F2
330
1D
100
AcDbEntity
  8
別途部材
  6
Continuous
 62
    47
100
AcDbCircle
 10
159.328804
 20
11.859192
 30
0.0
 40
0.1
100
AcDbArc
 50
180.0
 51
270.0
  0
LINE
  5
1F3
330
1D
100
AcDbEntity
  8
別途部材
  6
Continuous
 62
    47
100
AcDbLine
 10
159.395472
 20
11.915715
 30
0.0
 11
160.895472
 21
11.915715
 31
0.0
  0
LINE
  5
1F4
330
1D
100
AcDbEntity
  8
別途部材
  6
Continuous
 62
    47
100
AcDbLine
 10
159.328802
 20
58.372235
 30
0.0
 11
159.395472
 21
58.372235
 31
0.0
  0
ARC
  5
1F5
330
1D
100
AcDbEntity
  8
別途部材
  6
Continuous
 62
    47
100
AcDbCircle
 10
159.328804
 20
58.272235
 30
0.0
 40
0.1
100
AcDbArc
 50
90.0
 51
180.0
  0
LINE
  5
1F6
330
1D
100
AcDbEntity
  8
別途部材
  6
Continuous
 62
    47
100
AcDbLine
 10
159.395472
 20
58.215715
 30
0.0
 11
160.895472
 21
58.215715
 31
0.0
  0
LINE
  5
1F7
330
1D
100
AcDbEntity
  8
別途部材
  6
Continuous
 62
    47
100
AcDbLine
 10
72.89686
 20
-77.45040299999999
 30
0.0
 11
72.89686
 21
-77.517072
 31
0.0
  0
ARC
  5
1F8
330
1D
100
AcDbEntity
  8
別途部材
  6
Continuous
 62
    47
100
AcDbCircle
 10
72.79686100000001
 20
-77.45040400000001
 30
0.0
 40
0.1
100
AcDbArc
 50
0.0
 51
90.0
  0
LINE
  5
1F9
330
1D
100
AcDbEntity
  8
別途部材
  6
Continuous
 62
    47
100
AcDbLine
 10
72.74034
 20
-77.517072
 30
0.0
 11
72.74034
 21
-79.017072
 31
0.0
  0
LINE
  5
1FA
330
1D
100
AcDbEntity
  8
別途部材
  6
Continuous
 62
    47
100
AcDbLine
 10
-130.382848
 20
-77.45040299999999
 30
0.0
 11
-130.382848
 21
-77.517072
 31
0.0
  0
ARC
  5
1FB
330
1D
100
AcDbEntity
  8
別途部材
  6
Continuous
 62
    47
100
AcDbCircle
 10
-130.282849
 20
-77.45040400000001
 30
0.0
 40
0.1
100
AcDbArc
 50
90.0
 51
180.0
  0
LINE
  5
1FC
330
1D
100
AcDbEntity
  8
別途部材
  6
Continuous
 62
    47
100
AcDbLine
 10
-130.226325
 20
-77.517072
 30
0.0
 11
-130.226325
 21
-79.017072
 31
0.0
  0
LINE
  5
1FD
330
1D
100
AcDbEntity
  8
曲げ物
  6
Continuous
100
AcDbLine
 10
155.537835
 20
-92.53371300000001
 30
0.0
 11
155.537835
 21
-49.533713
 31
0.0
  0
LINE
  5
1FE
330
1D
100
AcDbEntity
  8
曲げ物
  6
Continuous
100
AcDbLine
 10
-77.763235
 20
36.868472
 30
0.0
 11
-81.458547
 21
33.17316
 31
0.0
  0
LINE
  5
1FF
330
1D
100
AcDbEntity
  8
曲げ物
  6
Continuous
100
AcDbLine
 10
-78.46670500000001
 20
35.332363
 30
0.0
 11
-79.92243499999999
 21
33.876633
 31
0.0
  0
LINE
  5
200
330
1D
100
AcDbEntity
  8
曲げ物
  6
Continuous
100
AcDbLine
 10
-79.299345
 20
36.165003
 30
0.0
 11
-80.75507500000001
 21
34.709273
 31
0.0
  0
LINE
  5
201
330
1D
100
AcDbEntity
  8
曲げ物
  6
Continuous
100
AcDbLine
 10
-44.418567
 20
36.868472
 30
0.0
 11
-48.11388
 21
33.17316
 31
0.0
  0
LINE
  5
202
330
1D
100
AcDbEntity
  8
曲げ物
  6
Continuous
100
AcDbLine
 10
-45.122037
 20
35.332363
 30
0.0
 11
-46.577768
 21
33.876633
 31
0.0
  0
LINE
  5
203
330
1D
100
AcDbEntity
  8
曲げ物
  6
Continuous
100
AcDbLine
 10
-45.954677
 20
36.165003
 30
0.0
 11
-47.410408
 21
34.709273
 31
0.0
  0
LINE
  5
204
330
1D
100
AcDbEntity
  8
曲げ物
  6
Continuous
100
AcDbLine
 10
-111.073902
 20
36.868472
 30
0.0
 11
-114.769215
 21
33.17316
 31
0.0
  0
LINE
  5
205
330
1D
100
AcDbEntity
  8
曲げ物
  6
Continuous
100
AcDbLine
 10
-111.777373
 20
35.332363
 30
0.0
 11
-113.233103
 21
33.876633
 31
0.0
  0
LINE
  5
206
330
1D
100
AcDbEntity
  8
曲げ物
  6
Continuous
100
AcDbLine
 10
-112.610013
 20
36.165003
 30
0.0
 11
-114.065743
 21
34.709273
 31
0.0
  0
LINE
  5
207
330
1D
100
AcDbEntity
  8
曲げ物
  6
Continuous
100
AcDbLine
 10
-11.0739
 20
36.868472
 30
0.0
 11
-14.769212
 21
33.17316
 31
0.0
  0
LINE
  5
208
330
1D
100
AcDbEntity
  8
曲げ物
  6
Continuous
100
AcDbLine
 10
-11.77737
 20
35.332363
 30
0.0
 11
-13.2331
 21
33.876633
 31
0.0
  0
LINE
  5
209
330
1D
100
AcDbEntity
  8
曲げ物
  6
Continuous
100
AcDbLine
 10
-12.61001
 20
36.165003
 30
0.0
 11
-14.06574
 21
34.709273
 31
0.0
  0
LINE
  5
20A
330
1D
100
AcDbEntity
  8
曲げ物
  6
Continuous
100
AcDbLine
 10
22.270767
 20
36.868472
 30
0.0
 11
18.575455
 21
33.17316
 31
0.0
  0
LINE
  5
20B
330
1D
100
AcDbEntity
  8
曲げ物
  6
Continuous
100
AcDbLine
 10
21.567297
 20
35.332363
 30
0.0
 11
20.111567
 21
33.876633
 31
0.0
  0
LINE
  5
20C
330
1D
100
AcDbEntity
  8
曲げ物
  6
Continuous
100
AcDbLine
 10
20.734657
 20
36.165003
 30
0.0
 11
19.278927
 21
34.709273
 31
0.0
  0
LINE
  5
20D
330
1D
100
AcDbEntity
  8
曲げ物
  6
Continuous
100
AcDbLine
 10
55.615432
 20
36.868472
 30
0.0
 11
51.92012
 21
33.17316
 31
0.0
  0
LINE
  5
20E
330
1D
100
AcDbEntity
  8
曲げ物
  6
Continuous
100
AcDbLine
 10
54.911962
 20
35.332363
 30
0.0
 11
53.456233
 21
33.876633
 31
0.0
  0
LINE
  5
20F
330
1D
100
AcDbEntity
  8
曲げ物
  6
Continuous
100
AcDbLine
 10
54.079322
 20
36.165003
 30
0.0
 11
52.623593
 21
34.709273
 31
0.0
  0
LINE
  5
210
330
1D
100
AcDbEntity
  8
曲げ物
  6
Continuous
100
AcDbLine
 10
123.147835
 20
-49.533713
 30
0.0
 11
123.147835
 21
-92.53371300000001
 31
0.0
  0
LINE
  5
211
330
1D
100
AcDbEntity
  8
曲げ物
  6
Continuous
100
AcDbLine
 10
155.537835
 20
-49.533713
 30
0.0
 11
123.147835
 21
-49.533713
 31
0.0
  0
LINE
  5
212
330
1D
100
AcDbEntity
  8
曲げ物
  6
Continuous
100
AcDbLine
 10
155.537835
 20
-92.53371300000001
 30
0.0
 11
123.147835
 21
-92.53371300000001
 31
0.0
  0
ENDSEC
  0
SECTION
  2
OBJECTS
  0
DICTIONARY
  5
C
330
0
100
AcDbDictionary
281
     1
  3
ACAD_GROUP
350
D
  3
ACAD_LAYOUT
350
1A
  3
ACAD_MLINESTYLE
350
17
  3
ACAD_PLOTSETTINGS
350
19
  3
ACAD_PLOTSTYLENAME
350
E
  0
DICTIONARY
  5
D
102
{ACAD_REACTORS
330
C
102
}
330
C
100
AcDbDictionary
281
     1
  0
DICTIONARY
  5
1A
102
{ACAD_REACTORS
330
C
102
}
330
C
100
AcDbDictionary
281
     1
  3
Layout1
350
1C
  3
Model
350
1E
  0
DICTIONARY
  5
17
102
{ACAD_REACTORS
330
C
102
}
330
C
100
AcDbDictionary
281
     1
  3
Standard
350
18
  0
DICTIONARY
  5
19
102
{ACAD_REACTORS
330
C
102
}
330
C
100
AcDbDictionary
281
     1
  0
ACDBDICTIONARYWDFLT
  5
E
102
{ACAD_REACTORS
330
C
102
}
330
C
100
AcDbDictionary
281
     1
  3
Normal
350
F
100
AcDbDictionaryWithDefault
340
F
  0
LAYOUT
  5
1C
102
{ACAD_REACTORS
330
1A
102
}
330
1A
100
AcDbPlotSettings
  1

  2

  4

  6

 40
0.0
 41
0.0
 42
0.0
 43
0.0
 44
0.0
 45
0.0
 46
0.0
 47
0.0
 48
0.0
 49
0.0
140
0.0
141
0.0
142
1.0
143
1.0
 70
   688
 72
     0
 73
     0
 74
     5
  7

 75
    16
 76
     0
 77
     2
 78
   300
147
1.0
148
0.0
149
0.0
100
AcDbLayout
  1
Layout1
 70
     1
 71
     1
 10
0.0
 20
0.0
 11
12.0
 21
9.0
 12
0.0
 22
0.0
 32
0.0
 14
1.000000000000000E+20
 24
1.000000000000000E+20
 34
1.000000000000000E+20
 15
-1.000000000000000E+20
 25
-1.000000000000000E+20
 35
-1.000000000000000E+20
146
0.0
 13
0.0
 23
0.0
 33
0.0
 16
1.0
 26
0.0
 36
0.0
 17
0.0
 27
1.0
 37
0.0
 76
     0
330
1B
  0
LAYOUT
  5
1E
102
{ACAD_REACTORS
330
1A
102
}
330
1A
100
AcDbPlotSettings
  1

  2

  4

  6

 40
0.0
 41
0.0
 42
0.0
 43
0.0
 44
0.0
 45
0.0
 46
0.0
 47
0.0
 48
0.0
 49
0.0
140
0.0
141
0.0
142
1.0
143
1.0
 70
  1712
 72
     0
 73
     0
 74
     0
  7

 75
     0
 76
     0
 77
     2
 78
   300
147
1.0
148
0.0
149
0.0
100
AcDbLayout
  1
Model
 70
     1
 71
     0
 10
0.0
 20
0.0
 11
0.0
 21
0.0
 12
0.0
 22
0.0
 32
0.0
 14
-210.0
 24
-148.5
 34
0.0
 15
210.0
 25
148.5
 35
0.0
146
0.0
 13
0.0
 23
0.0
 33
0.0
 16
1.0
 26
0.0
 36
0.0
 17
0.0
 27
1.0
 37
0.0
 76
     0
330
1D
  0
MLINESTYLE
  5
18
102
{ACAD_REACTORS
330
17
102
}
330
17
100
AcDbMlineStyle
  2
Standard
 70
     0
  3

 62
   256
 51
90.0
 52
90.0
 71
     2
 49
0.5
 62
   256
  6
BYLAYER
 49
-0.5
 62
   256
  6
BYLAYER
  0
ACDBPLACEHOLDER
  5
F
102
{ACAD_REACTORS
330
E
102
}
330
E
  0
ENDSEC
  0
EOF
