  0
SECTION
  2
HEADER
  9
$ACADVER
  1
AC1018
  9
$ACADMAINTVER
 70
     0
  9
$DWGCODEPAGE
  3
ANSI_932
  9
$INSBASE
 10
0.0
 20
0.0
 30
0.0
  9
$EXTMIN
 10
-210.0
 20
-148.5
 30
0.0
  9
$EXTMAX
 10
210.0
 20
148.5
 30
0.0
  9
$LIMMIN
 10
0.0
 20
0.0
  9
$LIMMAX
 10
12.0
 20
9.0
  9
$ORTHOMODE
 70
     0
  9
$REGENMODE
 70
     1
  9
$FILLMODE
 70
     1
  9
$QTEXTMODE
 70
     0
  9
$MIRRTEXT
 70
     1
  9
$LTSCALE
 40
10.0
  9
$ATTMODE
 70
     1
  9
$TEXTSIZE
 40
0.2
  9
$TRACEWID
 40
0.05
  9
$TEXTSTYLE
  7
STANDARD
  9
$CLAYER
  8
0
  9
$CELTYPE
  6
ByBlock
  9
$CECOLOR
 62
   256
  9
$CELTSCALE
 40
1.0
  9
$DISPSILH
 70
     0
  9
$DIMSCALE
 40
1.0
  9
$DIMASZ
 40
0.18
  9
$DIMEXO
 40
0.0625
  9
$DIMDLI
 40
0.38
  9
$DIMRND
 40
0.0
  9
$DIMDLE
 40
0.0
  9
$DIMEXE
 40
0.18
  9
$DIMTP
 40
0.0
  9
$DIMTM
 40
0.0
  9
$DIMTXT
 40
0.18
  9
$DIMCEN
 40
0.09
  9
$DIMTSZ
 40
0.0
  9
$DIMTOL
 70
     0
  9
$DIMLIM
 70
     0
  9
$DIMTIH
 70
     1
  9
$DIMTOH
 70
     1
  9
$DIMSE1
 70
     0
  9
$DIMSE2
 70
     0
  9
$DIMTAD
 70
     0
  9
$DIMZIN
 70
     0
  9
$DIMBLK
  1

  9
$DIMASO
 70
     1
  9
$DIMSHO
 70
     1
  9
$DIMPOST
  1

  9
$DIMAPOST
  1

  9
$DIMALT
 70
     0
  9
$DIMALTD
 70
     2
  9
$DIMALTF
 40
25.4
  9
$DIMLFAC
 40
1.0
  9
$DIMTOFL
 70
     0
  9
$DIMTVP
 40
0.0
  9
$DIMTIX
 70
     0
  9
$DIMSOXD
 70
     0
  9
$DIMSAH
 70
     0
  9
$DIMBLK1
  1

  9
$DIMBLK2
  1

  9
$DIMSTYLE
  2
Standard
  9
$DIMCLRD
 70
     0
  9
$DIMCLRE
 70
     0
  9
$DIMCLRT
 70
     0
  9
$DIMTFAC
 40
1.0
  9
$DIMGAP
 40
0.09
  9
$DIMJUST
 70
     0
  9
$DIMSD1
 70
     0
  9
$DIMSD2
 70
     0
  9
$DIMTOLJ
 70
     1
  9
$DIMTZIN
 70
     0
  9
$DIMALTZ
 70
     0
  9
$DIMALTTZ
 70
     0
  9
$DIMUPT
 70
     0
  9
$DIMDEC
 70
     4
  9
$DIMTDEC
 70
     4
  9
$DIMALTU
 70
     2
  9
$DIMALTTD
 70
     2
  9
$DIMTXSTY
  7
STANDARD
  9
$DIMAUNIT
 70
     0
  9
$DIMADEC
 70
     0
  9
$DIMALTRND
 40
0.0
  9
$DIMAZIN
 70
     0
  9
$DIMDSEP
 70
    46
  9
$DIMATFIT
 70
     3
  9
$DIMFRAC
 70
     0
  9
$DIMLDRBLK
  1

  9
$DIMLUNIT
 70
     2
  9
$DIMLWD
 70
    -2
  9
$DIMLWE
 70
    -2
  9
$DIMTMOVE
 70
     0
  9
$LUNITS
 70
     2
  9
$LUPREC
 70
     4
  9
$SKETCHINC
 40
0.1
  9
$FILLETRAD
 40
0.5
  9
$AUNITS
 70
     0
  9
$AUPREC
 70
     0
  9
$MENU
  1
.
  9
$ELEVATION
 40
0.0
  9
$PELEVATION
 40
0.0
  9
$THICKNESS
 40
0.0
  9
$LIMCHECK
 70
     0
  9
$CHAMFERA
 40
0.5
  9
$CHAMFERB
 40
0.5
  9
$CHAMFERC
 40
1.0
  9
$CHAMFERD
 40
0.0
  9
$SKPOLY
 70
     0
  9
$TDCREATE
 40
2460242.412767234
  9
$TDUCREATE
 40
2460242.037767234
  9
$TDUPDATE
 40
2460242.412767245
  9
$TDUUPDATE
 40
2460242.037767245
  9
$TDINDWG
 40
0.0000000116
  9
$TDUSRTIMER
 40
0.0000000116
  9
$USRTIMER
 70
     1
  9
$ANGBASE
 50
0.0
  9
$ANGDIR
 70
     0
  9
$PDMODE
 70
    32
  9
$PDSIZE
 40
1.5
  9
$PLINEWID
 40
0.0
  9
$SPLFRAME
 70
     0
  9
$SPLINETYPE
 70
     6
  9
$SPLINESEGS
 70
     8
  9
$HANDSEED
  5
1BD
  9
$SURFTAB1
 70
     6
  9
$SURFTAB2
 70
     6
  9
$SURFTYPE
 70
     6
  9
$SURFU
 70
     6
  9
$SURFV
 70
     6
  9
$UCSBASE
  2

  9
$UCSNAME
  2

  9
$UCSORG
 10
0.0
 20
0.0
 30
0.0
  9
$UCSXDIR
 10
1.0
 20
0.0
 30
0.0
  9
$UCSYDIR
 10
0.0
 20
1.0
 30
0.0
  9
$UCSORTHOREF
  2

  9
$UCSORTHOVIEW
 70
     0
  9
$UCSORGTOP
 10
0.0
 20
0.0
 30
0.0
  9
$UCSORGBOTTOM
 10
0.0
 20
0.0
 30
0.0
  9
$UCSORGLEFT
 10
0.0
 20
0.0
 30
0.0
  9
$UCSORGRIGHT
 10
0.0
 20
0.0
 30
0.0
  9
$UCSORGFRONT
 10
0.0
 20
0.0
 30
0.0
  9
$UCSORGBACK
 10
0.0
 20
0.0
 30
0.0
  9
$PUCSBASE
  2

  9
$PUCSNAME
  2

  9
$PUCSORG
 10
0.0
 20
0.0
 30
0.0
  9
$PUCSXDIR
 10
1.0
 20
0.0
 30
0.0
  9
$PUCSYDIR
 10
0.0
 20
1.0
 30
0.0
  9
$PUCSORTHOREF
  2

  9
$PUCSORTHOVIEW
 70
     0
  9
$PUCSORGTOP
 10
0.0
 20
0.0
 30
0.0
  9
$PUCSORGBOTTOM
 10
0.0
 20
0.0
 30
0.0
  9
$PUCSORGLEFT
 10
0.0
 20
0.0
 30
0.0
  9
$PUCSORGRIGHT
 10
0.0
 20
0.0
 30
0.0
  9
$PUCSORGFRONT
 10
0.0
 20
0.0
 30
0.0
  9
$PUCSORGBACK
 10
0.0
 20
0.0
 30
0.0
  9
$USERI1
 70
     0
  9
$USERI2
 70
     0
  9
$USERI3
 70
     0
  9
$USERI4
 70
     0
  9
$USERI5
 70
     0
  9
$USERR1
 40
0.0
  9
$USERR2
 40
0.0
  9
$USERR3
 40
0.0
  9
$USERR4
 40
0.0
  9
$USERR5
 40
0.0
  9
$WORLDVIEW
 70
     1
  9
$SHADEDGE
 70
     3
  9
$SHADEDIF
 70
    70
  9
$TILEMODE
 70
     1
  9
$MAXACTVP
 70
    64
  9
$PINSBASE
 10
0.0
 20
0.0
 30
0.0
  9
$PLIMCHECK
 70
     0
  9
$PEXTMIN
 10
1.000000000000000E+20
 20
1.000000000000000E+20
 30
1.000000000000000E+20
  9
$PEXTMAX
 10
-1.000000000000000E+20
 20
-1.000000000000000E+20
 30
-1.000000000000000E+20
  9
$PLIMMIN
 10
0.0
 20
0.0
  9
$PLIMMAX
 10
12.0
 20
9.0
  9
$UNITMODE
 70
     0
  9
$VISRETAIN
 70
     1
  9
$PLINEGEN
 70
     0
  9
$PSLTSCALE
 70
     1
  9
$TREEDEPTH
 70
  3020
  9
$CMLSTYLE
  2
Standard
  9
$CMLJUST
 70
     0
  9
$CMLSCALE
 40
1.0
  9
$PROXYGRAPHICS
 70
     1
  9
$MEASUREMENT
 70
     0
  9
$CELWEIGHT
370
    -1
  9
$ENDCAPS
280
     0
  9
$JOINSTYLE
280
     0
  9
$LWDISPLAY
290
     0
  9
$INSUNITS
 70
     0
  9
$HYPERLINKBASE
  1

  9
$STYLESHEET
  1

  9
$XEDIT
290
     1
  9
$CEPSNTYPE
380
     0
  9
$PSTYLEMODE
290
     1
  9
$FINGERPRINTGUID
  2
{A93C75D0-EAF2-4358-BA97-1F3EB3FEE522}
  9
$VERSIONGUID
  2
{FAEB1C32-E019-11D5-929B-00C0DF256EC4}
  9
$EXTNAMES
290
     1
  9
$PSVPSCALE
 40
0.0
  9
$OLESTARTUP
290
     0
  9
$SORTENTS
280
   127
  9
$INDEXCTL
280
     0
  9
$HIDETEXT
280
     1
  9
$XCLIPFRAME
290
     0
  9
$HALOGAP
280
     0
  9
$OBSCOLOR
 70
   257
  9
$OBSLTYPE
280
     0
  9
$INTERSECTIONDISPLAY
280
     0
  9
$INTERSECTIONCOLOR
 70
   257
  9
$DIMASSOC
280
     2
  9
$PROJECTNAME
  1

  0
ENDSEC
  0
SECTION
  2
CLASSES
  0
CLASS
  1
ACDBDICTIONARYWDFLT
  2
AcDbDictionaryWithDefault
  3
ObjectDBX Classes
 90
        0
 91
        3
280
     0
281
     0
  0
ENDSEC
  0
SECTION
  2
TABLES
  0
TABLE
  2
VPORT
  5
8
330
0
100
AcDbSymbolTable
 70
     1
  0
VPORT
  5
1B8
330
8
100
AcDbSymbolTableRecord
100
AcDbViewportTableRecord
  2
*Active
 70
     0
 10
0.0
 20
0.0
 11
1.0
 21
1.0
 12
10.42990654205607
 22
4.5
 13
0.0
 23
0.0
 14
0.5
 24
0.5
 15
0.5
 25
0.5
 16
0.0
 26
0.0
 36
1.0
 17
0.0
 27
0.0
 37
0.0
 40
9.0
 41
1.972972972850329
 42
50.0
 43
0.0
 44
0.0
 50
0.0
 51
0.0
 71
     0
 72
   100
 73
     1
 74
     3
 75
     0
 76
     0
 77
     0
 78
     0
281
     0
 65
     1
110
0.0
120
0.0
130
0.0
111
1.0
121
0.0
131
0.0
112
0.0
122
1.0
132
0.0
 79
     0
146
0.0
  0
ENDTAB
  0
TABLE
  2
LTYPE
  5
5
330
0
100
AcDbSymbolTable
 70
     9
  0
LTYPE
  5
14
330
5
100
AcDbSymbolTableRecord
100
AcDbLinetypeTableRecord
  2
ByBlock
 70
     0
  3

 72
    65
 73
     0
 40
0.0
  0
LTYPE
  5
15
330
5
100
AcDbSymbolTableRecord
100
AcDbLinetypeTableRecord
  2
ByLayer
 70
     0
  3

 72
    65
 73
     0
 40
0.0
  0
LTYPE
  5
16
330
5
100
AcDbSymbolTableRecord
100
AcDbLinetypeTableRecord
  2
CONTINUOUS
 70
     0
  3
実線
 72
    65
 73
     0
 40
0.0
  0
LTYPE
  5
21
330
5
100
AcDbSymbolTableRecord
100
AcDbLinetypeTableRecord
  2
DASHED
 70
     0
  3
破線A
 72
    65
 73
     2
 40
0.6000000000000001
 49
0.4
 74
     0
 49
-0.2
 74
     0
  0
LTYPE
  5
22
330
5
100
AcDbSymbolTableRecord
100
AcDbLinetypeTableRecord
  2
DASHEDX2
 70
     0
  3
破線B
 72
    65
 73
     2
 40
1.3
 49
0.9
 74
     0
 49
-0.4
 74
     0
  0
LTYPE
  5
23
330
5
100
AcDbSymbolTableRecord
100
AcDbLinetypeTableRecord
  2
DASHDOT
 70
     0
  3
１点鎖線A
 72
    65
 73
     4
 40
0.5375
 49
0.375
 74
     0
 49
-0.05
 74
     0
 49
0.0625
 74
     0
 49
-0.05
 74
     0
  0
LTYPE
  5
24
330
5
100
AcDbSymbolTableRecord
100
AcDbLinetypeTableRecord
  2
DASHDOTX2
 70
     0
  3
１点鎖線B
 72
    65
 73
     4
 40
1.075
 49
0.75
 74
     0
 49
-0.1
 74
     0
 49
0.125
 74
     0
 49
-0.1
 74
     0
  0
LTYPE
  5
25
330
5
100
AcDbSymbolTableRecord
100
AcDbLinetypeTableRecord
  2
DIVIDE2
 70
     0
  3
２点鎖線A
 72
    65
 73
     6
 40
0.5125
 49
0.3
 74
     0
 49
-0.0375
 74
     0
 49
0.05
 74
     0
 49
-0.0375
 74
     0
 49
0.05
 74
     0
 49
-0.0375
 74
     0
  0
LTYPE
  5
26
330
5
100
AcDbSymbolTableRecord
100
AcDbLinetypeTableRecord
  2
DIVIDE
 70
     0
  3
２点鎖線B
 72
    65
 73
     6
 40
1.05
 49
0.55
 74
     0
 49
-0.1
 74
     0
 49
0.1
 74
     0
 49
-0.1
 74
     0
 49
0.1
 74
     0
 49
-0.1
 74
     0
  0
LTYPE
  5
27
330
5
100
AcDbSymbolTableRecord
100
AcDbLinetypeTableRecord
  2
DOT
 70
     0
  3
点線A
 72
    65
 73
     2
 40
0.1125
 49
0.0625
 74
     0
 49
-0.05
 74
     0
  0
LTYPE
  5
28
330
5
100
AcDbSymbolTableRecord
100
AcDbLinetypeTableRecord
  2
DOTX2
 70
     0
  3
点線B
 72
    65
 73
     2
 40
0.275
 49
0.15
 74
     0
 49
-0.125
 74
     0
  0
ENDTAB
  0
TABLE
  2
LAYER
  5
2
330
0
100
AcDbSymbolTable
 70
    34
  0
LAYER
  5
10
330
2
100
AcDbSymbolTableRecord
100
AcDbLayerTableRecord
  2
0
 70
     0
 62
    17
  6
CONTINUOUS
370
    -3
390
F
  0
LAYER
  5
2F
330
2
100
AcDbSymbolTableRecord
100
AcDbLayerTableRecord
  2
通り芯
 70
     0
 62
    15
  6
CONTINUOUS
370
    -3
390
F
  0
LAYER
  5
30
330
2
100
AcDbSymbolTableRecord
100
AcDbLayerTableRecord
  2
補助線
 70
     0
 62
    16
  6
DOT
370
    -3
390
F
  0
LAYER
  5
31
330
2
100
AcDbSymbolTableRecord
100
AcDbLayerTableRecord
  2
躯体
 70
     0
 62
    31
  6
CONTINUOUS
370
    -3
390
F
  0
LAYER
  5
32
330
2
100
AcDbSymbolTableRecord
100
AcDbLayerTableRecord
  2
型材
 70
     0
 62
    32
  6
CONTINUOUS
370
    -3
390
F
  0
LAYER
  5
33
330
2
100
AcDbSymbolTableRecord
100
AcDbLayerTableRecord
  2
型材断面
 70
     0
 62
    47
  6
CONTINUOUS
370
    -3
390
F
  0
LAYER
  5
34
330
2
100
AcDbSymbolTableRecord
100
AcDbLayerTableRecord
  2
ガラス
 70
     0
 62
    48
  6
CONTINUOUS
370
    -3
390
F
  0
LAYER
  5
35
330
2
100
AcDbSymbolTableRecord
100
AcDbLayerTableRecord
  2
ゴム等
 70
     0
 62
    63
  6
CONTINUOUS
370
    -3
390
F
  0
LAYER
  5
36
330
2
100
AcDbSymbolTableRecord
100
AcDbLayerTableRecord
  2
ボルト／ビス
 70
     0
 62
    64
  6
CONTINUOUS
370
    -3
390
F
  0
LAYER
  5
37
330
2
100
AcDbSymbolTableRecord
100
AcDbLayerTableRecord
  2
文字
 70
     0
 62
    79
  6
CONTINUOUS
370
    -3
390
F
  0
LAYER
  5
38
330
2
100
AcDbSymbolTableRecord
100
AcDbLayerTableRecord
  2
寸法
 70
     0
 62
    80
  6
CONTINUOUS
370
    -3
390
F
  0
LAYER
  5
39
330
2
100
AcDbSymbolTableRecord
100
AcDbLayerTableRecord
  2
ﾊｯﾁﾝｸﾞ
 70
     0
 62
    95
  6
CONTINUOUS
370
    -3
390
F
  0
LAYER
  5
3A
330
2
100
AcDbSymbolTableRecord
100
AcDbLayerTableRecord
  2
別途部材
 70
     0
 62
    96
  6
CONTINUOUS
370
    -3
390
F
  0
LAYER
  5
3B
330
2
100
AcDbSymbolTableRecord
100
AcDbLayerTableRecord
  2
曲げ物
 70
     0
 62
   111
  6
CONTINUOUS
370
    -3
390
F
  0
LAYER
  5
3C
330
2
100
AcDbSymbolTableRecord
100
AcDbLayerTableRecord
  2
鉄骨等
 70
     0
 62
   112
  6
CONTINUOUS
370
    -3
390
F
  0
LAYER
  5
3D
330
2
100
AcDbSymbolTableRecord
100
AcDbLayerTableRecord
  2
St
 70
     0
 62
   127
  6
CONTINUOUS
370
    -3
390
F
  0
LAYER
  5
3E
330
2
100
AcDbSymbolTableRecord
100
AcDbLayerTableRecord
  2
その他部品等
 70
     0
 62
   128
  6
CONTINUOUS
370
    -3
390
F
  0
LAYER
  5
3F
330
2
100
AcDbSymbolTableRecord
100
AcDbLayerTableRecord
  2
ｶﾞｽｹｯﾄ
 70
     0
 62
   143
  6
CONTINUOUS
370
    -3
390
F
  0
LAYER
  5
40
330
2
100
AcDbSymbolTableRecord
100
AcDbLayerTableRecord
  2
ｽｹｯﾁ
 70
     0
 62
    14
  6
CONTINUOUS
370
    -3
390
F
  0
LAYER
  5
42
330
2
100
AcDbSymbolTableRecord
100
AcDbLayerTableRecord
  2
1
 70
     0
 62
    30
  6
CONTINUOUS
370
    -3
390
F
  0
LAYER
  5
43
330
2
100
AcDbSymbolTableRecord
100
AcDbLayerTableRecord
  2
4
 70
     0
 62
    33
  6
CONTINUOUS
370
    -3
390
F
  0
LAYER
  5
44
330
2
100
AcDbSymbolTableRecord
100
AcDbLayerTableRecord
  2
ﾚｲﾔ3
 70
     0
 62
    46
  6
CONTINUOUS
370
    -3
390
F
  0
LAYER
  5
45
330
2
100
AcDbSymbolTableRecord
100
AcDbLayerTableRecord
  2
外形線
 70
     0
 62
    49
  6
CONTINUOUS
370
    -3
390
F
  0
LAYER
  5
46
330
2
100
AcDbSymbolTableRecord
100
AcDbLayerTableRecord
  2
部品
 70
     0
 62
    14
  6
CONTINUOUS
370
    -3
390
F
  0
LAYER
  5
47
330
2
100
AcDbSymbolTableRecord
100
AcDbLayerTableRecord
  2
サッシ芯
 70
     0
 62
    17
  6
DASHDOTX2
370
    -3
390
F
  0
LAYER
  5
48
330
2
100
AcDbSymbolTableRecord
100
AcDbLayerTableRecord
  2
寸法線
 70
     0
 62
    62
  6
CONTINUOUS
370
    -3
390
F
  0
LAYER
  5
49
330
2
100
AcDbSymbolTableRecord
100
AcDbLayerTableRecord
  2
姿図外形線
 70
     0
 62
    65
  6
CONTINUOUS
370
    -3
390
F
  0
LAYER
  5
4A
330
2
100
AcDbSymbolTableRecord
100
AcDbLayerTableRecord
  2
姿補助線
 70
     0
 62
    30
  6
CONTINUOUS
370
    -3
390
F
  0
LAYER
  5
4B
330
2
100
AcDbSymbolTableRecord
100
AcDbLayerTableRecord
  2
透視線
 70
     0
 62
    78
  6
DOT
370
    -3
390
F
  0
LAYER
  5
4C
330
2
100
AcDbSymbolTableRecord
100
AcDbLayerTableRecord
  2
用紙
 70
     0
 62
    81
  6
CONTINUOUS
370
    -3
390
F
  0
LAYER
  5
4D
330
2
100
AcDbSymbolTableRecord
100
AcDbLayerTableRecord
  2
実線図枠
 70
     0
 62
    94
  6
CONTINUOUS
370
    -3
390
F
  0
LAYER
  5
4E
330
2
100
AcDbSymbolTableRecord
100
AcDbLayerTableRecord
  2
補助図枠
 70
     0
 62
    97
  6
CONTINUOUS
370
    -3
390
F
  0
LAYER
  5
4F
330
2
100
AcDbSymbolTableRecord
100
AcDbLayerTableRecord
  2
建具記号
 70
     0
 62
   110
  6
CONTINUOUS
370
    -3
390
F
  0
LAYER
  5
50
330
2
100
AcDbSymbolTableRecord
100
AcDbLayerTableRecord
  2
補助文字
 70
     0
 62
   113
  6
CONTINUOUS
370
    -3
390
F
  0
ENDTAB
  0
TABLE
  2
STYLE
  5
3
330
0
100
AcDbSymbolTable
 70
    10
  0
STYLE
  5
11
330
3
100
AcDbSymbolTableRecord
100
AcDbTextStyleTableRecord
  2
STANDARD
 70
     0
 40
1.0
 41
1.0
 50
0.0
 71
     0
 42
1.0
  3
TXT
  4
BIGFONT
  0
STYLE
  5
52
330
3
100
AcDbSymbolTableRecord
100
AcDbTextStyleTableRecord
  2
TATE
 70
     4
 40
1.0
 41
1.0
 50
0.0
 71
     0
 42
1.0
  3
TXT
  4
BIGFONT
  0
STYLE
  5
53
330
3
100
AcDbSymbolTableRecord
100
AcDbTextStyleTableRecord
  2
TextStyle03
 70
     0
 40
1.0
 41
1.0
 50
0.0
 71
     0
 42
1.0
  3
MONOTXT
  4
BIGFONT
  0
STYLE
  5
54
330
3
100
AcDbSymbolTableRecord
100
AcDbTextStyleTableRecord
  2
TextStyle04
 70
     0
 40
1.0
 41
1.0
 50
0.0
 71
     0
 42
1.0
  3
MONOTXT
  4
BIGFONT
  0
STYLE
  5
55
330
3
100
AcDbSymbolTableRecord
100
AcDbTextStyleTableRecord
  2
TextStyle05
 70
     0
 40
1.0
 41
1.0
 50
0.0
 71
     0
 42
1.0
  3
MONOTXT
  4
BIGFONT
  0
STYLE
  5
56
330
3
100
AcDbSymbolTableRecord
100
AcDbTextStyleTableRecord
  2
TextStyle06
 70
     0
 40
1.0
 41
1.0
 50
0.0
 71
     0
 42
1.0
  3
MONOTXT
  4
BIGFONT
  0
STYLE
  5
57
330
3
100
AcDbSymbolTableRecord
100
AcDbTextStyleTableRecord
  2
TextStyle07
 70
     0
 40
1.0
 41
1.0
 50
0.0
 71
     0
 42
1.0
  3
MONOTXT
  4
BIGFONT
  0
STYLE
  5
58
330
3
100
AcDbSymbolTableRecord
100
AcDbTextStyleTableRecord
  2
TextStyle08
 70
     0
 40
1.0
 41
1.0
 50
0.0
 71
     0
 42
1.0
  3
MONOTXT
  4
BIGFONT
  0
STYLE
  5
59
330
3
100
AcDbSymbolTableRecord
100
AcDbTextStyleTableRecord
  2
TextStyle09
 70
     0
 40
1.0
 41
1.0
 50
0.0
 71
     0
 42
1.0
  3
MONOTXT
  4
BIGFONT
  0
STYLE
  5
5A
330
3
100
AcDbSymbolTableRecord
100
AcDbTextStyleTableRecord
  2
TextStyle10
 70
     0
 40
1.0
 41
1.0
 50
0.0
 71
     0
 42
1.0
  3
MONOTXT
  4
BIGFONT
  0
ENDTAB
  0
TABLE
  2
VIEW
  5
6
330
0
100
AcDbSymbolTable
 70
     0
  0
ENDTAB
  0
TABLE
  2
UCS
  5
7
330
0
100
AcDbSymbolTable
 70
     0
  0
ENDTAB
  0
TABLE
  2
APPID
  5
9
330
0
100
AcDbSymbolTable
 70
     1
  0
APPID
  5
12
330
9
100
AcDbSymbolTableRecord
100
AcDbRegAppTableRecord
  2
ACAD
 70
     0
  0
ENDTAB
  0
TABLE
  2
DIMSTYLE
  5
A
330
0
100
AcDbSymbolTable
 70
     1
100
AcDbDimStyleTable
  0
DIMSTYLE
105
5B
330
A
100
AcDbSymbolTableRecord
100
AcDbDimStyleTableRecord
  2
Standard
 70
     0
340
11
  0
ENDTAB
  0
TABLE
  2
BLOCK_RECORD
  5
1
330
0
100
AcDbSymbolTable
 70
    16
  0
BLOCK_RECORD
  5
1D
330
1
100
AcDbSymbolTableRecord
100
AcDbBlockTableRecord
  2
*Model_Space
340
1E
  0
BLOCK_RECORD
  5
1B
330
1
100
AcDbSymbolTableRecord
100
AcDbBlockTableRecord
  2
*Paper_Space
340
1C
  0
BLOCK_RECORD
  5
5D
330
1
100
AcDbSymbolTableRecord
100
AcDbBlockTableRecord
  2
*U0
340
0
102
{BLKREFS
331
E0
102
}
  0
BLOCK_RECORD
  5
66
330
1
100
AcDbSymbolTableRecord
100
AcDbBlockTableRecord
  2
*U1
340
0
102
{BLKREFS
331
18A
102
}
  0
BLOCK_RECORD
  5
6D
330
1
100
AcDbSymbolTableRecord
100
AcDbBlockTableRecord
  2
*U2
340
0
102
{BLKREFS
331
18B
102
}
  0
BLOCK_RECORD
  5
76
330
1
100
AcDbSymbolTableRecord
100
AcDbBlockTableRecord
  2
*U3
340
0
102
{BLKREFS
331
18C
102
}
  0
BLOCK_RECORD
  5
7D
330
1
100
AcDbSymbolTableRecord
100
AcDbBlockTableRecord
  2
*U4
340
0
102
{BLKREFS
331
18D
102
}
  0
BLOCK_RECORD
  5
86
330
1
100
AcDbSymbolTableRecord
100
AcDbBlockTableRecord
  2
*U5
340
0
102
{BLKREFS
331
18E
102
}
  0
BLOCK_RECORD
  5
8F
330
1
100
AcDbSymbolTableRecord
100
AcDbBlockTableRecord
  2
*U6
340
0
102
{BLKREFS
331
18F
102
}
  0
BLOCK_RECORD
  5
96
330
1
100
AcDbSymbolTableRecord
100
AcDbBlockTableRecord
  2
*U7
340
0
102
{BLKREFS
331
190
102
}
  0
BLOCK_RECORD
  5
9D
330
1
100
AcDbSymbolTableRecord
100
AcDbBlockTableRecord
  2
*U8
340
0
102
{BLKREFS
331
191
102
}
  0
BLOCK_RECORD
  5
A5
330
1
100
AcDbSymbolTableRecord
100
AcDbBlockTableRecord
  2
*U9
340
0
102
{BLKREFS
331
192
102
}
  0
BLOCK_RECORD
  5
AD
330
1
100
AcDbSymbolTableRecord
100
AcDbBlockTableRecord
  2
*U10
340
0
102
{BLKREFS
331
193
102
}
  0
BLOCK_RECORD
  5
B5
330
1
100
AcDbSymbolTableRecord
100
AcDbBlockTableRecord
  2
*U11
340
0
102
{BLKREFS
331
194
102
}
  0
BLOCK_RECORD
  5
BD
330
1
100
AcDbSymbolTableRecord
100
AcDbBlockTableRecord
  2
*U12
340
0
102
{BLKREFS
331
195
102
}
  0
BLOCK_RECORD
  5
C6
330
1
100
AcDbSymbolTableRecord
100
AcDbBlockTableRecord
  2
*U13
340
0
102
{BLKREFS
331
196
102
}
  0
BLOCK_RECORD
  5
CD
330
1
100
AcDbSymbolTableRecord
100
AcDbBlockTableRecord
  2
*U14
340
0
102
{BLKREFS
331
197
102
}
  0
BLOCK_RECORD
  5
D4
330
1
100
AcDbSymbolTableRecord
100
AcDbBlockTableRecord
  2
*U15
340
0
102
{BLKREFS
331
198
102
}
  0
ENDTAB
  0
ENDSEC
  0
SECTION
  2
BLOCKS
  0
BLOCK
  5
1B9
330
1D
100
AcDbEntity
  8
0
100
AcDbBlockBegin
  2
*Model_Space
 70
     0
 71
     0
 10
0.0
 20
0.0
 30
0.0
  3
*Model_Space
  1

  0
ENDBLK
  5
1BA
330
1D
100
AcDbEntity
  8
0
100
AcDbBlockEnd
  0
BLOCK
  5
1BB
330
1B
100
AcDbEntity
 67
     1
  8
0
100
AcDbBlockBegin
  2
*Paper_Space
 70
     0
 71
     0
 10
0.0
 20
0.0
 30
0.0
  3
*Paper_Space
  1

  0
ENDBLK
  5
1BC
330
1B
100
AcDbEntity
 67
     1
  8
0
100
AcDbBlockEnd
  0
BLOCK
  5
5C
330
5D
100
AcDbEntity
  8
0
100
AcDbBlockBegin
  2
*U0
 70
     1
 71
     0
 10
0.0
 20
0.0
 30
0.0
  3
*U0
  1

  0
LINE
  5
5E
330
5D
100
AcDbEntity
  8
型材断面
  6
Continuous
100
AcDbLine
 10
195.0
 20
133.5
 30
0.0
 11
195.0
 21
-133.5
 31
0.0
  0
LINE
  5
5F
330
5D
100
AcDbEntity
  8
型材断面
  6
Continuous
100
AcDbLine
 10
195.0
 20
-133.5
 30
0.0
 11
-185.0
 21
-133.5
 31
0.0
  0
LINE
  5
60
330
5D
100
AcDbEntity
  8
型材断面
  6
Continuous
100
AcDbLine
 10
-185.0
 20
-133.5
 30
0.0
 11
-185.0
 21
133.5
 31
0.0
  0
LINE
  5
61
330
5D
100
AcDbEntity
  8
型材断面
  6
Continuous
100
AcDbLine
 10
195.0
 20
133.5
 30
0.0
 11
-185.0
 21
133.5
 31
0.0
  0
LINE
  5
62
330
5D
100
AcDbEntity
  8
型材断面
  6
Continuous
100
AcDbLine
 10
145.0
 20
-133.5
 30
0.0
 11
145.0
 21
-118.5
 31
0.0
  0
LINE
  5
63
330
5D
100
AcDbEntity
  8
型材断面
  6
Continuous
100
AcDbLine
 10
195.0
 20
-118.5
 30
0.0
 11
145.0
 21
-118.5
 31
0.0
  0
ENDBLK
  5
64
330
5D
100
AcDbEntity
  8
0
100
AcDbBlockEnd
  0
BLOCK
  5
65
330
66
100
AcDbEntity
  8
0
100
AcDbBlockBegin
  2
*U1
 70
     1
 71
     0
 10
0.0
 20
0.0
 30
0.0
  3
*U1
  1

  0
LINE
  5
67
330
66
100
AcDbEntity
  8
寸法
  6
ByBlock
 62
     0
100
AcDbLine
 10
4.712865
 20
-13.121378
 30
0.0
 11
-95.28713500000001
 21
-13.121378
 31
0.0
  0
POINT
  5
68
330
66
100
AcDbEntity
  8
寸法
 62
     0
100
AcDbPoint
 10
4.712865
 20
-13.121378
 30
0.0
  0
POINT
  5
69
330
66
100
AcDbEntity
  8
寸法
 62
     0
100
AcDbPoint
 10
-95.28713500000001
 20
-13.121378
 30
0.0
  0
TEXT
  5
6A
330
66
100
AcDbEntity
  8
寸法
  6
Continuous
 62
     0
100
AcDbText
 10
-57.01875
 20
-12.75
 30
0.0
 40
3.0
  1
呼称寸法　3000
  7
TextStyle03
 72
     5
 11
-33.58125
 21
-12.75
 31
0.0
100
AcDbText
  0
ENDBLK
  5
6B
330
66
100
AcDbEntity
  8
0
100
AcDbBlockEnd
  0
BLOCK
  5
6C
330
6D
100
AcDbEntity
  8
0
100
AcDbBlockBegin
  2
*U2
 70
     1
 71
     0
 10
0.0
 20
0.0
 30
0.0
  3
*U2
  1

  0
LINE
  5
6E
330
6D
100
AcDbEntity
  8
寸法
  6
ByBlock
 62
     0
100
AcDbLine
 10
-78.62046700000001
 20
19.183902
 30
0.0
 11
-78.62046700000001
 21
14.10329
 31
0.0
  0
LINE
  5
6F
330
6D
100
AcDbEntity
  8
寸法
  6
ByBlock
 62
     0
100
AcDbLine
 10
-11.953802
 20
19.183902
 30
0.0
 11
-11.953802
 21
14.10329
 31
0.0
  0
LINE
  5
70
330
6D
100
AcDbEntity
  8
寸法
  6
ByBlock
 62
     0
100
AcDbLine
 10
-78.62046700000001
 20
14.10329
 30
0.0
 11
-11.953802
 21
14.10329
 31
0.0
  0
POINT
  5
71
330
6D
100
AcDbEntity
  8
寸法
 62
     0
100
AcDbPoint
 10
-78.62046700000001
 20
14.10329
 30
0.0
  0
POINT
  5
72
330
6D
100
AcDbEntity
  8
寸法
 62
     0
100
AcDbPoint
 10
-11.953802
 20
14.10329
 30
0.0
  0
TEXT
  5
73
330
6D
100
AcDbEntity
  8
寸法
  6
Continuous
 62
     0
100
AcDbText
 10
-48.55625
 20
14.475
 30
0.0
 40
3.0
  1
2000
  7
TextStyle03
 72
     5
 11
-41.99375
 21
14.475
 31
0.0
100
AcDbText
  0
ENDBLK
  5
74
330
6D
100
AcDbEntity
  8
0
100
AcDbBlockEnd
  0
BLOCK
  5
75
330
76
100
AcDbEntity
  8
0
100
AcDbBlockBegin
  2
*U3
 70
     1
 71
     0
 10
0.0
 20
0.0
 30
0.0
  3
*U3
  1

  0
LINE
  5
77
330
76
100
AcDbEntity
  8
寸法
  6
ByBlock
 62
     0
100
AcDbLine
 10
38.732515
 20
22.814033
 30
0.0
 11
38.732515
 21
42.814033
 31
0.0
  0
POINT
  5
78
330
76
100
AcDbEntity
  8
寸法
 62
     0
100
AcDbPoint
 10
38.732515
 20
22.814033
 30
0.0
  0
POINT
  5
79
330
76
100
AcDbEntity
  8
寸法
 62
     0
100
AcDbPoint
 10
38.732515
 20
42.814033
 30
0.0
  0
TEXT
  5
7A
330
76
100
AcDbEntity
  8
寸法
  6
Continuous
 62
     0
100
AcDbText
 10
38.35
 20
21.925
 30
0.0
 40
3.0
  1
呼称寸法　600
 50
90.0
  7
TextStyle03
 72
     5
 11
38.35
 21
43.675
 31
0.0
100
AcDbText
  0
ENDBLK
  5
7B
330
76
100
AcDbEntity
  8
0
100
AcDbBlockEnd
  0
BLOCK
  5
7C
330
7D
100
AcDbEntity
  8
0
100
AcDbBlockBegin
  2
*U4
 70
     1
 71
     0
 10
0.0
 20
0.0
 30
0.0
  3
*U4
  1

  0
LINE
  5
7E
330
7D
100
AcDbEntity
  8
寸法
  6
ByBlock
 62
     0
100
AcDbLine
 10
-98.28713500000001
 20
39.4807
 30
0.0
 11
-111.579972
 21
39.4807
 31
0.0
  0
LINE
  5
7F
330
7D
100
AcDbEntity
  8
寸法
  6
ByBlock
 62
     0
100
AcDbLine
 10
-98.28713500000001
 20
26.147365
 30
0.0
 11
-111.579972
 21
26.147365
 31
0.0
  0
LINE
  5
80
330
7D
100
AcDbEntity
  8
寸法
  6
ByBlock
 62
     0
100
AcDbLine
 10
-111.579972
 20
39.4807
 30
0.0
 11
-111.579972
 21
26.147365
 31
0.0
  0
POINT
  5
81
330
7D
100
AcDbEntity
  8
寸法
 62
     0
100
AcDbPoint
 10
-111.579972
 20
39.4807
 30
0.0
  0
POINT
  5
82
330
7D
100
AcDbEntity
  8
寸法
 62
     0
100
AcDbPoint
 10
-111.579972
 20
26.147365
 30
0.0
  0
TEXT
  5
83
330
7D
100
AcDbEntity
  8
寸法
  6
Continuous
 62
     0
100
AcDbText
 10
-112.0
 20
30.3625
 30
0.0
 40
3.0
  1
400
 50
90.0
  7
TextStyle03
 72
     5
 11
-112.0
 21
35.2375
 31
0.0
100
AcDbText
  0
ENDBLK
  5
84
330
7D
100
AcDbEntity
  8
0
100
AcDbBlockEnd
  0
BLOCK
  5
85
330
86
100
AcDbEntity
  8
0
100
AcDbBlockBegin
  2
*U5
 70
     1
 71
     0
 10
0.0
 20
0.0
 30
0.0
  3
*U5
  1

  0
LINE
  5
87
330
86
100
AcDbEntity
  8
寸法
  6
ByBlock
 62
     0
100
AcDbLine
 10
-85.28713500000001
 20
45.814033
 30
0.0
 11
-85.28713500000001
 21
74.922105
 31
0.0
  0
LINE
  5
88
330
86
100
AcDbEntity
  8
寸法
  6
ByBlock
 62
     0
100
AcDbLine
 10
-58.620467
 20
45.814033
 30
0.0
 11
-58.620467
 21
74.922105
 31
0.0
  0
LINE
  5
89
330
86
100
AcDbEntity
  8
寸法
  6
ByBlock
 62
     0
100
AcDbLine
 10
-85.28713500000001
 20
74.922105
 30
0.0
 11
-58.620467
 21
74.922105
 31
0.0
  0
POINT
  5
8A
330
86
100
AcDbEntity
  8
寸法
 62
     0
100
AcDbPoint
 10
-85.28713500000001
 20
74.922105
 30
0.0
  0
POINT
  5
8B
330
86
100
AcDbEntity
  8
寸法
 62
     0
100
AcDbPoint
 10
-58.620467
 20
74.922105
 30
0.0
  0
TEXT
  5
8C
330
86
100
AcDbEntity
  8
寸法
  6
Continuous
 62
     0
100
AcDbText
 10
-74.41249999999999
 20
75.27500000000001
 30
0.0
 40
3.0
  1
800
  7
TextStyle03
 72
     5
 11
-69.53749999999999
 21
75.27500000000001
 31
0.0
100
AcDbText
  0
ENDBLK
  5
8D
330
86
100
AcDbEntity
  8
0
100
AcDbBlockEnd
  0
BLOCK
  5
8E
330
8F
100
AcDbEntity
  8
0
100
AcDbBlockBegin
  2
*U6
 70
     1
 71
     0
 10
0.0
 20
0.0
 30
0.0
  3
*U6
  1

  0
LINE
  5
90
330
8F
100
AcDbEntity
  8
寸法
  6
ByBlock
 62
     0
100
AcDbLine
 10
-31.953802
 20
45.814033
 30
0.0
 11
-31.953802
 21
74.922105
 31
0.0
  0
LINE
  5
91
330
8F
100
AcDbEntity
  8
寸法
  6
ByBlock
 62
     0
100
AcDbLine
 10
-58.620467
 20
74.922105
 30
0.0
 11
-31.953802
 21
74.922105
 31
0.0
  0
POINT
  5
92
330
8F
100
AcDbEntity
  8
寸法
 62
     0
100
AcDbPoint
 10
-31.953802
 20
74.922105
 30
0.0
  0
TEXT
  5
93
330
8F
100
AcDbEntity
  8
寸法
  6
Continuous
 62
     0
100
AcDbText
 10
-47.7375
 20
75.27500000000001
 30
0.0
 40
3.0
  1
800
  7
TextStyle03
 72
     5
 11
-42.8625
 21
75.27500000000001
 31
0.0
100
AcDbText
  0
ENDBLK
  5
94
330
8F
100
AcDbEntity
  8
0
100
AcDbBlockEnd
  0
BLOCK
  5
95
330
96
100
AcDbEntity
  8
0
100
AcDbBlockBegin
  2
*U7
 70
     1
 71
     0
 10
0.0
 20
0.0
 30
0.0
  3
*U7
  1

  0
LINE
  5
97
330
96
100
AcDbEntity
  8
寸法
  6
ByBlock
 62
     0
100
AcDbLine
 10
-5.287135
 20
45.814033
 30
0.0
 11
-5.287135
 21
74.922105
 31
0.0
  0
LINE
  5
98
330
96
100
AcDbEntity
  8
寸法
  6
ByBlock
 62
     0
100
AcDbLine
 10
-31.953802
 20
74.922105
 30
0.0
 11
-5.287135
 21
74.922105
 31
0.0
  0
POINT
  5
99
330
96
100
AcDbEntity
  8
寸法
 62
     0
100
AcDbPoint
 10
-5.287135
 20
74.922105
 30
0.0
  0
TEXT
  5
9A
330
96
100
AcDbEntity
  8
寸法
  6
Continuous
 62
     0
100
AcDbText
 10
-21.0625
 20
75.27500000000001
 30
0.0
 40
3.0
  1
800
  7
TextStyle03
 72
     5
 11
-16.1875
 21
75.27500000000001
 31
0.0
100
AcDbText
  0
ENDBLK
  5
9B
330
96
100
AcDbEntity
  8
0
100
AcDbBlockEnd
  0
BLOCK
  5
9C
330
9D
100
AcDbEntity
  8
0
100
AcDbBlockBegin
  2
*U8
 70
     1
 71
     0
 10
0.0
 20
0.0
 30
0.0
  3
*U8
  1

  0
LINE
  5
9E
330
9D
100
AcDbEntity
  8
寸法
  6
ByBlock
 62
     0
100
AcDbLine
 10
-98.4538
 20
-70.543188
 30
0.0
 11
-98.4538
 21
-13.121378
 31
0.0
  0
LINE
  5
9F
330
9D
100
AcDbEntity
  8
寸法
  6
ByBlock
 62
     0
100
AcDbLine
 10
-95.28713500000001
 20
-13.121378
 30
0.0
 11
-98.4538
 21
-13.121378
 31
0.0
  0
POINT
  5
A0
330
9D
100
AcDbEntity
  8
寸法
 62
     0
100
AcDbPoint
 10
-95.28713500000001
 20
-13.121378
 30
0.0
  0
POINT
  5
A1
330
9D
100
AcDbEntity
  8
寸法
 62
     0
100
AcDbPoint
 10
-98.4538
 20
-13.121378
 30
0.0
  0
TEXT
  5
A2
330
9D
100
AcDbEntity
  8
寸法
  6
Continuous
 62
     0
100
AcDbText
 10
-98.46875
 20
-12.75
 30
0.0
 40
3.0
  1
95
  7
TextStyle03
 72
     5
 11
-95.28125
 21
-12.75
 31
0.0
100
AcDbText
  0
ENDBLK
  5
A3
330
9D
100
AcDbEntity
  8
0
100
AcDbBlockEnd
  0
BLOCK
  5
A4
330
A5
100
AcDbEntity
  8
0
100
AcDbBlockBegin
  2
*U9
 70
     1
 71
     0
 10
0.0
 20
0.0
 30
0.0
  3
*U9
  1

  0
LINE
  5
A6
330
A5
100
AcDbEntity
  8
寸法
  6
ByBlock
 62
     0
100
AcDbLine
 10
7.87953
 20
-70.543188
 30
0.0
 11
7.87953
 21
-13.121378
 31
0.0
  0
LINE
  5
A7
330
A5
100
AcDbEntity
  8
寸法
  6
ByBlock
 62
     0
100
AcDbLine
 10
4.712865
 20
-13.121378
 30
0.0
 11
7.87953
 21
-13.121378
 31
0.0
  0
POINT
  5
A8
330
A5
100
AcDbEntity
  8
寸法
 62
     0
100
AcDbPoint
 10
4.712865
 20
-13.121378
 30
0.0
  0
POINT
  5
A9
330
A5
100
AcDbEntity
  8
寸法
 62
     0
100
AcDbPoint
 10
7.87953
 20
-13.121378
 30
0.0
  0
TEXT
  5
AA
330
A5
100
AcDbEntity
  8
寸法
  6
Continuous
 62
     0
100
AcDbText
 10
4.68125
 20
-12.75
 30
0.0
 40
3.0
  1
95
  7
TextStyle03
 72
     5
 11
7.86875
 21
-12.75
 31
0.0
100
AcDbText
  0
ENDBLK
  5
AB
330
A5
100
AcDbEntity
  8
0
100
AcDbBlockEnd
  0
BLOCK
  5
AC
330
AD
100
AcDbEntity
  8
0
100
AcDbBlockBegin
  2
*U10
 70
     1
 71
     0
 10
0.0
 20
0.0
 30
0.0
  3
*U10
  1

  0
LINE
  5
AE
330
AD
100
AcDbEntity
  8
寸法
  6
ByBlock
 62
     0
100
AcDbLine
 10
94.579702
 20
19.647365
 30
0.0
 11
38.732515
 21
19.647365
 31
0.0
  0
LINE
  5
AF
330
AD
100
AcDbEntity
  8
寸法
  6
ByBlock
 62
     0
100
AcDbLine
 10
38.732515
 20
22.814033
 30
0.0
 11
38.732515
 21
19.647365
 31
0.0
  0
POINT
  5
B0
330
AD
100
AcDbEntity
  8
寸法
 62
     0
100
AcDbPoint
 10
38.732515
 20
22.814033
 30
0.0
  0
POINT
  5
B1
330
AD
100
AcDbEntity
  8
寸法
 62
     0
100
AcDbPoint
 10
38.732515
 20
19.647365
 30
0.0
  0
TEXT
  5
B2
330
AD
100
AcDbEntity
  8
寸法
  6
Continuous
 62
     0
100
AcDbText
 10
38.35
 20
16.25625
 30
0.0
 40
3.0
  1
95
 50
90.0
  7
TextStyle03
 72
     5
 11
38.35
 21
19.44375
 31
0.0
100
AcDbText
  0
ENDBLK
  5
B3
330
AD
100
AcDbEntity
  8
0
100
AcDbBlockEnd
  0
BLOCK
  5
B4
330
B5
100
AcDbEntity
  8
0
100
AcDbBlockBegin
  2
*U11
 70
     1
 71
     0
 10
0.0
 20
0.0
 30
0.0
  3
*U11
  1

  0
LINE
  5
B6
330
B5
100
AcDbEntity
  8
寸法
  6
ByBlock
 62
     0
100
AcDbLine
 10
94.579702
 20
45.9807
 30
0.0
 11
38.732515
 21
45.9807
 31
0.0
  0
LINE
  5
B7
330
B5
100
AcDbEntity
  8
寸法
  6
ByBlock
 62
     0
100
AcDbLine
 10
38.732515
 20
42.814033
 30
0.0
 11
38.732515
 21
45.9807
 31
0.0
  0
POINT
  5
B8
330
B5
100
AcDbEntity
  8
寸法
 62
     0
100
AcDbPoint
 10
38.732515
 20
42.814033
 30
0.0
  0
POINT
  5
B9
330
B5
100
AcDbEntity
  8
寸法
 62
     0
100
AcDbPoint
 10
38.732515
 20
45.9807
 30
0.0
  0
TEXT
  5
BA
330
B5
100
AcDbEntity
  8
寸法
  6
Continuous
 62
     0
100
AcDbText
 10
38.35
 20
46.15625
 30
0.0
 40
3.0
  1
95
 50
90.0
  7
TextStyle03
 72
     5
 11
38.35
 21
49.34375
 31
0.0
100
AcDbText
  0
ENDBLK
  5
BB
330
B5
100
AcDbEntity
  8
0
100
AcDbBlockEnd
  0
BLOCK
  5
BC
330
BD
100
AcDbEntity
  8
0
100
AcDbBlockBegin
  2
*U12
 70
     1
 71
     0
 10
0.0
 20
0.0
 30
0.0
  3
*U12
  1

  0
LINE
  5
BE
330
BD
100
AcDbEntity
  8
寸法
  6
ByBlock
 62
     0
100
AcDbLine
 10
158.537835
 20
-69.20038
 30
0.0
 11
165.404422
 21
-69.20038
 31
0.0
  0
LINE
  5
BF
330
BD
100
AcDbEntity
  8
寸法
  6
ByBlock
 62
     0
100
AcDbLine
 10
158.537835
 20
-49.533713
 30
0.0
 11
165.404422
 21
-49.533713
 31
0.0
  0
LINE
  5
C0
330
BD
100
AcDbEntity
  8
寸法
  6
ByBlock
 62
     0
100
AcDbLine
 10
165.404422
 20
-69.20038
 30
0.0
 11
165.404422
 21
-49.533713
 31
0.0
  0
POINT
  5
C1
330
BD
100
AcDbEntity
  8
寸法
 62
     0
100
AcDbPoint
 10
165.404422
 20
-69.20038
 30
0.0
  0
POINT
  5
C2
330
BD
100
AcDbEntity
  8
寸法
 62
     0
100
AcDbPoint
 10
165.404422
 20
-49.533713
 30
0.0
  0
TEXT
  5
C3
330
BD
100
AcDbEntity
  8
寸法
  6
Continuous
 62
     0
100
AcDbText
 10
165.025
 20
-62.625
 30
0.0
 40
4.0
  1
590
 50
90.0
  7
TextStyle03
 72
     5
 11
165.025
 21
-56.125
 31
0.0
100
AcDbText
  0
ENDBLK
  5
C4
330
BD
100
AcDbEntity
  8
0
100
AcDbBlockEnd
  0
BLOCK
  5
C5
330
C6
100
AcDbEntity
  8
0
100
AcDbBlockBegin
  2
*U13
 70
     1
 71
     0
 10
0.0
 20
0.0
 30
0.0
  3
*U13
  1

  0
LINE
  5
C7
330
C6
100
AcDbEntity
  8
寸法
  6
Continuous
100
AcDbLine
 10
96.592542
 20
56.897547
 30
0.0
 11
92.29254
 21
56.897547
 31
0.0
  0
POINT
  5
C8
330
C6
100
AcDbEntity
  8
寸法
100
AcDbPoint
 10
96.592542
 20
56.897547
 30
0.0
  0
POINT
  5
C9
330
C6
100
AcDbEntity
  8
寸法
100
AcDbPoint
 10
92.29254
 20
56.897547
 30
0.0
  0
TEXT
  5
CA
330
C6
100
AcDbEntity
  8
寸法
  6
Continuous
100
AcDbText
 10
92.0125
 20
57.25
 30
0.0
 40
3.0
  1
129
  7
TextStyle03
 72
     5
 11
96.8875
 21
57.25
 31
0.0
100
AcDbText
  0
ENDBLK
  5
CB
330
C6
100
AcDbEntity
  8
0
100
AcDbBlockEnd
  0
BLOCK
  5
CC
330
CD
100
AcDbEntity
  8
0
100
AcDbBlockBegin
  2
*U14
 70
     1
 71
     0
 10
0.0
 20
0.0
 30
0.0
  3
*U14
  1

  0
LINE
  5
CE
330
CD
100
AcDbEntity
  8
寸法
  6
Continuous
100
AcDbLine
 10
18.79638
 20
-73.411777
 30
0.0
 11
18.79638
 21
-69.11177499999999
 31
0.0
  0
POINT
  5
CF
330
CD
100
AcDbEntity
  8
寸法
100
AcDbPoint
 10
18.79638
 20
-73.411777
 30
0.0
  0
POINT
  5
D0
330
CD
100
AcDbEntity
  8
寸法
100
AcDbPoint
 10
18.79638
 20
-69.11177499999999
 30
0.0
  0
TEXT
  5
D1
330
CD
100
AcDbEntity
  8
寸法
  6
Continuous
100
AcDbText
 10
23.0
 20
-73.78749999999999
 30
0.0
 40
3.0
  1
129
 50
90.0
  7
TextStyle03
 72
     5
 11
23.0
 21
-68.91249999999999
 31
0.0
100
AcDbText
  0
ENDBLK
  5
D2
330
CD
100
AcDbEntity
  8
0
100
AcDbBlockEnd
  0
BLOCK
  5
D3
330
D4
100
AcDbEntity
  8
0
100
AcDbBlockBegin
  2
*U15
 70
     1
 71
     0
 10
0.0
 20
0.0
 30
0.0
  3
*U15
  1

  0
LINE
  5
D5
330
D4
100
AcDbEntity
  8
寸法
  6
Continuous
100
AcDbLine
 10
155.537835
 20
-40.35983
 30
0.0
 11
123.027835
 21
-40.35983
 31
0.0
  0
POINT
  5
D6
330
D4
100
AcDbEntity
  8
寸法
100
AcDbPoint
 10
155.537835
 20
-40.35983
 30
0.0
  0
POINT
  5
D7
330
D4
100
AcDbEntity
  8
寸法
100
AcDbPoint
 10
123.027835
 20
-40.35983
 30
0.0
  0
TEXT
  5
D8
330
D4
100
AcDbEntity
  8
寸法
  6
Continuous
100
AcDbText
 10
133.775
 20
-40.0
 30
0.0
 40
4.0
  1
975.3
  7
TextStyle03
 72
     5
 11
144.775
 21
-40.0
 31
0.0
100
AcDbText
  0
ENDBLK
  5
D9
330
D4
100
AcDbEntity
  8
0
100
AcDbBlockEnd
  0
ENDSEC
  0
SECTION
  2
ENTITIES
  0
LWPOLYLINE
  5
DA
330
1D
100
AcDbEntity
  8
通り芯
  6
Continuous
100
AcDbPolyline
 90
        4
 70
     1
 43
0.0
 10
-210.0
 20
-148.5
 10
210.0
 20
-148.5
 10
210.0
 20
148.5
 10
-210.0
 20
148.5
  0
INSERT
  5
E0
330
1D
100
AcDbEntity
  8
型材断面
  6
Continuous
100
AcDbBlockReference
  2
*U0
 10
0.0
 20
0.0
 30
0.0
  0
LINE
  5
E1
330
1D
100
AcDbEntity
  8
型材断面
  6
DASHDOT
100
AcDbLine
 10
4.712865
 20
-77.83644200000001
 30
0.0
 11
4.712865
 21
42.814033
 31
0.0
  0
LINE
  5
E2
330
1D
100
AcDbEntity
  8
型材断面
  6
DASHDOT
100
AcDbLine
 10
-45.287135
 20
-77.83644200000001
 30
0.0
 11
-45.287135
 21
42.814033
 31
0.0
  0
LINE
  5
E3
330
1D
100
AcDbEntity
  8
型材断面
  6
DASHDOT
100
AcDbLine
 10
-95.28713500000001
 20
-77.83644200000001
 30
0.0
 11
-95.28713500000001
 21
42.814033
 31
0.0
  0
LINE
  5
E4
330
1D
100
AcDbEntity
  8
型材断面
  6
DASHDOT
100
AcDbLine
 10
102.389627
 20
42.814033
 30
0.0
 11
-95.28713500000001
 21
42.814033
 31
0.0
  0
LINE
  5
E5
330
1D
100
AcDbEntity
  8
型材断面
  6
DASHDOT
100
AcDbLine
 10
102.389627
 20
32.814033
 30
0.0
 11
-95.28713500000001
 21
32.814033
 31
0.0
  0
LINE
  5
E6
330
1D
100
AcDbEntity
  8
型材断面
  6
DASHDOT
100
AcDbLine
 10
102.389627
 20
22.814033
 30
0.0
 11
-95.28713500000001
 21
22.814033
 31
0.0
  0
LINE
  5
E7
330
1D
100
AcDbEntity
  8
型材断面
  6
Continuous
100
AcDbLine
 10
-78.62046700000001
 20
45.444162
 30
0.0
 11
-80.116097
 21
48.03467
 31
0.0
  0
LINE
  5
E8
330
1D
100
AcDbEntity
  8
型材断面
  6
Continuous
100
AcDbLine
 10
-78.62046700000001
 20
45.444162
 30
0.0
 11
-77.124838
 21
48.03467
 31
0.0
  0
LINE
  5
E9
330
1D
100
AcDbEntity
  8
型材断面
  6
Continuous
100
AcDbLine
 10
-77.124838
 20
48.03467
 30
0.0
 11
-80.116097
 21
48.03467
 31
0.0
  0
LINE
  5
EA
330
1D
100
AcDbEntity
  8
型材断面
  6
Continuous
100
AcDbLine
 10
-136.139343
 20
87.32138000000001
 30
0.0
 11
-137.634973
 21
84.730873
 31
0.0
  0
LINE
  5
EB
330
1D
100
AcDbEntity
  8
型材断面
  6
Continuous
100
AcDbLine
 10
-136.139343
 20
87.32138000000001
 30
0.0
 11
-134.643713
 21
84.730873
 31
0.0
  0
LINE
  5
EC
330
1D
100
AcDbEntity
  8
型材断面
  6
Continuous
100
AcDbLine
 10
-134.643713
 20
84.730873
 30
0.0
 11
-137.634973
 21
84.730873
 31
0.0
  0
LINE
  5
ED
330
1D
100
AcDbEntity
  8
型材断面
  6
Continuous
100
AcDbLine
 10
-142.16193
 20
83.792277
 30
0.0
 11
-95.920153
 21
83.792277
 31
0.0
  0
LINE
  5
EE
330
1D
100
AcDbEntity
  8
型材断面
  6
Continuous
100
AcDbLine
 10
-97.917265
 20
32.814033
 30
0.0
 11
-100.507773
 21
34.309663
 31
0.0
  0
LINE
  5
EF
330
1D
100
AcDbEntity
  8
型材断面
  6
Continuous
100
AcDbLine
 10
-97.917265
 20
32.814033
 30
0.0
 11
-100.507773
 21
31.318403
 31
0.0
  0
LINE
  5
F0
330
1D
100
AcDbEntity
  8
型材断面
  6
Continuous
100
AcDbLine
 10
-100.507773
 20
31.318403
 30
0.0
 11
-100.507773
 21
34.309663
 31
0.0
  0
LINE
  5
F1
330
1D
100
AcDbEntity
  8
型材断面
  6
Continuous
100
AcDbLine
 10
-78.62046700000001
 20
20.183902
 30
0.0
 11
-80.116097
 21
17.593395
 31
0.0
  0
LINE
  5
F2
330
1D
100
AcDbEntity
  8
型材断面
  6
Continuous
100
AcDbLine
 10
-78.62046700000001
 20
20.183902
 30
0.0
 11
-77.124838
 21
17.593395
 31
0.0
  0
LINE
  5
F3
330
1D
100
AcDbEntity
  8
型材断面
  6
Continuous
100
AcDbLine
 10
-77.124838
 20
17.593395
 30
0.0
 11
-80.116097
 21
17.593395
 31
0.0
  0
LINE
  5
F4
330
1D
100
AcDbEntity
  8
型材断面
  6
Continuous
100
AcDbLine
 10
-11.953802
 20
45.444162
 30
0.0
 11
-10.458173
 21
48.03467
 31
0.0
  0
LINE
  5
F5
330
1D
100
AcDbEntity
  8
型材断面
  6
Continuous
100
AcDbLine
 10
-11.953802
 20
45.444162
 30
0.0
 11
-13.449432
 21
48.03467
 31
0.0
  0
LINE
  5
F6
330
1D
100
AcDbEntity
  8
型材断面
  6
Continuous
100
AcDbLine
 10
-13.449432
 20
48.03467
 30
0.0
 11
-10.458173
 21
48.03467
 31
0.0
  0
LINE
  5
F7
330
1D
100
AcDbEntity
  8
型材断面
  6
Continuous
100
AcDbLine
 10
-11.953802
 20
20.183902
 30
0.0
 11
-10.458173
 21
17.593395
 31
0.0
  0
LINE
  5
F8
330
1D
100
AcDbEntity
  8
型材断面
  6
Continuous
100
AcDbLine
 10
-11.953802
 20
20.183902
 30
0.0
 11
-13.449432
 21
17.593395
 31
0.0
  0
LINE
  5
F9
330
1D
100
AcDbEntity
  8
型材断面
  6
Continuous
100
AcDbLine
 10
-13.449432
 20
17.593395
 30
0.0
 11
-10.458173
 21
17.593395
 31
0.0
  0
LINE
  5
FA
330
1D
100
AcDbEntity
  8
型材断面
  6
Continuous
100
AcDbLine
 10
7.342995
 20
32.814033
 30
0.0
 11
9.933503
 21
34.309663
 31
0.0
  0
LINE
  5
FB
330
1D
100
AcDbEntity
  8
型材断面
  6
Continuous
100
AcDbLine
 10
7.342995
 20
32.814033
 30
0.0
 11
9.933503
 21
31.318403
 31
0.0
  0
LINE
  5
FC
330
1D
100
AcDbEntity
  8
型材断面
  6
Continuous
100
AcDbLine
 10
9.933503
 20
31.318403
 30
0.0
 11
9.933503
 21
34.309663
 31
0.0
  0
LINE
  5
FD
330
1D
100
AcDbEntity
  8
型材断面
  6
Continuous
100
AcDbLine
 10
-142.16193
 20
78.160932
 30
0.0
 11
-95.920153
 21
78.160932
 31
0.0
  0
LINE
  5
FE
330
1D
100
AcDbEntity
  8
型材断面
  6
Continuous
100
AcDbLine
 10
-98.453802
 20
45.9807
 30
0.0
 11
-98.453802
 21
19.647365
 31
0.0
  0
LINE
  5
FF
330
1D
100
AcDbEntity
  8
型材断面
  6
Continuous
100
AcDbLine
 10
-98.453802
 20
19.647365
 30
0.0
 11
7.879532
 21
19.647365
 31
0.0
  0
LINE
  5
100
330
1D
100
AcDbEntity
  8
型材断面
  6
Continuous
100
AcDbLine
 10
7.879532
 20
19.647365
 30
0.0
 11
7.879532
 21
45.9807
 31
0.0
  0
LINE
  5
101
330
1D
100
AcDbEntity
  8
型材断面
  6
Continuous
100
AcDbLine
 10
-98.453802
 20
45.9807
 30
0.0
 11
7.879532
 21
45.9807
 31
0.0
  0
LINE
  5
102
330
1D
100
AcDbEntity
  8
型材断面
  6
DASHDOT
100
AcDbLine
 10
-62.077135
 20
22.814033
 30
0.0
 11
-62.077135
 21
42.814033
 31
0.0
  0
LINE
  5
103
330
1D
100
AcDbEntity
  8
型材断面
  6
DASHDOT
100
AcDbLine
 10
-28.497135
 20
22.814033
 30
0.0
 11
-28.497135
 21
42.814033
 31
0.0
  0
LINE
  5
104
330
1D
100
AcDbEntity
  8
型材断面
  6
Continuous
100
AcDbLine
 10
6.223685
 20
44.560553
 30
0.0
 11
6.459385
 21
44.324853
 31
0.0
  0
LINE
  5
105
330
1D
100
AcDbEntity
  8
型材断面
  6
Continuous
100
AcDbLine
 10
-96.797955
 20
44.560553
 30
0.0
 11
-97.033655
 21
44.324853
 31
0.0
  0
LINE
  5
106
330
1D
100
AcDbEntity
  8
型材断面
  6
Continuous
100
AcDbLine
 10
-11.475468
 20
42.060553
 30
0.0
 11
-11.475468
 21
44.560553
 31
0.0
  0
LINE
  5
107
330
1D
100
AcDbEntity
  8
型材断面
  6
Continuous
100
AcDbLine
 10
-12.308803
 20
42.060553
 30
0.0
 11
-12.308803
 21
44.560553
 31
0.0
  0
LINE
  5
108
330
1D
100
AcDbEntity
  8
型材断面
  6
Continuous
100
AcDbLine
 10
-44.870467
 20
42.060553
 30
0.0
 11
-44.870467
 21
44.560553
 31
0.0
  0
LINE
  5
109
330
1D
100
AcDbEntity
  8
型材断面
  6
Continuous
100
AcDbLine
 10
-45.703802
 20
42.060553
 30
0.0
 11
-45.703802
 21
44.560553
 31
0.0
  0
LINE
  5
10A
330
1D
100
AcDbEntity
  8
型材断面
  6
Continuous
100
AcDbLine
 10
-79.09880200000001
 20
42.060553
 30
0.0
 11
-79.09880200000001
 21
44.560553
 31
0.0
  0
LINE
  5
10B
330
1D
100
AcDbEntity
  8
型材断面
  6
Continuous
100
AcDbLine
 10
-78.265467
 20
42.060553
 30
0.0
 11
-78.265467
 21
44.560553
 31
0.0
  0
LINE
  5
10C
330
1D
100
AcDbEntity
  8
型材断面
  6
Continuous
100
AcDbLine
 10
-63.243803
 20
41.22722
 30
0.0
 11
-60.910467
 21
41.22722
 31
0.0
  0
LINE
  5
10D
330
1D
100
AcDbEntity
  8
型材断面
  6
Continuous
100
AcDbLine
 10
-27.330468
 20
41.22722
 30
0.0
 11
-29.663803
 21
41.22722
 31
0.0
  0
LINE
  5
10E
330
1D
100
AcDbEntity
  8
型材断面
  6
Continuous
100
AcDbLine
 10
6.223685
 20
21.067512
 30
0.0
 11
6.459385
 21
21.303212
 31
0.0
  0
LINE
  5
10F
330
1D
100
AcDbEntity
  8
型材断面
  6
Continuous
100
AcDbLine
 10
-96.797955
 20
21.067512
 30
0.0
 11
-97.033655
 21
21.303212
 31
0.0
  0
LINE
  5
110
330
1D
100
AcDbEntity
  8
型材断面
  6
Continuous
100
AcDbLine
 10
-11.475468
 20
23.567512
 30
0.0
 11
-11.475468
 21
21.067512
 31
0.0
  0
LINE
  5
111
330
1D
100
AcDbEntity
  8
型材断面
  6
Continuous
100
AcDbLine
 10
-12.308803
 20
23.567512
 30
0.0
 11
-12.308803
 21
21.067512
 31
0.0
  0
LINE
  5
112
330
1D
100
AcDbEntity
  8
型材断面
  6
Continuous
100
AcDbLine
 10
-44.870467
 20
23.567512
 30
0.0
 11
-44.870467
 21
21.067512
 31
0.0
  0
LINE
  5
113
330
1D
100
AcDbEntity
  8
型材断面
  6
Continuous
100
AcDbLine
 10
-45.703802
 20
23.567512
 30
0.0
 11
-45.703802
 21
21.067512
 31
0.0
  0
LINE
  5
114
330
1D
100
AcDbEntity
  8
型材断面
  6
Continuous
100
AcDbLine
 10
-79.09880200000001
 20
23.567512
 30
0.0
 11
-79.09880200000001
 21
21.067512
 31
0.0
  0
LINE
  5
115
330
1D
100
AcDbEntity
  8
型材断面
  6
Continuous
100
AcDbLine
 10
-78.265467
 20
23.567512
 30
0.0
 11
-78.265467
 21
21.067512
 31
0.0
  0
LINE
  5
116
330
1D
100
AcDbEntity
  8
型材断面
  6
Continuous
100
AcDbLine
 10
-63.243803
 20
24.400845
 30
0.0
 11
-60.910467
 21
24.400845
 31
0.0
  0
LINE
  5
117
330
1D
100
AcDbEntity
  8
型材断面
  6
Continuous
100
AcDbLine
 10
-27.330468
 20
24.400845
 30
0.0
 11
-29.663803
 21
24.400845
 31
0.0
  0
LINE
  5
118
330
1D
100
AcDbEntity
  8
型材断面
  6
Continuous
100
AcDbLine
 10
-79.09880200000001
 20
23.567512
 30
0.0
 11
-94.29795799999999
 21
23.567512
 31
0.0
  0
LINE
  5
119
330
1D
100
AcDbEntity
  8
型材断面
  6
Continuous
100
AcDbLine
 10
-94.29795799999999
 20
23.567512
 30
0.0
 11
-94.533658
 21
23.803218
 31
0.0
  0
LINE
  5
11A
330
1D
100
AcDbEntity
  8
型材断面
  6
Continuous
100
AcDbLine
 10
-94.533658
 20
32.397365
 30
0.0
 11
-94.533658
 21
23.803218
 31
0.0
  0
LINE
  5
11B
330
1D
100
AcDbEntity
  8
型材断面
  6
Continuous
100
AcDbLine
 10
-94.29795799999999
 20
23.567512
 30
0.0
 11
-96.797955
 21
21.067512
 31
0.0
  0
LINE
  5
11C
330
1D
100
AcDbEntity
  8
型材断面
  6
Continuous
100
AcDbLine
 10
-94.533655
 20
23.803215
 30
0.0
 11
-97.033658
 21
21.30321
 31
0.0
  0
LINE
  5
11D
330
1D
100
AcDbEntity
  8
型材断面
  6
Continuous
100
AcDbLine
 10
-98.453802
 20
19.647365
 30
0.0
 11
-96.91580500000001
 21
21.185362
 31
0.0
  0
LINE
  5
11E
330
1D
100
AcDbEntity
  8
型材断面
  6
Continuous
100
AcDbLine
 10
-79.09880200000001
 20
42.060553
 30
0.0
 11
-94.29795799999999
 21
42.060553
 31
0.0
  0
LINE
  5
11F
330
1D
100
AcDbEntity
  8
型材断面
  6
Continuous
100
AcDbLine
 10
-94.29795799999999
 20
42.060553
 30
0.0
 11
-94.533658
 21
41.824848
 31
0.0
  0
LINE
  5
120
330
1D
100
AcDbEntity
  8
型材断面
  6
Continuous
100
AcDbLine
 10
-94.533658
 20
33.2307
 30
0.0
 11
-94.533658
 21
41.824848
 31
0.0
  0
LINE
  5
121
330
1D
100
AcDbEntity
  8
型材断面
  6
Continuous
100
AcDbLine
 10
-94.29795799999999
 20
42.060553
 30
0.0
 11
-96.797955
 21
44.560553
 31
0.0
  0
LINE
  5
122
330
1D
100
AcDbEntity
  8
型材断面
  6
Continuous
100
AcDbLine
 10
-94.533655
 20
41.82485
 30
0.0
 11
-97.033658
 21
44.324855
 31
0.0
  0
LINE
  5
123
330
1D
100
AcDbEntity
  8
型材断面
  6
Continuous
100
AcDbLine
 10
-97.033658
 20
21.30321
 30
0.0
 11
-97.033658
 21
44.324855
 31
0.0
  0
LINE
  5
124
330
1D
100
AcDbEntity
  8
型材断面
  6
Continuous
100
AcDbLine
 10
-98.453802
 20
45.9807
 30
0.0
 11
-96.91580500000001
 21
44.442703
 31
0.0
  0
LINE
  5
125
330
1D
100
AcDbEntity
  8
型材断面
  6
Continuous
100
AcDbLine
 10
-78.265467
 20
42.060553
 30
0.0
 11
-45.703802
 21
42.060553
 31
0.0
  0
LINE
  5
126
330
1D
100
AcDbEntity
  8
型材断面
  6
Continuous
100
AcDbLine
 10
-78.265467
 20
23.567512
 30
0.0
 11
-45.703802
 21
23.567512
 31
0.0
  0
LINE
  5
127
330
1D
100
AcDbEntity
  8
型材断面
  6
Continuous
100
AcDbLine
 10
-12.308803
 20
42.060553
 30
0.0
 11
-44.870467
 21
42.060553
 31
0.0
  0
LINE
  5
128
330
1D
100
AcDbEntity
  8
型材断面
  6
Continuous
100
AcDbLine
 10
-44.870467
 20
23.567512
 30
0.0
 11
-12.308803
 21
23.567512
 31
0.0
  0
LINE
  5
129
330
1D
100
AcDbEntity
  8
型材断面
  6
Continuous
100
AcDbLine
 10
-96.797955
 20
21.067512
 30
0.0
 11
6.223685
 21
21.067512
 31
0.0
  0
LINE
  5
12A
330
1D
100
AcDbEntity
  8
型材断面
  6
Continuous
100
AcDbLine
 10
3.723688
 20
23.567512
 30
0.0
 11
6.223685
 21
21.067512
 31
0.0
  0
LINE
  5
12B
330
1D
100
AcDbEntity
  8
型材断面
  6
Continuous
100
AcDbLine
 10
3.959385
 20
23.803215
 30
0.0
 11
6.459388
 21
21.30321
 31
0.0
  0
LINE
  5
12C
330
1D
100
AcDbEntity
  8
型材断面
  6
Continuous
100
AcDbLine
 10
-11.475468
 20
23.567512
 30
0.0
 11
3.723688
 21
23.567512
 31
0.0
  0
LINE
  5
12D
330
1D
100
AcDbEntity
  8
型材断面
  6
Continuous
100
AcDbLine
 10
3.723688
 20
23.567512
 30
0.0
 11
3.959388
 21
23.803218
 31
0.0
  0
LINE
  5
12E
330
1D
100
AcDbEntity
  8
型材断面
  6
Continuous
100
AcDbLine
 10
3.959388
 20
32.397365
 30
0.0
 11
3.959388
 21
23.803218
 31
0.0
  0
LINE
  5
12F
330
1D
100
AcDbEntity
  8
型材断面
  6
Continuous
100
AcDbLine
 10
7.879532
 20
19.647365
 30
0.0
 11
6.341535
 21
21.185362
 31
0.0
  0
LINE
  5
130
330
1D
100
AcDbEntity
  8
型材断面
  6
Continuous
100
AcDbLine
 10
3.959388
 20
33.2307
 30
0.0
 11
3.959388
 21
41.824848
 31
0.0
  0
LINE
  5
131
330
1D
100
AcDbEntity
  8
型材断面
  6
Continuous
100
AcDbLine
 10
3.959388
 20
41.824848
 30
0.0
 11
3.723688
 21
42.060553
 31
0.0
  0
LINE
  5
132
330
1D
100
AcDbEntity
  8
型材断面
  6
Continuous
100
AcDbLine
 10
-11.475468
 20
42.060553
 30
0.0
 11
3.723688
 21
42.060553
 31
0.0
  0
LINE
  5
133
330
1D
100
AcDbEntity
  8
型材断面
  6
Continuous
100
AcDbLine
 10
3.959385
 20
41.82485
 30
0.0
 11
6.459388
 21
44.324855
 31
0.0
  0
LINE
  5
134
330
1D
100
AcDbEntity
  8
型材断面
  6
Continuous
100
AcDbLine
 10
6.459388
 20
21.30321
 30
0.0
 11
6.459388
 21
44.324855
 31
0.0
  0
LINE
  5
135
330
1D
100
AcDbEntity
  8
型材断面
  6
Continuous
100
AcDbLine
 10
3.723688
 20
42.060553
 30
0.0
 11
6.223685
 21
44.560553
 31
0.0
  0
LINE
  5
136
330
1D
100
AcDbEntity
  8
型材断面
  6
Continuous
100
AcDbLine
 10
-96.797955
 20
44.560553
 30
0.0
 11
6.223685
 21
44.560553
 31
0.0
  0
LINE
  5
137
330
1D
100
AcDbEntity
  8
型材断面
  6
Continuous
100
AcDbLine
 10
7.879532
 20
45.9807
 30
0.0
 11
6.341535
 21
44.442703
 31
0.0
  0
LINE
  5
138
330
1D
100
AcDbEntity
  8
型材断面
  6
Continuous
100
AcDbLine
 10
-60.910467
 20
41.22722
 30
0.0
 11
-60.910467
 21
24.400845
 31
0.0
  0
LINE
  5
139
330
1D
100
AcDbEntity
  8
型材断面
  6
Continuous
100
AcDbLine
 10
-63.243803
 20
41.22722
 30
0.0
 11
-63.243803
 21
24.400845
 31
0.0
  0
LINE
  5
13A
330
1D
100
AcDbEntity
  8
型材断面
  6
Continuous
100
AcDbLine
 10
-29.663803
 20
41.22722
 30
0.0
 11
-29.663803
 21
24.400845
 31
0.0
  0
LINE
  5
13B
330
1D
100
AcDbEntity
  8
型材断面
  6
Continuous
100
AcDbLine
 10
-27.330468
 20
41.22722
 30
0.0
 11
-27.330468
 21
24.400845
 31
0.0
  0
LINE
  5
13C
330
1D
100
AcDbEntity
  8
型材断面
  6
Continuous
 62
    14
100
AcDbLine
 10
96.592542
 20
45.9807
 30
0.0
 11
96.092542
 21
45.9807
 31
0.0
  0
LINE
  5
13D
330
1D
100
AcDbEntity
  8
型材断面
  6
Continuous
100
AcDbLine
 10
95.925878
 20
44.147365
 30
0.0
 11
96.092542
 21
45.9807
 31
0.0
  0
LINE
  5
13E
330
1D
100
AcDbEntity
  8
型材断面
  6
Continuous
100
AcDbLine
 10
96.092542
 20
45.9807
 30
0.0
 11
96.592542
 21
45.9807
 31
0.0
  0
LINE
  5
13F
330
1D
100
AcDbEntity
  8
型材断面
  6
Continuous
100
AcDbLine
 10
96.592542
 20
45.147365
 30
0.0
 11
96.925878
 21
45.147365
 31
0.0
  0
LWPOLYLINE
  5
140
330
1D
100
AcDbEntity
  8
型材断面
  6
Continuous
100
AcDbPolyline
 90
        3
 70
     0
 43
0.0
 10
94.242542
 20
44.147365
 10
94.109208
 20
44.01403
 10
93.959208
 20
44.01403
  0
LINE
  5
145
330
1D
100
AcDbEntity
  8
型材断面
  6
Continuous
100
AcDbLine
 10
95.925878
 20
44.147365
 30
0.0
 11
94.242542
 21
44.147365
 31
0.0
  0
LINE
  5
146
330
1D
100
AcDbEntity
  8
型材断面
  6
Continuous
 62
    14
100
AcDbLine
 10
96.592542
 20
19.647365
 30
0.0
 11
96.092542
 21
19.647365
 31
0.0
  0
LINE
  5
147
330
1D
100
AcDbEntity
  8
型材断面
  6
Continuous
100
AcDbLine
 10
95.925878
 20
21.480695
 30
0.0
 11
96.092542
 21
19.647365
 31
0.0
  0
LINE
  5
148
330
1D
100
AcDbEntity
  8
型材断面
  6
Continuous
100
AcDbLine
 10
96.092542
 20
19.647365
 30
0.0
 11
96.592542
 21
19.647365
 31
0.0
  0
LINE
  5
149
330
1D
100
AcDbEntity
  8
型材断面
  6
Continuous
100
AcDbLine
 10
96.592542
 20
20.480695
 30
0.0
 11
96.925878
 21
20.480695
 31
0.0
  0
LINE
  5
14A
330
1D
100
AcDbEntity
  8
型材断面
  6
Continuous
100
AcDbLine
 10
95.925878
 20
21.480695
 30
0.0
 11
95.925878
 21
44.147365
 31
0.0
  0
LINE
  5
14B
330
1D
100
AcDbEntity
  8
型材断面
  6
Continuous
100
AcDbLine
 10
96.092542
 20
19.647365
 30
0.0
 11
96.092542
 21
45.9807
 31
0.0
  0
LINE
  5
14C
330
1D
100
AcDbEntity
  8
型材断面
  6
Continuous
100
AcDbLine
 10
96.592542
 20
19.647365
 30
0.0
 11
96.592542
 21
45.9807
 31
0.0
  0
LINE
  5
14D
330
1D
100
AcDbEntity
  8
型材断面
  6
Continuous
100
AcDbLine
 10
96.92587500000001
 20
20.480695
 30
0.0
 11
96.92587500000001
 21
45.147365
 31
0.0
  0
LWPOLYLINE
  5
14E
330
1D
100
AcDbEntity
  8
型材断面
  6
Continuous
100
AcDbPolyline
 90
        3
 70
     0
 43
0.0
 10
94.242542
 20
21.480697
 10
94.109208
 20
21.61403
 10
93.959208
 20
21.61403
  0
LINE
  5
153
330
1D
100
AcDbEntity
  8
型材断面
  6
Continuous
100
AcDbLine
 10
95.925878
 20
21.480695
 30
0.0
 11
94.242542
 21
21.480695
 31
0.0
  0
LINE
  5
154
330
1D
100
AcDbEntity
  8
型材断面
  6
Continuous
100
AcDbLine
 10
93.959208
 20
21.330697
 30
0.0
 11
93.959208
 21
44.297365
 31
0.0
  0
LINE
  5
155
330
1D
100
AcDbEntity
  8
型材断面
  6
Continuous
100
AcDbLine
 10
92.459208
 20
21.174175
 30
0.0
 11
92.459208
 21
44.453885
 31
0.0
  0
LINE
  5
156
330
1D
100
AcDbEntity
  8
型材断面
  6
Continuous
100
AcDbLine
 10
92.29254
 20
44.353888
 30
0.0
 11
92.29254
 21
21.274175
 31
0.0
  0
LINE
  5
157
330
1D
100
AcDbEntity
  8
型材断面
  6
Continuous
100
AcDbLine
 10
94.109208
 20
44.01403
 30
0.0
 11
94.109208
 21
21.61403
 31
0.0
  0
LINE
  5
158
330
1D
100
AcDbEntity
  8
型材断面
  6
Continuous
100
AcDbLine
 10
94.242542
 20
21.480697
 30
0.0
 11
94.242542
 21
44.147365
 31
0.0
  0
LINE
  5
159
330
1D
100
AcDbEntity
  8
型材断面
  6
Continuous
 62
    14
100
AcDbLine
 10
7.87953
 20
-73.411777
 30
0.0
 11
7.87953
 21
-72.911777
 31
0.0
  0
LINE
  5
15A
330
1D
100
AcDbEntity
  8
型材断面
  6
Continuous
100
AcDbLine
 10
6.046195
 20
-72.745115
 30
0.0
 11
7.87953
 21
-72.911777
 31
0.0
  0
LINE
  5
15B
330
1D
100
AcDbEntity
  8
型材断面
  6
Continuous
100
AcDbLine
 10
7.87953
 20
-72.911777
 30
0.0
 11
7.87953
 21
-73.411777
 31
0.0
  0
LINE
  5
15C
330
1D
100
AcDbEntity
  8
型材断面
  6
Continuous
100
AcDbLine
 10
7.046195
 20
-73.411777
 30
0.0
 11
7.046195
 21
-73.745115
 31
0.0
  0
LWPOLYLINE
  5
15D
330
1D
100
AcDbEntity
  8
型材断面
  6
Continuous
100
AcDbPolyline
 90
        3
 70
     0
 43
0.0
 10
6.046195
 20
-71.06177700000001
 10
5.91286
 20
-70.928445
 10
5.91286
 20
-70.77844500000001
  0
LINE
  5
162
330
1D
100
AcDbEntity
  8
型材断面
  6
Continuous
100
AcDbLine
 10
6.046195
 20
-72.745115
 30
0.0
 11
6.046195
 21
-71.06178
 31
0.0
  0
LINE
  5
163
330
1D
100
AcDbEntity
  8
型材断面
  6
Continuous
 62
    14
100
AcDbLine
 10
-98.453805
 20
-73.411777
 30
0.0
 11
-98.453805
 21
-72.911777
 31
0.0
  0
LINE
  5
164
330
1D
100
AcDbEntity
  8
型材断面
  6
Continuous
100
AcDbLine
 10
-96.62047200000001
 20
-72.745115
 30
0.0
 11
-98.453805
 21
-72.911777
 31
0.0
  0
LINE
  5
165
330
1D
100
AcDbEntity
  8
型材断面
  6
Continuous
100
AcDbLine
 10
-98.453805
 20
-72.911777
 30
0.0
 11
-98.453805
 21
-73.411777
 31
0.0
  0
LINE
  5
166
330
1D
100
AcDbEntity
  8
型材断面
  6
Continuous
100
AcDbLine
 10
-97.62047200000001
 20
-73.411777
 30
0.0
 11
-97.62047200000001
 21
-73.745115
 31
0.0
  0
LINE
  5
167
330
1D
100
AcDbEntity
  8
型材断面
  6
Continuous
100
AcDbLine
 10
-96.62047200000001
 20
-72.745115
 30
0.0
 11
6.046195
 21
-72.745115
 31
0.0
  0
LINE
  5
168
330
1D
100
AcDbEntity
  8
型材断面
  6
Continuous
100
AcDbLine
 10
-98.453805
 20
-72.911777
 30
0.0
 11
7.87953
 21
-72.911777
 31
0.0
  0
LINE
  5
169
330
1D
100
AcDbEntity
  8
型材断面
  6
Continuous
100
AcDbLine
 10
-98.453805
 20
-73.411777
 30
0.0
 11
7.87953
 21
-73.411777
 31
0.0
  0
LINE
  5
16A
330
1D
100
AcDbEntity
  8
型材断面
  6
Continuous
100
AcDbLine
 10
-97.62047200000001
 20
-73.74511
 30
0.0
 11
7.046195
 21
-73.74511
 31
0.0
  0
LWPOLYLINE
  5
16B
330
1D
100
AcDbEntity
  8
型材断面
  6
Continuous
100
AcDbPolyline
 90
        3
 70
     0
 43
0.0
 10
-96.62047
 20
-71.06177700000001
 10
-96.487137
 20
-70.928445
 10
-96.487137
 20
-70.77844500000001
  0
LINE
  5
170
330
1D
100
AcDbEntity
  8
型材断面
  6
Continuous
100
AcDbLine
 10
-96.62047200000001
 20
-72.745115
 30
0.0
 11
-96.62047200000001
 21
-71.06178
 31
0.0
  0
LINE
  5
171
330
1D
100
AcDbEntity
  8
型材断面
  6
Continuous
100
AcDbLine
 10
-96.77047
 20
-70.77844500000001
 30
0.0
 11
6.196195
 21
-70.77844500000001
 31
0.0
  0
LINE
  5
172
330
1D
100
AcDbEntity
  8
型材断面
  6
Continuous
100
AcDbLine
 10
-96.926992
 20
-69.27844500000001
 30
0.0
 11
6.352715
 21
-69.27844500000001
 31
0.0
  0
LINE
  5
173
330
1D
100
AcDbEntity
  8
型材断面
  6
Continuous
100
AcDbLine
 10
6.252717
 20
-69.11177499999999
 30
0.0
 11
-96.826992
 21
-69.11177499999999
 31
0.0
  0
LINE
  5
174
330
1D
100
AcDbEntity
  8
型材断面
  6
Continuous
100
AcDbLine
 10
5.91286
 20
-70.928445
 30
0.0
 11
-96.487137
 21
-70.928445
 31
0.0
  0
LINE
  5
175
330
1D
100
AcDbEntity
  8
型材断面
  6
Continuous
100
AcDbLine
 10
-96.62047
 20
-71.06177700000001
 30
0.0
 11
6.046195
 21
-71.06177700000001
 31
0.0
  0
TEXT
  5
176
330
1D
100
AcDbEntity
  8
文字
  6
Continuous
100
AcDbText
 10
-133.325
 20
84.95
 30
0.0
 40
3.0
  1
は排水穴位置を示す
  7
TextStyle03
 72
     5
 11
-103.325
 21
84.95
 31
0.0
100
AcDbText
  0
TEXT
  5
177
330
1D
100
AcDbEntity
  8
文字
  6
Continuous
100
AcDbText
 10
137.0
 20
-62.775
 30
0.0
 40
3.0
  1
網入り6.8t
  7
TextStyle03
 72
     5
 11
153.6875
 21
-62.775
 31
0.0
100
AcDbText
  0
TEXT
  5
178
330
1D
100
AcDbEntity
  8
文字
  6
Continuous
100
AcDbText
 10
143.675
 20
-67.45
 30
0.0
 40
3.0
  1
×３枚
  7
TextStyle03
 72
     5
 11
153.425
 21
-67.45
 31
0.0
100
AcDbText
  0
TEXT
  5
179
330
1D
100
AcDbEntity
  8
文字
  6
Continuous
100
AcDbText
 10
-116.35
 20
11.275
 30
0.0
 40
3.0
  1
アンカーピッチ
 50
90.0
  7
TextStyle03
 72
     5
 11
-116.35
 21
34.525
 31
0.0
100
AcDbText
  0
TEXT
  5
17A
330
1D
100
AcDbEntity
  8
文字
  6
Continuous
100
AcDbText
 10
-85.325
 20
80.2
 30
0.0
 40
3.0
  1
アンカーピッチ
  7
TextStyle03
 72
     5
 11
-62.075
 21
80.2
 31
0.0
100
AcDbText
  0
TEXT
  5
17B
330
1D
100
AcDbEntity
  8
文字
  6
Continuous
100
AcDbText
 10
-137.05
 20
79.09999999999999
 30
0.0
 40
3.0
  1
アンカー数量　１２ヶ所
  7
TextStyle03
 72
     5
 11
-100.3
 21
79.09999999999999
 31
0.0
100
AcDbText
  0
LINE
  5
17C
330
1D
100
AcDbEntity
  8
文字
  6
Continuous
100
AcDbLine
 10
92.29254
 20
56.897547
 30
0.0
 11
92.29254
 21
45.685008
 31
0.0
  0
LINE
  5
17D
330
1D
100
AcDbEntity
  8
文字
  6
Continuous
100
AcDbLine
 10
96.592542
 20
56.897547
 30
0.0
 11
96.592542
 21
46.97907
 31
0.0
  0
LINE
  5
17E
330
1D
100
AcDbEntity
  8
文字
  6
Continuous
100
AcDbLine
 10
18.79638
 20
-69.11177499999999
 30
0.0
 11
7.58384
 21
-69.11177499999999
 31
0.0
  0
LINE
  5
17F
330
1D
100
AcDbEntity
  8
文字
  6
Continuous
100
AcDbLine
 10
18.79638
 20
-73.411777
 30
0.0
 11
8.877902000000001
 21
-73.411777
 31
0.0
  0
LINE
  5
180
330
1D
100
AcDbEntity
  8
文字
  6
Continuous
100
AcDbLine
 10
155.537835
 20
-46.831393
 30
0.0
 11
155.537835
 21
-40.35983
 31
0.0
  0
LINE
  5
181
330
1D
100
AcDbEntity
  8
文字
  6
Continuous
100
AcDbLine
 10
123.027835
 20
-46.831393
 30
0.0
 11
123.027835
 21
-40.35983
 31
0.0
  0
LINE
  5
182
330
1D
100
AcDbEntity
  8
文字
  6
Continuous
100
AcDbLine
 10
3.959388
 20
32.397365
 30
0.0
 11
6.459388
 21
32.397365
 31
0.0
  0
LINE
  5
183
330
1D
100
AcDbEntity
  8
文字
  6
Continuous
100
AcDbLine
 10
3.959388
 20
33.2307
 30
0.0
 11
6.459388
 21
33.2307
 31
0.0
  0
LINE
  5
184
330
1D
100
AcDbEntity
  8
文字
  6
Continuous
100
AcDbLine
 10
-94.533658
 20
32.397365
 30
0.0
 11
-97.033658
 21
32.397365
 31
0.0
  0
LINE
  5
185
330
1D
100
AcDbEntity
  8
文字
  6
Continuous
100
AcDbLine
 10
-94.533658
 20
33.2307
 30
0.0
 11
-97.033658
 21
33.2307
 31
0.0
  0
TEXT
  5
186
330
1D
100
AcDbEntity
  8
文字
  6
Continuous
100
AcDbText
 10
61.075
 20
125.25
 30
0.0
 40
5.0
  1
シリーズ：ＴＦＦＫＬ
  7
TextStyle03
 72
     5
 11
116.7
 21
125.25
 31
0.0
100
AcDbText
  0
TEXT
  5
187
330
1D
100
AcDbEntity
  8
文字
  6
Continuous
100
AcDbText
 10
61.075
 20
119.625
 30
0.0
 40
5.0
  1
　　　　　（固定）600×3000タイプ
  7
TextStyle03
 72
     5
 11
153.2625
 21
119.625
 31
0.0
100
AcDbText
  0
TEXT
  5
188
330
1D
100
AcDbEntity
  8
文字
  6
Continuous
100
AcDbText
 10
61.075
 20
114.0
 30
0.0
 40
5.0
  1
図面名　：外観姿図
  7
TextStyle03
 72
     5
 11
111.075
 21
114.0
 31
0.0
100
AcDbText
  0
TEXT
  5
189
330
1D
100
AcDbEntity
  8
文字
  6
Continuous
100
AcDbText
 10
61.075
 20
108.375
 30
0.0
 40
5.0
  1
　　　　　　
  7
TextStyle03
 72
     5
 11
94.2
 21
108.375
 31
0.0
100
AcDbText
  0
INSERT
  5
18A
330
1D
100
AcDbEntity
  8
寸法
  6
Continuous
100
AcDbBlockReference
  2
*U1
 10
0.0
 20
0.0
 30
0.0
  0
INSERT
  5
18B
330
1D
100
AcDbEntity
  8
寸法
  6
Continuous
100
AcDbBlockReference
  2
*U2
 10
0.0
 20
0.0
 30
0.0
  0
INSERT
  5
18C
330
1D
100
AcDbEntity
  8
寸法
  6
Continuous
100
AcDbBlockReference
  2
*U3
 10
0.0
 20
0.0
 30
0.0
  0
INSERT
  5
18D
330
1D
100
AcDbEntity
  8
寸法
  6
Continuous
100
AcDbBlockReference
  2
*U4
 10
0.0
 20
0.0
 30
0.0
  0
INSERT
  5
18E
330
1D
100
AcDbEntity
  8
寸法
  6
Continuous
100
AcDbBlockReference
  2
*U5
 10
0.0
 20
0.0
 30
0.0
  0
INSERT
  5
18F
330
1D
100
AcDbEntity
  8
寸法
  6
Continuous
100
AcDbBlockReference
  2
*U6
 10
0.0
 20
0.0
 30
0.0
  0
INSERT
  5
190
330
1D
100
AcDbEntity
  8
寸法
  6
Continuous
100
AcDbBlockReference
  2
*U7
 10
0.0
 20
0.0
 30
0.0
  0
INSERT
  5
191
330
1D
100
AcDbEntity
  8
寸法
  6
Continuous
100
AcDbBlockReference
  2
*U8
 10
0.0
 20
0.0
 30
0.0
  0
INSERT
  5
192
330
1D
100
AcDbEntity
  8
寸法
  6
Continuous
100
AcDbBlockReference
  2
*U9
 10
0.0
 20
0.0
 30
0.0
  0
INSERT
  5
193
330
1D
100
AcDbEntity
  8
寸法
  6
Continuous
100
AcDbBlockReference
  2
*U10
 10
0.0
 20
0.0
 30
0.0
  0
INSERT
  5
194
330
1D
100
AcDbEntity
  8
寸法
  6
Continuous
100
AcDbBlockReference
  2
*U11
 10
0.0
 20
0.0
 30
0.0
  0
INSERT
  5
195
330
1D
100
AcDbEntity
  8
寸法
  6
Continuous
100
AcDbBlockReference
  2
*U12
 10
0.0
 20
0.0
 30
0.0
  0
INSERT
  5
196
330
1D
100
AcDbEntity
  8
寸法
  6
Continuous
100
AcDbBlockReference
  2
*U13
 10
0.0
 20
0.0
 30
0.0
  0
INSERT
  5
197
330
1D
100
AcDbEntity
  8
寸法
  6
Continuous
100
AcDbBlockReference
  2
*U14
 10
0.0
 20
0.0
 30
0.0
  0
INSERT
  5
198
330
1D
100
AcDbEntity
  8
寸法
  6
Continuous
100
AcDbBlockReference
  2
*U15
 10
0.0
 20
0.0
 30
0.0
  0
LINE
  5
199
330
1D
100
AcDbEntity
  8
別途部材
  6
Continuous
 62
    47
100
AcDbLine
 10
92.39254
 20
44.453885
 30
0.0
 11
92.459208
 21
44.453885
 31
0.0
  0
ARC
  5
19A
330
1D
100
AcDbEntity
  8
別途部材
  6
Continuous
 62
    47
100
AcDbCircle
 10
92.39254099999999
 20
44.353886
 30
0.0
 40
0.1
100
AcDbArc
 50
90.0
 51
180.0
  0
LINE
  5
19B
330
1D
100
AcDbEntity
  8
別途部材
  6
Continuous
 62
    47
100
AcDbLine
 10
92.459208
 20
44.297365
 30
0.0
 11
93.959208
 21
44.297365
 31
0.0
  0
LINE
  5
19C
330
1D
100
AcDbEntity
  8
別途部材
  6
Continuous
 62
    47
100
AcDbLine
 10
92.39254
 20
21.174175
 30
0.0
 11
92.459208
 21
21.174175
 31
0.0
  0
ARC
  5
19D
330
1D
100
AcDbEntity
  8
別途部材
  6
Continuous
 62
    47
100
AcDbCircle
 10
92.39254099999999
 20
21.274175
 30
0.0
 40
0.1
100
AcDbArc
 50
180.0
 51
270.0
  0
LINE
  5
19E
330
1D
100
AcDbEntity
  8
別途部材
  6
Continuous
 62
    47
100
AcDbLine
 10
92.459208
 20
21.330697
 30
0.0
 11
93.959208
 21
21.330697
 31
0.0
  0
LINE
  5
19F
330
1D
100
AcDbEntity
  8
別途部材
  6
Continuous
 62
    47
100
AcDbLine
 10
6.352715
 20
-69.211775
 30
0.0
 11
6.352715
 21
-69.27844500000001
 31
0.0
  0
ARC
  5
1A0
330
1D
100
AcDbEntity
  8
別途部材
  6
Continuous
 62
    47
100
AcDbCircle
 10
6.252716
 20
-69.211777
 30
0.0
 40
0.1
100
AcDbArc
 50
0.0
 51
90.0
  0
LINE
  5
1A1
330
1D
100
AcDbEntity
  8
別途部材
  6
Continuous
 62
    47
100
AcDbLine
 10
6.196195
 20
-69.27844500000001
 30
0.0
 11
6.196195
 21
-70.77844500000001
 31
0.0
  0
LINE
  5
1A2
330
1D
100
AcDbEntity
  8
別途部材
  6
Continuous
 62
    47
100
AcDbLine
 10
-96.926992
 20
-69.211775
 30
0.0
 11
-96.926992
 21
-69.27844500000001
 31
0.0
  0
ARC
  5
1A3
330
1D
100
AcDbEntity
  8
別途部材
  6
Continuous
 62
    47
100
AcDbCircle
 10
-96.826993
 20
-69.211777
 30
0.0
 40
0.1
100
AcDbArc
 50
90.0
 51
180.0
  0
LINE
  5
1A4
330
1D
100
AcDbEntity
  8
別途部材
  6
Continuous
 62
    47
100
AcDbLine
 10
-96.77047
 20
-69.27844500000001
 30
0.0
 11
-96.77047
 21
-70.77844500000001
 31
0.0
  0
LINE
  5
1A5
330
1D
100
AcDbEntity
  8
曲げ物
  6
Continuous
100
AcDbLine
 10
155.537835
 20
-69.20038
 30
0.0
 11
155.537835
 21
-49.533713
 31
0.0
  0
LINE
  5
1A6
330
1D
100
AcDbEntity
  8
曲げ物
  6
Continuous
100
AcDbLine
 10
-43.484378
 20
34.61679
 30
0.0
 11
-47.17969
 21
30.921478
 31
0.0
  0
LINE
  5
1A7
330
1D
100
AcDbEntity
  8
曲げ物
  6
Continuous
100
AcDbLine
 10
-44.187848
 20
33.08068
 30
0.0
 11
-45.643577
 21
31.62495
 31
0.0
  0
LINE
  5
1A8
330
1D
100
AcDbEntity
  8
曲げ物
  6
Continuous
100
AcDbLine
 10
-45.020488
 20
33.91332
 30
0.0
 11
-46.476217
 21
32.45759
 31
0.0
  0
LINE
  5
1A9
330
1D
100
AcDbEntity
  8
曲げ物
  6
Continuous
100
AcDbLine
 10
-44.187848
 20
33.08068
 30
0.0
 11
-45.643577
 21
31.62495
 31
0.0
  0
LINE
  5
1AA
330
1D
100
AcDbEntity
  8
曲げ物
  6
Continuous
100
AcDbLine
 10
-45.020488
 20
33.91332
 30
0.0
 11
-46.476217
 21
32.45759
 31
0.0
  0
LINE
  5
1AB
330
1D
100
AcDbEntity
  8
曲げ物
  6
Continuous
100
AcDbLine
 10
-10.127712
 20
34.61679
 30
0.0
 11
-13.823025
 21
30.921478
 31
0.0
  0
LINE
  5
1AC
330
1D
100
AcDbEntity
  8
曲げ物
  6
Continuous
100
AcDbLine
 10
-10.831182
 20
33.08068
 30
0.0
 11
-12.286913
 21
31.62495
 31
0.0
  0
LINE
  5
1AD
330
1D
100
AcDbEntity
  8
曲げ物
  6
Continuous
100
AcDbLine
 10
-11.663822
 20
33.91332
 30
0.0
 11
-13.119553
 21
32.45759
 31
0.0
  0
LINE
  5
1AE
330
1D
100
AcDbEntity
  8
曲げ物
  6
Continuous
100
AcDbLine
 10
-10.831182
 20
33.08068
 30
0.0
 11
-12.286913
 21
31.62495
 31
0.0
  0
LINE
  5
1AF
330
1D
100
AcDbEntity
  8
曲げ物
  6
Continuous
100
AcDbLine
 10
-11.663822
 20
33.91332
 30
0.0
 11
-13.119553
 21
32.45759
 31
0.0
  0
LINE
  5
1B0
330
1D
100
AcDbEntity
  8
曲げ物
  6
Continuous
100
AcDbLine
 10
-76.841043
 20
34.61679
 30
0.0
 11
-80.536355
 21
30.921478
 31
0.0
  0
LINE
  5
1B1
330
1D
100
AcDbEntity
  8
曲げ物
  6
Continuous
100
AcDbLine
 10
-77.544513
 20
33.08068
 30
0.0
 11
-79.000242
 21
31.62495
 31
0.0
  0
LINE
  5
1B2
330
1D
100
AcDbEntity
  8
曲げ物
  6
Continuous
100
AcDbLine
 10
-78.37715300000001
 20
33.91332
 30
0.0
 11
-79.832882
 21
32.45759
 31
0.0
  0
LINE
  5
1B3
330
1D
100
AcDbEntity
  8
曲げ物
  6
Continuous
100
AcDbLine
 10
-77.544513
 20
33.08068
 30
0.0
 11
-79.000242
 21
31.62495
 31
0.0
  0
LINE
  5
1B4
330
1D
100
AcDbEntity
  8
曲げ物
  6
Continuous
100
AcDbLine
 10
-78.37715300000001
 20
33.91332
 30
0.0
 11
-79.832882
 21
32.45759
 31
0.0
  0
LINE
  5
1B5
330
1D
100
AcDbEntity
  8
曲げ物
  6
Continuous
100
AcDbLine
 10
123.027835
 20
-49.533713
 30
0.0
 11
123.027835
 21
-69.20038
 31
0.0
  0
LINE
  5
1B6
330
1D
100
AcDbEntity
  8
曲げ物
  6
Continuous
100
AcDbLine
 10
155.537835
 20
-49.533713
 30
0.0
 11
123.027835
 21
-49.533713
 31
0.0
  0
LINE
  5
1B7
330
1D
100
AcDbEntity
  8
曲げ物
  6
Continuous
100
AcDbLine
 10
155.537835
 20
-69.20038
 30
0.0
 11
123.027835
 21
-69.20038
 31
0.0
  0
ENDSEC
  0
SECTION
  2
OBJECTS
  0
DICTIONARY
  5
C
330
0
100
AcDbDictionary
281
     1
  3
ACAD_GROUP
350
D
  3
ACAD_LAYOUT
350
1A
  3
ACAD_MLINESTYLE
350
17
  3
ACAD_PLOTSETTINGS
350
19
  3
ACAD_PLOTSTYLENAME
350
E
  0
DICTIONARY
  5
D
102
{ACAD_REACTORS
330
C
102
}
330
C
100
AcDbDictionary
281
     1
  0
DICTIONARY
  5
1A
102
{ACAD_REACTORS
330
C
102
}
330
C
100
AcDbDictionary
281
     1
  3
Layout1
350
1C
  3
Model
350
1E
  0
DICTIONARY
  5
17
102
{ACAD_REACTORS
330
C
102
}
330
C
100
AcDbDictionary
281
     1
  3
Standard
350
18
  0
DICTIONARY
  5
19
102
{ACAD_REACTORS
330
C
102
}
330
C
100
AcDbDictionary
281
     1
  0
ACDBDICTIONARYWDFLT
  5
E
102
{ACAD_REACTORS
330
C
102
}
330
C
100
AcDbDictionary
281
     1
  3
Normal
350
F
100
AcDbDictionaryWithDefault
340
F
  0
LAYOUT
  5
1C
102
{ACAD_REACTORS
330
1A
102
}
330
1A
100
AcDbPlotSettings
  1

  2

  4

  6

 40
0.0
 41
0.0
 42
0.0
 43
0.0
 44
0.0
 45
0.0
 46
0.0
 47
0.0
 48
0.0
 49
0.0
140
0.0
141
0.0
142
1.0
143
1.0
 70
   688
 72
     0
 73
     0
 74
     5
  7

 75
    16
 76
     0
 77
     2
 78
   300
147
1.0
148
0.0
149
0.0
100
AcDbLayout
  1
Layout1
 70
     1
 71
     1
 10
0.0
 20
0.0
 11
12.0
 21
9.0
 12
0.0
 22
0.0
 32
0.0
 14
1.000000000000000E+20
 24
1.000000000000000E+20
 34
1.000000000000000E+20
 15
-1.000000000000000E+20
 25
-1.000000000000000E+20
 35
-1.000000000000000E+20
146
0.0
 13
0.0
 23
0.0
 33
0.0
 16
1.0
 26
0.0
 36
0.0
 17
0.0
 27
1.0
 37
0.0
 76
     0
330
1B
  0
LAYOUT
  5
1E
102
{ACAD_REACTORS
330
1A
102
}
330
1A
100
AcDbPlotSettings
  1

  2

  4

  6

 40
0.0
 41
0.0
 42
0.0
 43
0.0
 44
0.0
 45
0.0
 46
0.0
 47
0.0
 48
0.0
 49
0.0
140
0.0
141
0.0
142
1.0
143
1.0
 70
  1712
 72
     0
 73
     0
 74
     0
  7

 75
     0
 76
     0
 77
     2
 78
   300
147
1.0
148
0.0
149
0.0
100
AcDbLayout
  1
Model
 70
     1
 71
     0
 10
0.0
 20
0.0
 11
0.0
 21
0.0
 12
0.0
 22
0.0
 32
0.0
 14
-210.0
 24
-148.5
 34
0.0
 15
210.0
 25
148.5
 35
0.0
146
0.0
 13
0.0
 23
0.0
 33
0.0
 16
1.0
 26
0.0
 36
0.0
 17
0.0
 27
1.0
 37
0.0
 76
     0
330
1D
  0
MLINESTYLE
  5
18
102
{ACAD_REACTORS
330
17
102
}
330
17
100
AcDbMlineStyle
  2
Standard
 70
     0
  3

 62
   256
 51
90.0
 52
90.0
 71
     2
 49
0.5
 62
   256
  6
BYLAYER
 49
-0.5
 62
   256
  6
BYLAYER
  0
ACDBPLACEHOLDER
  5
F
102
{ACAD_REACTORS
330
E
102
}
330
E
  0
ENDSEC
  0
EOF
