  0
SECTION
  2
HEADER
  9
$ACADVER
  1
AC1018
  9
$ACADMAINTVER
 70
     0
  9
$DWGCODEPAGE
  3
ANSI_932
  9
$INSBASE
 10
0.0
 20
0.0
 30
0.0
  9
$EXTMIN
 10
-210.0
 20
-148.5
 30
0.0
  9
$EXTMAX
 10
210.0
 20
148.5
 30
0.0
  9
$LIMMIN
 10
0.0
 20
0.0
  9
$LIMMAX
 10
12.0
 20
9.0
  9
$ORTHOMODE
 70
     0
  9
$REGENMODE
 70
     1
  9
$FILLMODE
 70
     1
  9
$QTEXTMODE
 70
     0
  9
$MIRRTEXT
 70
     1
  9
$LTSCALE
 40
10.0
  9
$ATTMODE
 70
     1
  9
$TEXTSIZE
 40
0.2
  9
$TRACEWID
 40
0.05
  9
$TEXTSTYLE
  7
STANDARD
  9
$CLAYER
  8
0
  9
$CELTYPE
  6
ByBlock
  9
$CECOLOR
 62
   256
  9
$CELTSCALE
 40
1.0
  9
$DISPSILH
 70
     0
  9
$DIMSCALE
 40
1.0
  9
$DIMASZ
 40
0.18
  9
$DIMEXO
 40
0.0625
  9
$DIMDLI
 40
0.38
  9
$DIMRND
 40
0.0
  9
$DIMDLE
 40
0.0
  9
$DIMEXE
 40
0.18
  9
$DIMTP
 40
0.0
  9
$DIMTM
 40
0.0
  9
$DIMTXT
 40
0.18
  9
$DIMCEN
 40
0.09
  9
$DIMTSZ
 40
0.0
  9
$DIMTOL
 70
     0
  9
$DIMLIM
 70
     0
  9
$DIMTIH
 70
     1
  9
$DIMTOH
 70
     1
  9
$DIMSE1
 70
     0
  9
$DIMSE2
 70
     0
  9
$DIMTAD
 70
     0
  9
$DIMZIN
 70
     0
  9
$DIMBLK
  1

  9
$DIMASO
 70
     1
  9
$DIMSHO
 70
     1
  9
$DIMPOST
  1

  9
$DIMAPOST
  1

  9
$DIMALT
 70
     0
  9
$DIMALTD
 70
     2
  9
$DIMALTF
 40
25.4
  9
$DIMLFAC
 40
1.0
  9
$DIMTOFL
 70
     0
  9
$DIMTVP
 40
0.0
  9
$DIMTIX
 70
     0
  9
$DIMSOXD
 70
     0
  9
$DIMSAH
 70
     0
  9
$DIMBLK1
  1

  9
$DIMBLK2
  1

  9
$DIMSTYLE
  2
Standard
  9
$DIMCLRD
 70
     0
  9
$DIMCLRE
 70
     0
  9
$DIMCLRT
 70
     0
  9
$DIMTFAC
 40
1.0
  9
$DIMGAP
 40
0.09
  9
$DIMJUST
 70
     0
  9
$DIMSD1
 70
     0
  9
$DIMSD2
 70
     0
  9
$DIMTOLJ
 70
     1
  9
$DIMTZIN
 70
     0
  9
$DIMALTZ
 70
     0
  9
$DIMALTTZ
 70
     0
  9
$DIMUPT
 70
     0
  9
$DIMDEC
 70
     4
  9
$DIMTDEC
 70
     4
  9
$DIMALTU
 70
     2
  9
$DIMALTTD
 70
     2
  9
$DIMTXSTY
  7
STANDARD
  9
$DIMAUNIT
 70
     0
  9
$DIMADEC
 70
     0
  9
$DIMALTRND
 40
0.0
  9
$DIMAZIN
 70
     0
  9
$DIMDSEP
 70
    46
  9
$DIMATFIT
 70
     3
  9
$DIMFRAC
 70
     0
  9
$DIMLDRBLK
  1

  9
$DIMLUNIT
 70
     2
  9
$DIMLWD
 70
    -2
  9
$DIMLWE
 70
    -2
  9
$DIMTMOVE
 70
     0
  9
$LUNITS
 70
     2
  9
$LUPREC
 70
     4
  9
$SKETCHINC
 40
0.1
  9
$FILLETRAD
 40
0.5
  9
$AUNITS
 70
     0
  9
$AUPREC
 70
     0
  9
$MENU
  1
.
  9
$ELEVATION
 40
0.0
  9
$PELEVATION
 40
0.0
  9
$THICKNESS
 40
0.0
  9
$LIMCHECK
 70
     0
  9
$CHAMFERA
 40
0.5
  9
$CHAMFERB
 40
0.5
  9
$CHAMFERC
 40
1.0
  9
$CHAMFERD
 40
0.0
  9
$SKPOLY
 70
     0
  9
$TDCREATE
 40
2460242.412770023
  9
$TDUCREATE
 40
2460242.037770023
  9
$TDUPDATE
 40
2460242.412770035
  9
$TDUUPDATE
 40
2460242.037770035
  9
$TDINDWG
 40
0.0000000116
  9
$TDUSRTIMER
 40
0.0000000116
  9
$USRTIMER
 70
     1
  9
$ANGBASE
 50
0.0
  9
$ANGDIR
 70
     0
  9
$PDMODE
 70
    32
  9
$PDSIZE
 40
1.5
  9
$PLINEWID
 40
0.0
  9
$SPLFRAME
 70
     0
  9
$SPLINETYPE
 70
     6
  9
$SPLINESEGS
 70
     8
  9
$HANDSEED
  5
1FC
  9
$SURFTAB1
 70
     6
  9
$SURFTAB2
 70
     6
  9
$SURFTYPE
 70
     6
  9
$SURFU
 70
     6
  9
$SURFV
 70
     6
  9
$UCSBASE
  2

  9
$UCSNAME
  2

  9
$UCSORG
 10
0.0
 20
0.0
 30
0.0
  9
$UCSXDIR
 10
1.0
 20
0.0
 30
0.0
  9
$UCSYDIR
 10
0.0
 20
1.0
 30
0.0
  9
$UCSORTHOREF
  2

  9
$UCSORTHOVIEW
 70
     0
  9
$UCSORGTOP
 10
0.0
 20
0.0
 30
0.0
  9
$UCSORGBOTTOM
 10
0.0
 20
0.0
 30
0.0
  9
$UCSORGLEFT
 10
0.0
 20
0.0
 30
0.0
  9
$UCSORGRIGHT
 10
0.0
 20
0.0
 30
0.0
  9
$UCSORGFRONT
 10
0.0
 20
0.0
 30
0.0
  9
$UCSORGBACK
 10
0.0
 20
0.0
 30
0.0
  9
$PUCSBASE
  2

  9
$PUCSNAME
  2

  9
$PUCSORG
 10
0.0
 20
0.0
 30
0.0
  9
$PUCSXDIR
 10
1.0
 20
0.0
 30
0.0
  9
$PUCSYDIR
 10
0.0
 20
1.0
 30
0.0
  9
$PUCSORTHOREF
  2

  9
$PUCSORTHOVIEW
 70
     0
  9
$PUCSORGTOP
 10
0.0
 20
0.0
 30
0.0
  9
$PUCSORGBOTTOM
 10
0.0
 20
0.0
 30
0.0
  9
$PUCSORGLEFT
 10
0.0
 20
0.0
 30
0.0
  9
$PUCSORGRIGHT
 10
0.0
 20
0.0
 30
0.0
  9
$PUCSORGFRONT
 10
0.0
 20
0.0
 30
0.0
  9
$PUCSORGBACK
 10
0.0
 20
0.0
 30
0.0
  9
$USERI1
 70
     0
  9
$USERI2
 70
     0
  9
$USERI3
 70
     0
  9
$USERI4
 70
     0
  9
$USERI5
 70
     0
  9
$USERR1
 40
0.0
  9
$USERR2
 40
0.0
  9
$USERR3
 40
0.0
  9
$USERR4
 40
0.0
  9
$USERR5
 40
0.0
  9
$WORLDVIEW
 70
     1
  9
$SHADEDGE
 70
     3
  9
$SHADEDIF
 70
    70
  9
$TILEMODE
 70
     1
  9
$MAXACTVP
 70
    64
  9
$PINSBASE
 10
0.0
 20
0.0
 30
0.0
  9
$PLIMCHECK
 70
     0
  9
$PEXTMIN
 10
1.000000000000000E+20
 20
1.000000000000000E+20
 30
1.000000000000000E+20
  9
$PEXTMAX
 10
-1.000000000000000E+20
 20
-1.000000000000000E+20
 30
-1.000000000000000E+20
  9
$PLIMMIN
 10
0.0
 20
0.0
  9
$PLIMMAX
 10
12.0
 20
9.0
  9
$UNITMODE
 70
     0
  9
$VISRETAIN
 70
     1
  9
$PLINEGEN
 70
     0
  9
$PSLTSCALE
 70
     1
  9
$TREEDEPTH
 70
  3020
  9
$CMLSTYLE
  2
Standard
  9
$CMLJUST
 70
     0
  9
$CMLSCALE
 40
1.0
  9
$PROXYGRAPHICS
 70
     1
  9
$MEASUREMENT
 70
     0
  9
$CELWEIGHT
370
    -1
  9
$ENDCAPS
280
     0
  9
$JOINSTYLE
280
     0
  9
$LWDISPLAY
290
     0
  9
$INSUNITS
 70
     0
  9
$HYPERLINKBASE
  1

  9
$STYLESHEET
  1

  9
$XEDIT
290
     1
  9
$CEPSNTYPE
380
     0
  9
$PSTYLEMODE
290
     1
  9
$FINGERPRINTGUID
  2
{3CB34938-4259-4C4F-96ED-464282D00346}
  9
$VERSIONGUID
  2
{FAEB1C32-E019-11D5-929B-00C0DF256EC4}
  9
$EXTNAMES
290
     1
  9
$PSVPSCALE
 40
0.0
  9
$OLESTARTUP
290
     0
  9
$SORTENTS
280
   127
  9
$INDEXCTL
280
     0
  9
$HIDETEXT
280
     1
  9
$XCLIPFRAME
290
     0
  9
$HALOGAP
280
     0
  9
$OBSCOLOR
 70
   257
  9
$OBSLTYPE
280
     0
  9
$INTERSECTIONDISPLAY
280
     0
  9
$INTERSECTIONCOLOR
 70
   257
  9
$DIMASSOC
280
     2
  9
$PROJECTNAME
  1

  0
ENDSEC
  0
SECTION
  2
CLASSES
  0
CLASS
  1
ACDBDICTIONARYWDFLT
  2
AcDbDictionaryWithDefault
  3
ObjectDBX Classes
 90
        0
 91
        3
280
     0
281
     0
  0
ENDSEC
  0
SECTION
  2
TABLES
  0
TABLE
  2
VPORT
  5
8
330
0
100
AcDbSymbolTable
 70
     1
  0
VPORT
  5
1F7
330
8
100
AcDbSymbolTableRecord
100
AcDbViewportTableRecord
  2
*Active
 70
     0
 10
0.0
 20
0.0
 11
1.0
 21
1.0
 12
10.42990654205607
 22
4.5
 13
0.0
 23
0.0
 14
0.5
 24
0.5
 15
0.5
 25
0.5
 16
0.0
 26
0.0
 36
1.0
 17
0.0
 27
0.0
 37
0.0
 40
9.0
 41
1.972972972850329
 42
50.0
 43
0.0
 44
0.0
 50
0.0
 51
0.0
 71
     0
 72
   100
 73
     1
 74
     3
 75
     0
 76
     0
 77
     0
 78
     0
281
     0
 65
     1
110
0.0
120
0.0
130
0.0
111
1.0
121
0.0
131
0.0
112
0.0
122
1.0
132
0.0
 79
     0
146
0.0
  0
ENDTAB
  0
TABLE
  2
LTYPE
  5
5
330
0
100
AcDbSymbolTable
 70
     9
  0
LTYPE
  5
14
330
5
100
AcDbSymbolTableRecord
100
AcDbLinetypeTableRecord
  2
ByBlock
 70
     0
  3

 72
    65
 73
     0
 40
0.0
  0
LTYPE
  5
15
330
5
100
AcDbSymbolTableRecord
100
AcDbLinetypeTableRecord
  2
ByLayer
 70
     0
  3

 72
    65
 73
     0
 40
0.0
  0
LTYPE
  5
16
330
5
100
AcDbSymbolTableRecord
100
AcDbLinetypeTableRecord
  2
CONTINUOUS
 70
     0
  3
実線
 72
    65
 73
     0
 40
0.0
  0
LTYPE
  5
21
330
5
100
AcDbSymbolTableRecord
100
AcDbLinetypeTableRecord
  2
DASHED
 70
     0
  3
破線A
 72
    65
 73
     2
 40
0.6000000000000001
 49
0.4
 74
     0
 49
-0.2
 74
     0
  0
LTYPE
  5
22
330
5
100
AcDbSymbolTableRecord
100
AcDbLinetypeTableRecord
  2
DASHEDX2
 70
     0
  3
破線B
 72
    65
 73
     2
 40
1.3
 49
0.9
 74
     0
 49
-0.4
 74
     0
  0
LTYPE
  5
23
330
5
100
AcDbSymbolTableRecord
100
AcDbLinetypeTableRecord
  2
DASHDOT
 70
     0
  3
１点鎖線A
 72
    65
 73
     4
 40
0.5375
 49
0.375
 74
     0
 49
-0.05
 74
     0
 49
0.0625
 74
     0
 49
-0.05
 74
     0
  0
LTYPE
  5
24
330
5
100
AcDbSymbolTableRecord
100
AcDbLinetypeTableRecord
  2
DASHDOTX2
 70
     0
  3
１点鎖線B
 72
    65
 73
     4
 40
1.075
 49
0.75
 74
     0
 49
-0.1
 74
     0
 49
0.125
 74
     0
 49
-0.1
 74
     0
  0
LTYPE
  5
25
330
5
100
AcDbSymbolTableRecord
100
AcDbLinetypeTableRecord
  2
DIVIDE2
 70
     0
  3
２点鎖線A
 72
    65
 73
     6
 40
0.5125
 49
0.3
 74
     0
 49
-0.0375
 74
     0
 49
0.05
 74
     0
 49
-0.0375
 74
     0
 49
0.05
 74
     0
 49
-0.0375
 74
     0
  0
LTYPE
  5
26
330
5
100
AcDbSymbolTableRecord
100
AcDbLinetypeTableRecord
  2
DIVIDE
 70
     0
  3
２点鎖線B
 72
    65
 73
     6
 40
1.05
 49
0.55
 74
     0
 49
-0.1
 74
     0
 49
0.1
 74
     0
 49
-0.1
 74
     0
 49
0.1
 74
     0
 49
-0.1
 74
     0
  0
LTYPE
  5
27
330
5
100
AcDbSymbolTableRecord
100
AcDbLinetypeTableRecord
  2
DOT
 70
     0
  3
点線A
 72
    65
 73
     2
 40
0.1125
 49
0.0625
 74
     0
 49
-0.05
 74
     0
  0
LTYPE
  5
28
330
5
100
AcDbSymbolTableRecord
100
AcDbLinetypeTableRecord
  2
DOTX2
 70
     0
  3
点線B
 72
    65
 73
     2
 40
0.275
 49
0.15
 74
     0
 49
-0.125
 74
     0
  0
ENDTAB
  0
TABLE
  2
LAYER
  5
2
330
0
100
AcDbSymbolTable
 70
    34
  0
LAYER
  5
10
330
2
100
AcDbSymbolTableRecord
100
AcDbLayerTableRecord
  2
0
 70
     0
 62
    17
  6
CONTINUOUS
370
    -3
390
F
  0
LAYER
  5
2F
330
2
100
AcDbSymbolTableRecord
100
AcDbLayerTableRecord
  2
通り芯
 70
     0
 62
    15
  6
CONTINUOUS
370
    -3
390
F
  0
LAYER
  5
30
330
2
100
AcDbSymbolTableRecord
100
AcDbLayerTableRecord
  2
補助線
 70
     0
 62
    16
  6
DOT
370
    -3
390
F
  0
LAYER
  5
31
330
2
100
AcDbSymbolTableRecord
100
AcDbLayerTableRecord
  2
躯体
 70
     0
 62
    31
  6
CONTINUOUS
370
    -3
390
F
  0
LAYER
  5
32
330
2
100
AcDbSymbolTableRecord
100
AcDbLayerTableRecord
  2
型材
 70
     0
 62
    32
  6
CONTINUOUS
370
    -3
390
F
  0
LAYER
  5
33
330
2
100
AcDbSymbolTableRecord
100
AcDbLayerTableRecord
  2
型材断面
 70
     0
 62
    47
  6
CONTINUOUS
370
    -3
390
F
  0
LAYER
  5
34
330
2
100
AcDbSymbolTableRecord
100
AcDbLayerTableRecord
  2
ガラス
 70
     0
 62
    48
  6
CONTINUOUS
370
    -3
390
F
  0
LAYER
  5
35
330
2
100
AcDbSymbolTableRecord
100
AcDbLayerTableRecord
  2
ゴム等
 70
     0
 62
    63
  6
CONTINUOUS
370
    -3
390
F
  0
LAYER
  5
36
330
2
100
AcDbSymbolTableRecord
100
AcDbLayerTableRecord
  2
ボルト／ビス
 70
     0
 62
    64
  6
CONTINUOUS
370
    -3
390
F
  0
LAYER
  5
37
330
2
100
AcDbSymbolTableRecord
100
AcDbLayerTableRecord
  2
文字
 70
     0
 62
    79
  6
CONTINUOUS
370
    -3
390
F
  0
LAYER
  5
38
330
2
100
AcDbSymbolTableRecord
100
AcDbLayerTableRecord
  2
寸法
 70
     0
 62
    80
  6
CONTINUOUS
370
    -3
390
F
  0
LAYER
  5
39
330
2
100
AcDbSymbolTableRecord
100
AcDbLayerTableRecord
  2
ﾊｯﾁﾝｸﾞ
 70
     0
 62
    95
  6
CONTINUOUS
370
    -3
390
F
  0
LAYER
  5
3A
330
2
100
AcDbSymbolTableRecord
100
AcDbLayerTableRecord
  2
別途部材
 70
     0
 62
    96
  6
CONTINUOUS
370
    -3
390
F
  0
LAYER
  5
3B
330
2
100
AcDbSymbolTableRecord
100
AcDbLayerTableRecord
  2
曲げ物
 70
     0
 62
   111
  6
CONTINUOUS
370
    -3
390
F
  0
LAYER
  5
3C
330
2
100
AcDbSymbolTableRecord
100
AcDbLayerTableRecord
  2
鉄骨等
 70
     0
 62
   112
  6
CONTINUOUS
370
    -3
390
F
  0
LAYER
  5
3D
330
2
100
AcDbSymbolTableRecord
100
AcDbLayerTableRecord
  2
St
 70
     0
 62
   127
  6
CONTINUOUS
370
    -3
390
F
  0
LAYER
  5
3E
330
2
100
AcDbSymbolTableRecord
100
AcDbLayerTableRecord
  2
その他部品等
 70
     0
 62
   128
  6
CONTINUOUS
370
    -3
390
F
  0
LAYER
  5
3F
330
2
100
AcDbSymbolTableRecord
100
AcDbLayerTableRecord
  2
ｶﾞｽｹｯﾄ
 70
     0
 62
   143
  6
CONTINUOUS
370
    -3
390
F
  0
LAYER
  5
40
330
2
100
AcDbSymbolTableRecord
100
AcDbLayerTableRecord
  2
ｽｹｯﾁ
 70
     0
 62
    14
  6
CONTINUOUS
370
    -3
390
F
  0
LAYER
  5
42
330
2
100
AcDbSymbolTableRecord
100
AcDbLayerTableRecord
  2
1
 70
     0
 62
    30
  6
CONTINUOUS
370
    -3
390
F
  0
LAYER
  5
43
330
2
100
AcDbSymbolTableRecord
100
AcDbLayerTableRecord
  2
4
 70
     0
 62
    33
  6
CONTINUOUS
370
    -3
390
F
  0
LAYER
  5
44
330
2
100
AcDbSymbolTableRecord
100
AcDbLayerTableRecord
  2
ﾚｲﾔ3
 70
     0
 62
    46
  6
CONTINUOUS
370
    -3
390
F
  0
LAYER
  5
45
330
2
100
AcDbSymbolTableRecord
100
AcDbLayerTableRecord
  2
外形線
 70
     0
 62
    49
  6
CONTINUOUS
370
    -3
390
F
  0
LAYER
  5
46
330
2
100
AcDbSymbolTableRecord
100
AcDbLayerTableRecord
  2
部品
 70
     0
 62
    14
  6
CONTINUOUS
370
    -3
390
F
  0
LAYER
  5
47
330
2
100
AcDbSymbolTableRecord
100
AcDbLayerTableRecord
  2
サッシ芯
 70
     0
 62
    17
  6
DASHDOTX2
370
    -3
390
F
  0
LAYER
  5
48
330
2
100
AcDbSymbolTableRecord
100
AcDbLayerTableRecord
  2
寸法線
 70
     0
 62
    62
  6
CONTINUOUS
370
    -3
390
F
  0
LAYER
  5
49
330
2
100
AcDbSymbolTableRecord
100
AcDbLayerTableRecord
  2
姿図外形線
 70
     0
 62
    65
  6
CONTINUOUS
370
    -3
390
F
  0
LAYER
  5
4A
330
2
100
AcDbSymbolTableRecord
100
AcDbLayerTableRecord
  2
姿補助線
 70
     0
 62
    30
  6
CONTINUOUS
370
    -3
390
F
  0
LAYER
  5
4B
330
2
100
AcDbSymbolTableRecord
100
AcDbLayerTableRecord
  2
透視線
 70
     0
 62
    78
  6
DOT
370
    -3
390
F
  0
LAYER
  5
4C
330
2
100
AcDbSymbolTableRecord
100
AcDbLayerTableRecord
  2
用紙
 70
     0
 62
    81
  6
CONTINUOUS
370
    -3
390
F
  0
LAYER
  5
4D
330
2
100
AcDbSymbolTableRecord
100
AcDbLayerTableRecord
  2
実線図枠
 70
     0
 62
    94
  6
CONTINUOUS
370
    -3
390
F
  0
LAYER
  5
4E
330
2
100
AcDbSymbolTableRecord
100
AcDbLayerTableRecord
  2
補助図枠
 70
     0
 62
    97
  6
CONTINUOUS
370
    -3
390
F
  0
LAYER
  5
4F
330
2
100
AcDbSymbolTableRecord
100
AcDbLayerTableRecord
  2
建具記号
 70
     0
 62
   110
  6
CONTINUOUS
370
    -3
390
F
  0
LAYER
  5
50
330
2
100
AcDbSymbolTableRecord
100
AcDbLayerTableRecord
  2
補助文字
 70
     0
 62
   113
  6
CONTINUOUS
370
    -3
390
F
  0
ENDTAB
  0
TABLE
  2
STYLE
  5
3
330
0
100
AcDbSymbolTable
 70
    10
  0
STYLE
  5
11
330
3
100
AcDbSymbolTableRecord
100
AcDbTextStyleTableRecord
  2
STANDARD
 70
     0
 40
1.0
 41
1.0
 50
0.0
 71
     0
 42
1.0
  3
TXT
  4
BIGFONT
  0
STYLE
  5
52
330
3
100
AcDbSymbolTableRecord
100
AcDbTextStyleTableRecord
  2
TATE
 70
     4
 40
1.0
 41
1.0
 50
0.0
 71
     0
 42
1.0
  3
TXT
  4
BIGFONT
  0
STYLE
  5
53
330
3
100
AcDbSymbolTableRecord
100
AcDbTextStyleTableRecord
  2
TextStyle03
 70
     0
 40
1.0
 41
1.0
 50
0.0
 71
     0
 42
1.0
  3
MONOTXT
  4
BIGFONT
  0
STYLE
  5
54
330
3
100
AcDbSymbolTableRecord
100
AcDbTextStyleTableRecord
  2
TextStyle04
 70
     0
 40
1.0
 41
1.0
 50
0.0
 71
     0
 42
1.0
  3
MONOTXT
  4
BIGFONT
  0
STYLE
  5
55
330
3
100
AcDbSymbolTableRecord
100
AcDbTextStyleTableRecord
  2
TextStyle05
 70
     0
 40
1.0
 41
1.0
 50
0.0
 71
     0
 42
1.0
  3
MONOTXT
  4
BIGFONT
  0
STYLE
  5
56
330
3
100
AcDbSymbolTableRecord
100
AcDbTextStyleTableRecord
  2
TextStyle06
 70
     0
 40
1.0
 41
1.0
 50
0.0
 71
     0
 42
1.0
  3
MONOTXT
  4
BIGFONT
  0
STYLE
  5
57
330
3
100
AcDbSymbolTableRecord
100
AcDbTextStyleTableRecord
  2
TextStyle07
 70
     0
 40
1.0
 41
1.0
 50
0.0
 71
     0
 42
1.0
  3
MONOTXT
  4
BIGFONT
  0
STYLE
  5
58
330
3
100
AcDbSymbolTableRecord
100
AcDbTextStyleTableRecord
  2
TextStyle08
 70
     0
 40
1.0
 41
1.0
 50
0.0
 71
     0
 42
1.0
  3
MONOTXT
  4
BIGFONT
  0
STYLE
  5
59
330
3
100
AcDbSymbolTableRecord
100
AcDbTextStyleTableRecord
  2
TextStyle09
 70
     0
 40
1.0
 41
1.0
 50
0.0
 71
     0
 42
1.0
  3
MONOTXT
  4
BIGFONT
  0
STYLE
  5
5A
330
3
100
AcDbSymbolTableRecord
100
AcDbTextStyleTableRecord
  2
TextStyle10
 70
     0
 40
1.0
 41
1.0
 50
0.0
 71
     0
 42
1.0
  3
MONOTXT
  4
BIGFONT
  0
ENDTAB
  0
TABLE
  2
VIEW
  5
6
330
0
100
AcDbSymbolTable
 70
     0
  0
ENDTAB
  0
TABLE
  2
UCS
  5
7
330
0
100
AcDbSymbolTable
 70
     0
  0
ENDTAB
  0
TABLE
  2
APPID
  5
9
330
0
100
AcDbSymbolTable
 70
     1
  0
APPID
  5
12
330
9
100
AcDbSymbolTableRecord
100
AcDbRegAppTableRecord
  2
ACAD
 70
     0
  0
ENDTAB
  0
TABLE
  2
DIMSTYLE
  5
A
330
0
100
AcDbSymbolTable
 70
     1
100
AcDbDimStyleTable
  0
DIMSTYLE
105
5B
330
A
100
AcDbSymbolTableRecord
100
AcDbDimStyleTableRecord
  2
Standard
 70
     0
340
11
  0
ENDTAB
  0
TABLE
  2
BLOCK_RECORD
  5
1
330
0
100
AcDbSymbolTable
 70
    20
  0
BLOCK_RECORD
  5
1D
330
1
100
AcDbSymbolTableRecord
100
AcDbBlockTableRecord
  2
*Model_Space
340
1E
  0
BLOCK_RECORD
  5
1B
330
1
100
AcDbSymbolTableRecord
100
AcDbBlockTableRecord
  2
*Paper_Space
340
1C
  0
BLOCK_RECORD
  5
5D
330
1
100
AcDbSymbolTableRecord
100
AcDbBlockTableRecord
  2
*U0
340
0
102
{BLKREFS
331
FC
102
}
  0
BLOCK_RECORD
  5
66
330
1
100
AcDbSymbolTableRecord
100
AcDbBlockTableRecord
  2
*U1
340
0
102
{BLKREFS
331
1C2
102
}
  0
BLOCK_RECORD
  5
6D
330
1
100
AcDbSymbolTableRecord
100
AcDbBlockTableRecord
  2
*U2
340
0
102
{BLKREFS
331
1C3
102
}
  0
BLOCK_RECORD
  5
76
330
1
100
AcDbSymbolTableRecord
100
AcDbBlockTableRecord
  2
*U3
340
0
102
{BLKREFS
331
1C4
102
}
  0
BLOCK_RECORD
  5
7D
330
1
100
AcDbSymbolTableRecord
100
AcDbBlockTableRecord
  2
*U4
340
0
102
{BLKREFS
331
1C5
102
}
  0
BLOCK_RECORD
  5
84
330
1
100
AcDbSymbolTableRecord
100
AcDbBlockTableRecord
  2
*U5
340
0
102
{BLKREFS
331
1C6
102
}
  0
BLOCK_RECORD
  5
8D
330
1
100
AcDbSymbolTableRecord
100
AcDbBlockTableRecord
  2
*U6
340
0
102
{BLKREFS
331
1C7
102
}
  0
BLOCK_RECORD
  5
96
330
1
100
AcDbSymbolTableRecord
100
AcDbBlockTableRecord
  2
*U7
340
0
102
{BLKREFS
331
1C8
102
}
  0
BLOCK_RECORD
  5
9D
330
1
100
AcDbSymbolTableRecord
100
AcDbBlockTableRecord
  2
*U8
340
0
102
{BLKREFS
331
1C9
102
}
  0
BLOCK_RECORD
  5
A4
330
1
100
AcDbSymbolTableRecord
100
AcDbBlockTableRecord
  2
*U9
340
0
102
{BLKREFS
331
1CA
102
}
  0
BLOCK_RECORD
  5
AB
330
1
100
AcDbSymbolTableRecord
100
AcDbBlockTableRecord
  2
*U10
340
0
102
{BLKREFS
331
1CB
102
}
  0
BLOCK_RECORD
  5
B2
330
1
100
AcDbSymbolTableRecord
100
AcDbBlockTableRecord
  2
*U11
340
0
102
{BLKREFS
331
1CC
102
}
  0
BLOCK_RECORD
  5
B9
330
1
100
AcDbSymbolTableRecord
100
AcDbBlockTableRecord
  2
*U12
340
0
102
{BLKREFS
331
1CD
102
}
  0
BLOCK_RECORD
  5
C1
330
1
100
AcDbSymbolTableRecord
100
AcDbBlockTableRecord
  2
*U13
340
0
102
{BLKREFS
331
1CE
102
}
  0
BLOCK_RECORD
  5
C9
330
1
100
AcDbSymbolTableRecord
100
AcDbBlockTableRecord
  2
*U14
340
0
102
{BLKREFS
331
1CF
102
}
  0
BLOCK_RECORD
  5
D1
330
1
100
AcDbSymbolTableRecord
100
AcDbBlockTableRecord
  2
*U15
340
0
102
{BLKREFS
331
1D0
102
}
  0
BLOCK_RECORD
  5
D9
330
1
100
AcDbSymbolTableRecord
100
AcDbBlockTableRecord
  2
*U16
340
0
102
{BLKREFS
331
1D1
102
}
  0
BLOCK_RECORD
  5
E2
330
1
100
AcDbSymbolTableRecord
100
AcDbBlockTableRecord
  2
*U17
340
0
102
{BLKREFS
331
1D2
102
}
  0
BLOCK_RECORD
  5
E9
330
1
100
AcDbSymbolTableRecord
100
AcDbBlockTableRecord
  2
*U18
340
0
102
{BLKREFS
331
1D3
102
}
  0
BLOCK_RECORD
  5
F0
330
1
100
AcDbSymbolTableRecord
100
AcDbBlockTableRecord
  2
*U19
340
0
102
{BLKREFS
331
1D4
102
}
  0
ENDTAB
  0
ENDSEC
  0
SECTION
  2
BLOCKS
  0
BLOCK
  5
1F8
330
1D
100
AcDbEntity
  8
0
100
AcDbBlockBegin
  2
*Model_Space
 70
     0
 71
     0
 10
0.0
 20
0.0
 30
0.0
  3
*Model_Space
  1

  0
ENDBLK
  5
1F9
330
1D
100
AcDbEntity
  8
0
100
AcDbBlockEnd
  0
BLOCK
  5
1FA
330
1B
100
AcDbEntity
 67
     1
  8
0
100
AcDbBlockBegin
  2
*Paper_Space
 70
     0
 71
     0
 10
0.0
 20
0.0
 30
0.0
  3
*Paper_Space
  1

  0
ENDBLK
  5
1FB
330
1B
100
AcDbEntity
 67
     1
  8
0
100
AcDbBlockEnd
  0
BLOCK
  5
5C
330
5D
100
AcDbEntity
  8
0
100
AcDbBlockBegin
  2
*U0
 70
     1
 71
     0
 10
0.0
 20
0.0
 30
0.0
  3
*U0
  1

  0
LINE
  5
5E
330
5D
100
AcDbEntity
  8
型材断面
  6
Continuous
100
AcDbLine
 10
195.0
 20
133.5
 30
0.0
 11
195.0
 21
-133.5
 31
0.0
  0
LINE
  5
5F
330
5D
100
AcDbEntity
  8
型材断面
  6
Continuous
100
AcDbLine
 10
195.0
 20
-133.5
 30
0.0
 11
-185.0
 21
-133.5
 31
0.0
  0
LINE
  5
60
330
5D
100
AcDbEntity
  8
型材断面
  6
Continuous
100
AcDbLine
 10
-185.0
 20
-133.5
 30
0.0
 11
-185.0
 21
133.5
 31
0.0
  0
LINE
  5
61
330
5D
100
AcDbEntity
  8
型材断面
  6
Continuous
100
AcDbLine
 10
195.0
 20
133.5
 30
0.0
 11
-185.0
 21
133.5
 31
0.0
  0
LINE
  5
62
330
5D
100
AcDbEntity
  8
型材断面
  6
Continuous
100
AcDbLine
 10
145.0
 20
-133.5
 30
0.0
 11
145.0
 21
-118.5
 31
0.0
  0
LINE
  5
63
330
5D
100
AcDbEntity
  8
型材断面
  6
Continuous
100
AcDbLine
 10
195.0
 20
-118.5
 30
0.0
 11
145.0
 21
-118.5
 31
0.0
  0
ENDBLK
  5
64
330
5D
100
AcDbEntity
  8
0
100
AcDbBlockEnd
  0
BLOCK
  5
65
330
66
100
AcDbEntity
  8
0
100
AcDbBlockBegin
  2
*U1
 70
     1
 71
     0
 10
0.0
 20
0.0
 30
0.0
  3
*U1
  1

  0
LINE
  5
67
330
66
100
AcDbEntity
  8
寸法
  6
ByBlock
 62
     0
100
AcDbLine
 10
46.224393
 20
-13.121378
 30
0.0
 11
-120.442275
 21
-13.121378
 31
0.0
  0
POINT
  5
68
330
66
100
AcDbEntity
  8
寸法
 62
     0
100
AcDbPoint
 10
46.224393
 20
-13.121378
 30
0.0
  0
POINT
  5
69
330
66
100
AcDbEntity
  8
寸法
 62
     0
100
AcDbPoint
 10
-120.442275
 20
-13.121378
 30
0.0
  0
TEXT
  5
6A
330
66
100
AcDbEntity
  8
寸法
  6
Continuous
 62
     0
100
AcDbText
 10
-48.84375
 20
-12.75
 30
0.0
 40
3.0
  1
呼称寸法　5000
  7
TextStyle03
 72
     5
 11
-25.40625
 21
-12.75
 31
0.0
100
AcDbText
  0
ENDBLK
  5
6B
330
66
100
AcDbEntity
  8
0
100
AcDbBlockEnd
  0
BLOCK
  5
6C
330
6D
100
AcDbEntity
  8
0
100
AcDbBlockBegin
  2
*U2
 70
     1
 71
     0
 10
0.0
 20
0.0
 30
0.0
  3
*U2
  1

  0
LINE
  5
6E
330
6D
100
AcDbEntity
  8
寸法
  6
ByBlock
 62
     0
100
AcDbLine
 10
-103.775608
 20
19.183902
 30
0.0
 11
-103.775608
 21
14.041447
 31
0.0
  0
LINE
  5
6F
330
6D
100
AcDbEntity
  8
寸法
  6
ByBlock
 62
     0
100
AcDbLine
 10
-37.10894
 20
19.183905
 30
0.0
 11
-37.10894
 21
14.041447
 31
0.0
  0
LINE
  5
70
330
6D
100
AcDbEntity
  8
寸法
  6
ByBlock
 62
     0
100
AcDbLine
 10
-103.775608
 20
14.041447
 30
0.0
 11
-37.10894
 21
14.041447
 31
0.0
  0
POINT
  5
71
330
6D
100
AcDbEntity
  8
寸法
 62
     0
100
AcDbPoint
 10
-103.775608
 20
14.041447
 30
0.0
  0
POINT
  5
72
330
6D
100
AcDbEntity
  8
寸法
 62
     0
100
AcDbPoint
 10
-37.10894
 20
14.041447
 30
0.0
  0
TEXT
  5
73
330
6D
100
AcDbEntity
  8
寸法
  6
Continuous
 62
     0
100
AcDbText
 10
-73.73125
 20
14.4
 30
0.0
 40
3.0
  1
2000
  7
TextStyle03
 72
     5
 11
-67.16875
 21
14.4
 31
0.0
100
AcDbText
  0
ENDBLK
  5
74
330
6D
100
AcDbEntity
  8
0
100
AcDbBlockEnd
  0
BLOCK
  5
75
330
76
100
AcDbEntity
  8
0
100
AcDbBlockBegin
  2
*U3
 70
     1
 71
     0
 10
0.0
 20
0.0
 30
0.0
  3
*U3
  1

  0
LINE
  5
77
330
76
100
AcDbEntity
  8
寸法
  6
ByBlock
 62
     0
100
AcDbLine
 10
29.557727
 20
19.183902
 30
0.0
 11
29.557727
 21
14.041447
 31
0.0
  0
LINE
  5
78
330
76
100
AcDbEntity
  8
寸法
  6
ByBlock
 62
     0
100
AcDbLine
 10
-37.10894
 20
14.041447
 30
0.0
 11
29.557727
 21
14.041447
 31
0.0
  0
POINT
  5
79
330
76
100
AcDbEntity
  8
寸法
 62
     0
100
AcDbPoint
 10
29.557727
 20
14.041447
 30
0.0
  0
TEXT
  5
7A
330
76
100
AcDbEntity
  8
寸法
  6
Continuous
 62
     0
100
AcDbText
 10
-7.08125
 20
14.4
 30
0.0
 40
3.0
  1
2000
  7
TextStyle03
 72
     5
 11
-0.51875
 21
14.4
 31
0.0
100
AcDbText
  0
ENDBLK
  5
7B
330
76
100
AcDbEntity
  8
0
100
AcDbBlockEnd
  0
BLOCK
  5
7C
330
7D
100
AcDbEntity
  8
0
100
AcDbBlockBegin
  2
*U4
 70
     1
 71
     0
 10
0.0
 20
0.0
 30
0.0
  3
*U4
  1

  0
LINE
  5
7E
330
7D
100
AcDbEntity
  8
寸法
  6
ByBlock
 62
     0
100
AcDbLine
 10
80.24404300000001
 20
22.814033
 30
0.0
 11
80.24404300000001
 21
42.814033
 31
0.0
  0
POINT
  5
7F
330
7D
100
AcDbEntity
  8
寸法
 62
     0
100
AcDbPoint
 10
80.24404300000001
 20
22.814033
 30
0.0
  0
POINT
  5
80
330
7D
100
AcDbEntity
  8
寸法
 62
     0
100
AcDbPoint
 10
80.24404300000001
 20
42.814033
 30
0.0
  0
TEXT
  5
81
330
7D
100
AcDbEntity
  8
寸法
  6
Continuous
 62
     0
100
AcDbText
 10
79.84999999999999
 20
21.925
 30
0.0
 40
3.0
  1
呼称寸法　600
 50
90.0
  7
TextStyle03
 72
     5
 11
79.84999999999999
 21
43.675
 31
0.0
100
AcDbText
  0
ENDBLK
  5
82
330
7D
100
AcDbEntity
  8
0
100
AcDbBlockEnd
  0
BLOCK
  5
83
330
84
100
AcDbEntity
  8
0
100
AcDbBlockBegin
  2
*U5
 70
     1
 71
     0
 10
0.0
 20
0.0
 30
0.0
  3
*U5
  1

  0
LINE
  5
85
330
84
100
AcDbEntity
  8
寸法
  6
ByBlock
 62
     0
100
AcDbLine
 10
-123.442275
 20
39.4807
 30
0.0
 11
-136.735113
 21
39.4807
 31
0.0
  0
LINE
  5
86
330
84
100
AcDbEntity
  8
寸法
  6
ByBlock
 62
     0
100
AcDbLine
 10
-123.442275
 20
26.147365
 30
0.0
 11
-136.735113
 21
26.147365
 31
0.0
  0
LINE
  5
87
330
84
100
AcDbEntity
  8
寸法
  6
ByBlock
 62
     0
100
AcDbLine
 10
-136.735113
 20
39.4807
 30
0.0
 11
-136.735113
 21
26.147365
 31
0.0
  0
POINT
  5
88
330
84
100
AcDbEntity
  8
寸法
 62
     0
100
AcDbPoint
 10
-136.735113
 20
39.4807
 30
0.0
  0
POINT
  5
89
330
84
100
AcDbEntity
  8
寸法
 62
     0
100
AcDbPoint
 10
-136.735113
 20
26.147365
 30
0.0
  0
TEXT
  5
8A
330
84
100
AcDbEntity
  8
寸法
  6
Continuous
 62
     0
100
AcDbText
 10
-137.125
 20
30.3625
 30
0.0
 40
3.0
  1
400
 50
90.0
  7
TextStyle03
 72
     5
 11
-137.125
 21
35.2375
 31
0.0
100
AcDbText
  0
ENDBLK
  5
8B
330
84
100
AcDbEntity
  8
0
100
AcDbBlockEnd
  0
BLOCK
  5
8C
330
8D
100
AcDbEntity
  8
0
100
AcDbBlockBegin
  2
*U6
 70
     1
 71
     0
 10
0.0
 20
0.0
 30
0.0
  3
*U6
  1

  0
LINE
  5
8E
330
8D
100
AcDbEntity
  8
寸法
  6
ByBlock
 62
     0
100
AcDbLine
 10
-112.10894
 20
45.814033
 30
0.0
 11
-112.10894
 21
74.922105
 31
0.0
  0
LINE
  5
8F
330
8D
100
AcDbEntity
  8
寸法
  6
ByBlock
 62
     0
100
AcDbLine
 10
-87.10894
 20
45.814033
 30
0.0
 11
-87.10894
 21
74.922105
 31
0.0
  0
LINE
  5
90
330
8D
100
AcDbEntity
  8
寸法
  6
ByBlock
 62
     0
100
AcDbLine
 10
-112.10894
 20
74.922105
 30
0.0
 11
-87.10894
 21
74.922105
 31
0.0
  0
POINT
  5
91
330
8D
100
AcDbEntity
  8
寸法
 62
     0
100
AcDbPoint
 10
-112.10894
 20
74.922105
 30
0.0
  0
POINT
  5
92
330
8D
100
AcDbEntity
  8
寸法
 62
     0
100
AcDbPoint
 10
-87.10894
 20
74.922105
 30
0.0
  0
TEXT
  5
93
330
8D
100
AcDbEntity
  8
寸法
  6
Continuous
 62
     0
100
AcDbText
 10
-102.0875
 20
75.27500000000001
 30
0.0
 40
3.0
  1
750
  7
TextStyle03
 72
     5
 11
-97.21250000000001
 21
75.27500000000001
 31
0.0
100
AcDbText
  0
ENDBLK
  5
94
330
8D
100
AcDbEntity
  8
0
100
AcDbBlockEnd
  0
BLOCK
  5
95
330
96
100
AcDbEntity
  8
0
100
AcDbBlockBegin
  2
*U7
 70
     1
 71
     0
 10
0.0
 20
0.0
 30
0.0
  3
*U7
  1

  0
LINE
  5
97
330
96
100
AcDbEntity
  8
寸法
  6
ByBlock
 62
     0
100
AcDbLine
 10
-62.10894
 20
45.814033
 30
0.0
 11
-62.10894
 21
74.922105
 31
0.0
  0
LINE
  5
98
330
96
100
AcDbEntity
  8
寸法
  6
ByBlock
 62
     0
100
AcDbLine
 10
-87.10894
 20
74.922105
 30
0.0
 11
-62.10894
 21
74.922105
 31
0.0
  0
POINT
  5
99
330
96
100
AcDbEntity
  8
寸法
 62
     0
100
AcDbPoint
 10
-62.10894
 20
74.922105
 30
0.0
  0
TEXT
  5
9A
330
96
100
AcDbEntity
  8
寸法
  6
Continuous
 62
     0
100
AcDbText
 10
-77.08750000000001
 20
75.27500000000001
 30
0.0
 40
3.0
  1
750
  7
TextStyle03
 72
     5
 11
-72.21250000000001
 21
75.27500000000001
 31
0.0
100
AcDbText
  0
ENDBLK
  5
9B
330
96
100
AcDbEntity
  8
0
100
AcDbBlockEnd
  0
BLOCK
  5
9C
330
9D
100
AcDbEntity
  8
0
100
AcDbBlockBegin
  2
*U8
 70
     1
 71
     0
 10
0.0
 20
0.0
 30
0.0
  3
*U8
  1

  0
LINE
  5
9E
330
9D
100
AcDbEntity
  8
寸法
  6
ByBlock
 62
     0
100
AcDbLine
 10
-37.10894
 20
45.814033
 30
0.0
 11
-37.10894
 21
74.922105
 31
0.0
  0
LINE
  5
9F
330
9D
100
AcDbEntity
  8
寸法
  6
ByBlock
 62
     0
100
AcDbLine
 10
-62.10894
 20
74.922105
 30
0.0
 11
-37.10894
 21
74.922105
 31
0.0
  0
POINT
  5
A0
330
9D
100
AcDbEntity
  8
寸法
 62
     0
100
AcDbPoint
 10
-37.10894
 20
74.922105
 30
0.0
  0
TEXT
  5
A1
330
9D
100
AcDbEntity
  8
寸法
  6
Continuous
 62
     0
100
AcDbText
 10
-52.0875
 20
75.27500000000001
 30
0.0
 40
3.0
  1
750
  7
TextStyle03
 72
     5
 11
-47.2125
 21
75.27500000000001
 31
0.0
100
AcDbText
  0
ENDBLK
  5
A2
330
9D
100
AcDbEntity
  8
0
100
AcDbBlockEnd
  0
BLOCK
  5
A3
330
A4
100
AcDbEntity
  8
0
100
AcDbBlockBegin
  2
*U9
 70
     1
 71
     0
 10
0.0
 20
0.0
 30
0.0
  3
*U9
  1

  0
LINE
  5
A5
330
A4
100
AcDbEntity
  8
寸法
  6
ByBlock
 62
     0
100
AcDbLine
 10
-12.10894
 20
45.814033
 30
0.0
 11
-12.10894
 21
74.922105
 31
0.0
  0
LINE
  5
A6
330
A4
100
AcDbEntity
  8
寸法
  6
ByBlock
 62
     0
100
AcDbLine
 10
-37.10894
 20
74.922105
 30
0.0
 11
-12.10894
 21
74.922105
 31
0.0
  0
POINT
  5
A7
330
A4
100
AcDbEntity
  8
寸法
 62
     0
100
AcDbPoint
 10
-12.10894
 20
74.922105
 30
0.0
  0
TEXT
  5
A8
330
A4
100
AcDbEntity
  8
寸法
  6
Continuous
 62
     0
100
AcDbText
 10
-27.0875
 20
75.27500000000001
 30
0.0
 40
3.0
  1
750
  7
TextStyle03
 72
     5
 11
-22.2125
 21
75.27500000000001
 31
0.0
100
AcDbText
  0
ENDBLK
  5
A9
330
A4
100
AcDbEntity
  8
0
100
AcDbBlockEnd
  0
BLOCK
  5
AA
330
AB
100
AcDbEntity
  8
0
100
AcDbBlockBegin
  2
*U10
 70
     1
 71
     0
 10
0.0
 20
0.0
 30
0.0
  3
*U10
  1

  0
LINE
  5
AC
330
AB
100
AcDbEntity
  8
寸法
  6
ByBlock
 62
     0
100
AcDbLine
 10
12.89106
 20
45.814033
 30
0.0
 11
12.89106
 21
74.922105
 31
0.0
  0
LINE
  5
AD
330
AB
100
AcDbEntity
  8
寸法
  6
ByBlock
 62
     0
100
AcDbLine
 10
-12.10894
 20
74.922105
 30
0.0
 11
12.89106
 21
74.922105
 31
0.0
  0
POINT
  5
AE
330
AB
100
AcDbEntity
  8
寸法
 62
     0
100
AcDbPoint
 10
12.89106
 20
74.922105
 30
0.0
  0
TEXT
  5
AF
330
AB
100
AcDbEntity
  8
寸法
  6
Continuous
 62
     0
100
AcDbText
 10
-2.0875
 20
75.27500000000001
 30
0.0
 40
3.0
  1
750
  7
TextStyle03
 72
     5
 11
2.7875
 21
75.27500000000001
 31
0.0
100
AcDbText
  0
ENDBLK
  5
B0
330
AB
100
AcDbEntity
  8
0
100
AcDbBlockEnd
  0
BLOCK
  5
B1
330
B2
100
AcDbEntity
  8
0
100
AcDbBlockBegin
  2
*U11
 70
     1
 71
     0
 10
0.0
 20
0.0
 30
0.0
  3
*U11
  1

  0
LINE
  5
B3
330
B2
100
AcDbEntity
  8
寸法
  6
ByBlock
 62
     0
100
AcDbLine
 10
37.89106
 20
45.814033
 30
0.0
 11
37.89106
 21
74.922105
 31
0.0
  0
LINE
  5
B4
330
B2
100
AcDbEntity
  8
寸法
  6
ByBlock
 62
     0
100
AcDbLine
 10
12.89106
 20
74.922105
 30
0.0
 11
37.89106
 21
74.922105
 31
0.0
  0
POINT
  5
B5
330
B2
100
AcDbEntity
  8
寸法
 62
     0
100
AcDbPoint
 10
37.89106
 20
74.922105
 30
0.0
  0
TEXT
  5
B6
330
B2
100
AcDbEntity
  8
寸法
  6
Continuous
 62
     0
100
AcDbText
 10
22.9125
 20
75.27500000000001
 30
0.0
 40
3.0
  1
750
  7
TextStyle03
 72
     5
 11
27.7875
 21
75.27500000000001
 31
0.0
100
AcDbText
  0
ENDBLK
  5
B7
330
B2
100
AcDbEntity
  8
0
100
AcDbBlockEnd
  0
BLOCK
  5
B8
330
B9
100
AcDbEntity
  8
0
100
AcDbBlockBegin
  2
*U12
 70
     1
 71
     0
 10
0.0
 20
0.0
 30
0.0
  3
*U12
  1

  0
LINE
  5
BA
330
B9
100
AcDbEntity
  8
寸法
  6
ByBlock
 62
     0
100
AcDbLine
 10
-123.608937
 20
-71.04318499999999
 30
0.0
 11
-123.608937
 21
-13.121378
 31
0.0
  0
LINE
  5
BB
330
B9
100
AcDbEntity
  8
寸法
  6
ByBlock
 62
     0
100
AcDbLine
 10
-120.442275
 20
-13.121378
 30
0.0
 11
-123.608937
 21
-13.121378
 31
0.0
  0
POINT
  5
BC
330
B9
100
AcDbEntity
  8
寸法
 62
     0
100
AcDbPoint
 10
-120.442275
 20
-13.121378
 30
0.0
  0
POINT
  5
BD
330
B9
100
AcDbEntity
  8
寸法
 62
     0
100
AcDbPoint
 10
-123.608937
 20
-13.121378
 30
0.0
  0
TEXT
  5
BE
330
B9
100
AcDbEntity
  8
寸法
  6
Continuous
 62
     0
100
AcDbText
 10
-123.64375
 20
-12.75
 30
0.0
 40
3.0
  1
95
  7
TextStyle03
 72
     5
 11
-120.45625
 21
-12.75
 31
0.0
100
AcDbText
  0
ENDBLK
  5
BF
330
B9
100
AcDbEntity
  8
0
100
AcDbBlockEnd
  0
BLOCK
  5
C0
330
C1
100
AcDbEntity
  8
0
100
AcDbBlockBegin
  2
*U13
 70
     1
 71
     0
 10
0.0
 20
0.0
 30
0.0
  3
*U13
  1

  0
LINE
  5
C2
330
C1
100
AcDbEntity
  8
寸法
  6
ByBlock
 62
     0
100
AcDbLine
 10
49.39106
 20
-70.54318499999999
 30
0.0
 11
49.39106
 21
-13.121378
 31
0.0
  0
LINE
  5
C3
330
C1
100
AcDbEntity
  8
寸法
  6
ByBlock
 62
     0
100
AcDbLine
 10
46.224393
 20
-13.121378
 30
0.0
 11
49.39106
 21
-13.121378
 31
0.0
  0
POINT
  5
C4
330
C1
100
AcDbEntity
  8
寸法
 62
     0
100
AcDbPoint
 10
46.224393
 20
-13.121378
 30
0.0
  0
POINT
  5
C5
330
C1
100
AcDbEntity
  8
寸法
 62
     0
100
AcDbPoint
 10
49.39106
 20
-13.121378
 30
0.0
  0
TEXT
  5
C6
330
C1
100
AcDbEntity
  8
寸法
  6
Continuous
 62
     0
100
AcDbText
 10
46.20625
 20
-12.75
 30
0.0
 40
3.0
  1
95
  7
TextStyle03
 72
     5
 11
49.39375
 21
-12.75
 31
0.0
100
AcDbText
  0
ENDBLK
  5
C7
330
C1
100
AcDbEntity
  8
0
100
AcDbBlockEnd
  0
BLOCK
  5
C8
330
C9
100
AcDbEntity
  8
0
100
AcDbBlockBegin
  2
*U14
 70
     1
 71
     0
 10
0.0
 20
0.0
 30
0.0
  3
*U14
  1

  0
LINE
  5
CA
330
C9
100
AcDbEntity
  8
寸法
  6
ByBlock
 62
     0
100
AcDbLine
 10
136.09123
 20
19.647365
 30
0.0
 11
80.24404300000001
 21
19.647365
 31
0.0
  0
LINE
  5
CB
330
C9
100
AcDbEntity
  8
寸法
  6
ByBlock
 62
     0
100
AcDbLine
 10
80.24404300000001
 20
22.814033
 30
0.0
 11
80.24404300000001
 21
19.647365
 31
0.0
  0
POINT
  5
CC
330
C9
100
AcDbEntity
  8
寸法
 62
     0
100
AcDbPoint
 10
80.24404300000001
 20
22.814033
 30
0.0
  0
POINT
  5
CD
330
C9
100
AcDbEntity
  8
寸法
 62
     0
100
AcDbPoint
 10
80.24404300000001
 20
19.647365
 30
0.0
  0
TEXT
  5
CE
330
C9
100
AcDbEntity
  8
寸法
  6
Continuous
 62
     0
100
AcDbText
 10
79.84999999999999
 20
16.25625
 30
0.0
 40
3.0
  1
95
 50
90.0
  7
TextStyle03
 72
     5
 11
79.84999999999999
 21
19.44375
 31
0.0
100
AcDbText
  0
ENDBLK
  5
CF
330
C9
100
AcDbEntity
  8
0
100
AcDbBlockEnd
  0
BLOCK
  5
D0
330
D1
100
AcDbEntity
  8
0
100
AcDbBlockBegin
  2
*U15
 70
     1
 71
     0
 10
0.0
 20
0.0
 30
0.0
  3
*U15
  1

  0
LINE
  5
D2
330
D1
100
AcDbEntity
  8
寸法
  6
ByBlock
 62
     0
100
AcDbLine
 10
136.09123
 20
45.9807
 30
0.0
 11
80.24404300000001
 21
45.9807
 31
0.0
  0
LINE
  5
D3
330
D1
100
AcDbEntity
  8
寸法
  6
ByBlock
 62
     0
100
AcDbLine
 10
80.24404300000001
 20
42.814033
 30
0.0
 11
80.24404300000001
 21
45.9807
 31
0.0
  0
POINT
  5
D4
330
D1
100
AcDbEntity
  8
寸法
 62
     0
100
AcDbPoint
 10
80.24404300000001
 20
42.814033
 30
0.0
  0
POINT
  5
D5
330
D1
100
AcDbEntity
  8
寸法
 62
     0
100
AcDbPoint
 10
80.24404300000001
 20
45.9807
 30
0.0
  0
TEXT
  5
D6
330
D1
100
AcDbEntity
  8
寸法
  6
Continuous
 62
     0
100
AcDbText
 10
79.84999999999999
 20
46.15625
 30
0.0
 40
3.0
  1
95
 50
90.0
  7
TextStyle03
 72
     5
 11
79.84999999999999
 21
49.34375
 31
0.0
100
AcDbText
  0
ENDBLK
  5
D7
330
D1
100
AcDbEntity
  8
0
100
AcDbBlockEnd
  0
BLOCK
  5
D8
330
D9
100
AcDbEntity
  8
0
100
AcDbBlockBegin
  2
*U16
 70
     1
 71
     0
 10
0.0
 20
0.0
 30
0.0
  3
*U16
  1

  0
LINE
  5
DA
330
D9
100
AcDbEntity
  8
寸法
  6
ByBlock
 62
     0
100
AcDbLine
 10
158.537835
 20
-49.533713
 30
0.0
 11
165.404422
 21
-49.533713
 31
0.0
  0
LINE
  5
DB
330
D9
100
AcDbEntity
  8
寸法
  6
ByBlock
 62
     0
100
AcDbLine
 10
158.537835
 20
-69.20038
 30
0.0
 11
165.404422
 21
-69.20038
 31
0.0
  0
LINE
  5
DC
330
D9
100
AcDbEntity
  8
寸法
  6
ByBlock
 62
     0
100
AcDbLine
 10
165.404422
 20
-49.533713
 30
0.0
 11
165.404422
 21
-69.20038
 31
0.0
  0
POINT
  5
DD
330
D9
100
AcDbEntity
  8
寸法
 62
     0
100
AcDbPoint
 10
165.404422
 20
-49.533713
 30
0.0
  0
POINT
  5
DE
330
D9
100
AcDbEntity
  8
寸法
 62
     0
100
AcDbPoint
 10
165.404422
 20
-69.20038
 30
0.0
  0
TEXT
  5
DF
330
D9
100
AcDbEntity
  8
寸法
  6
Continuous
 62
     0
100
AcDbText
 10
165.025
 20
-62.625
 30
0.0
 40
4.0
  1
590
 50
90.0
  7
TextStyle03
 72
     5
 11
165.025
 21
-56.125
 31
0.0
100
AcDbText
  0
ENDBLK
  5
E0
330
D9
100
AcDbEntity
  8
0
100
AcDbBlockEnd
  0
BLOCK
  5
E1
330
E2
100
AcDbEntity
  8
0
100
AcDbBlockBegin
  2
*U17
 70
     1
 71
     0
 10
0.0
 20
0.0
 30
0.0
  3
*U17
  1

  0
LINE
  5
E3
330
E2
100
AcDbEntity
  8
寸法
  6
Continuous
100
AcDbLine
 10
138.726618
 20
56.89755
 30
0.0
 11
134.426615
 21
56.89755
 31
0.0
  0
POINT
  5
E4
330
E2
100
AcDbEntity
  8
寸法
100
AcDbPoint
 10
138.726618
 20
56.89755
 30
0.0
  0
POINT
  5
E5
330
E2
100
AcDbEntity
  8
寸法
100
AcDbPoint
 10
134.426615
 20
56.89755
 30
0.0
  0
TEXT
  5
E6
330
E2
100
AcDbEntity
  8
寸法
  6
Continuous
100
AcDbText
 10
134.1625
 20
57.25
 30
0.0
 40
3.0
  1
129
  7
TextStyle03
 72
     5
 11
139.0375
 21
57.25
 31
0.0
100
AcDbText
  0
ENDBLK
  5
E7
330
E2
100
AcDbEntity
  8
0
100
AcDbBlockEnd
  0
BLOCK
  5
E8
330
E9
100
AcDbEntity
  8
0
100
AcDbBlockBegin
  2
*U18
 70
     1
 71
     0
 10
0.0
 20
0.0
 30
0.0
  3
*U18
  1

  0
LINE
  5
EA
330
E9
100
AcDbEntity
  8
寸法
  6
Continuous
100
AcDbLine
 10
60.307907
 20
-73.052333
 30
0.0
 11
60.307907
 21
-68.75233299999999
 31
0.0
  0
POINT
  5
EB
330
E9
100
AcDbEntity
  8
寸法
100
AcDbPoint
 10
60.307907
 20
-73.052333
 30
0.0
  0
POINT
  5
EC
330
E9
100
AcDbEntity
  8
寸法
100
AcDbPoint
 10
60.307907
 20
-68.75233299999999
 30
0.0
  0
TEXT
  5
ED
330
E9
100
AcDbEntity
  8
寸法
  6
Continuous
100
AcDbText
 10
64.52500000000001
 20
-73.3125
 30
0.0
 40
3.0
  1
129
 50
90.0
  7
TextStyle03
 72
     5
 11
64.52500000000001
 21
-68.4375
 31
0.0
100
AcDbText
  0
ENDBLK
  5
EE
330
E9
100
AcDbEntity
  8
0
100
AcDbBlockEnd
  0
BLOCK
  5
EF
330
F0
100
AcDbEntity
  8
0
100
AcDbBlockBegin
  2
*U19
 70
     1
 71
     0
 10
0.0
 20
0.0
 30
0.0
  3
*U19
  1

  0
LINE
  5
F1
330
F0
100
AcDbEntity
  8
寸法
  6
Continuous
100
AcDbLine
 10
155.537835
 20
-40.678715
 30
0.0
 11
123.124503
 21
-40.678715
 31
0.0
  0
POINT
  5
F2
330
F0
100
AcDbEntity
  8
寸法
100
AcDbPoint
 10
155.537835
 20
-40.678715
 30
0.0
  0
POINT
  5
F3
330
F0
100
AcDbEntity
  8
寸法
100
AcDbPoint
 10
123.124503
 20
-40.678715
 30
0.0
  0
TEXT
  5
F4
330
F0
100
AcDbEntity
  8
寸法
  6
Continuous
100
AcDbText
 10
133.825
 20
-40.325
 30
0.0
 40
4.0
  1
972.4
  7
TextStyle03
 72
     5
 11
144.825
 21
-40.325
 31
0.0
100
AcDbText
  0
ENDBLK
  5
F5
330
F0
100
AcDbEntity
  8
0
100
AcDbBlockEnd
  0
ENDSEC
  0
SECTION
  2
ENTITIES
  0
LWPOLYLINE
  5
F6
330
1D
100
AcDbEntity
  8
通り芯
  6
Continuous
100
AcDbPolyline
 90
        4
 70
     1
 43
0.0
 10
-210.0
 20
-148.5
 10
210.0
 20
-148.5
 10
210.0
 20
148.5
 10
-210.0
 20
148.5
  0
INSERT
  5
FC
330
1D
100
AcDbEntity
  8
型材断面
  6
Continuous
100
AcDbBlockReference
  2
*U0
 10
0.0
 20
0.0
 30
0.0
  0
LINE
  5
FD
330
1D
100
AcDbEntity
  8
型材断面
  6
DASHDOT
100
AcDbLine
 10
46.224393
 20
-77.83644200000001
 30
0.0
 11
46.224393
 21
42.814033
 31
0.0
  0
LINE
  5
FE
330
1D
100
AcDbEntity
  8
型材断面
  6
DASHDOT
100
AcDbLine
 10
-37.10894
 20
-77.83644200000001
 30
0.0
 11
-37.10894
 21
42.814033
 31
0.0
  0
LINE
  5
FF
330
1D
100
AcDbEntity
  8
型材断面
  6
DASHDOT
100
AcDbLine
 10
-120.442275
 20
-77.83644200000001
 30
0.0
 11
-120.442275
 21
42.814033
 31
0.0
  0
LINE
  5
100
330
1D
100
AcDbEntity
  8
型材断面
  6
DASHDOT
100
AcDbLine
 10
143.901155
 20
22.814033
 30
0.0
 11
-120.442275
 21
22.814033
 31
0.0
  0
LINE
  5
101
330
1D
100
AcDbEntity
  8
型材断面
  6
DASHDOT
100
AcDbLine
 10
143.901155
 20
32.814033
 30
0.0
 11
-120.442275
 21
32.814033
 31
0.0
  0
LINE
  5
102
330
1D
100
AcDbEntity
  8
型材断面
  6
DASHDOT
100
AcDbLine
 10
143.901155
 20
42.814033
 30
0.0
 11
-120.442275
 21
42.814033
 31
0.0
  0
LINE
  5
103
330
1D
100
AcDbEntity
  8
型材断面
  6
Continuous
100
AcDbLine
 10
-103.775608
 20
45.444162
 30
0.0
 11
-105.271238
 21
48.03467
 31
0.0
  0
LINE
  5
104
330
1D
100
AcDbEntity
  8
型材断面
  6
Continuous
100
AcDbLine
 10
-103.775608
 20
45.444162
 30
0.0
 11
-102.279978
 21
48.03467
 31
0.0
  0
LINE
  5
105
330
1D
100
AcDbEntity
  8
型材断面
  6
Continuous
100
AcDbLine
 10
-102.279978
 20
48.03467
 30
0.0
 11
-105.271238
 21
48.03467
 31
0.0
  0
LINE
  5
106
330
1D
100
AcDbEntity
  8
型材断面
  6
Continuous
100
AcDbLine
 10
-161.294482
 20
87.32138000000001
 30
0.0
 11
-162.790113
 21
84.730873
 31
0.0
  0
LINE
  5
107
330
1D
100
AcDbEntity
  8
型材断面
  6
Continuous
100
AcDbLine
 10
-161.294482
 20
87.32138000000001
 30
0.0
 11
-159.798852
 21
84.730873
 31
0.0
  0
LINE
  5
108
330
1D
100
AcDbEntity
  8
型材断面
  6
Continuous
100
AcDbLine
 10
-159.798852
 20
84.730873
 30
0.0
 11
-162.790113
 21
84.730873
 31
0.0
  0
LINE
  5
109
330
1D
100
AcDbEntity
  8
型材断面
  6
Continuous
100
AcDbLine
 10
-167.31707
 20
83.792277
 30
0.0
 11
-121.075292
 21
83.792277
 31
0.0
  0
LINE
  5
10A
330
1D
100
AcDbEntity
  8
型材断面
  6
Continuous
100
AcDbLine
 10
-123.072405
 20
32.814033
 30
0.0
 11
-125.662913
 21
34.309663
 31
0.0
  0
LINE
  5
10B
330
1D
100
AcDbEntity
  8
型材断面
  6
Continuous
100
AcDbLine
 10
-123.072405
 20
32.814033
 30
0.0
 11
-125.662913
 21
31.318403
 31
0.0
  0
LINE
  5
10C
330
1D
100
AcDbEntity
  8
型材断面
  6
Continuous
100
AcDbLine
 10
-125.662913
 20
31.318403
 30
0.0
 11
-125.662913
 21
34.309663
 31
0.0
  0
LINE
  5
10D
330
1D
100
AcDbEntity
  8
型材断面
  6
Continuous
100
AcDbLine
 10
-103.775608
 20
20.183902
 30
0.0
 11
-105.271238
 21
17.593395
 31
0.0
  0
LINE
  5
10E
330
1D
100
AcDbEntity
  8
型材断面
  6
Continuous
100
AcDbLine
 10
-103.775608
 20
20.183902
 30
0.0
 11
-102.279978
 21
17.593395
 31
0.0
  0
LINE
  5
10F
330
1D
100
AcDbEntity
  8
型材断面
  6
Continuous
100
AcDbLine
 10
-102.279978
 20
17.593395
 30
0.0
 11
-105.271238
 21
17.593395
 31
0.0
  0
LINE
  5
110
330
1D
100
AcDbEntity
  8
型材断面
  6
Continuous
100
AcDbLine
 10
29.557727
 20
45.444162
 30
0.0
 11
31.053357
 21
48.03467
 31
0.0
  0
LINE
  5
111
330
1D
100
AcDbEntity
  8
型材断面
  6
Continuous
100
AcDbLine
 10
29.557727
 20
45.444162
 30
0.0
 11
28.062097
 21
48.03467
 31
0.0
  0
LINE
  5
112
330
1D
100
AcDbEntity
  8
型材断面
  6
Continuous
100
AcDbLine
 10
28.062097
 20
48.03467
 30
0.0
 11
31.053357
 21
48.03467
 31
0.0
  0
LINE
  5
113
330
1D
100
AcDbEntity
  8
型材断面
  6
Continuous
100
AcDbLine
 10
48.854525
 20
32.814033
 30
0.0
 11
51.445032
 21
34.309663
 31
0.0
  0
LINE
  5
114
330
1D
100
AcDbEntity
  8
型材断面
  6
Continuous
100
AcDbLine
 10
48.854525
 20
32.814033
 30
0.0
 11
51.445032
 21
31.318403
 31
0.0
  0
LINE
  5
115
330
1D
100
AcDbEntity
  8
型材断面
  6
Continuous
100
AcDbLine
 10
51.445032
 20
31.318403
 30
0.0
 11
51.445032
 21
34.309663
 31
0.0
  0
LINE
  5
116
330
1D
100
AcDbEntity
  8
型材断面
  6
Continuous
100
AcDbLine
 10
29.557727
 20
20.183902
 30
0.0
 11
31.053357
 21
17.593395
 31
0.0
  0
LINE
  5
117
330
1D
100
AcDbEntity
  8
型材断面
  6
Continuous
100
AcDbLine
 10
29.557727
 20
20.183902
 30
0.0
 11
28.062097
 21
17.593395
 31
0.0
  0
LINE
  5
118
330
1D
100
AcDbEntity
  8
型材断面
  6
Continuous
100
AcDbLine
 10
28.062097
 20
17.593395
 30
0.0
 11
31.053357
 21
17.593395
 31
0.0
  0
LINE
  5
119
330
1D
100
AcDbEntity
  8
型材断面
  6
Continuous
100
AcDbLine
 10
-37.10894
 20
45.44416
 30
0.0
 11
-35.61331
 21
48.034668
 31
0.0
  0
LINE
  5
11A
330
1D
100
AcDbEntity
  8
型材断面
  6
Continuous
100
AcDbLine
 10
-37.10894
 20
45.44416
 30
0.0
 11
-38.60457
 21
48.034668
 31
0.0
  0
LINE
  5
11B
330
1D
100
AcDbEntity
  8
型材断面
  6
Continuous
100
AcDbLine
 10
-38.60457
 20
48.034668
 30
0.0
 11
-35.61331
 21
48.034668
 31
0.0
  0
LINE
  5
11C
330
1D
100
AcDbEntity
  8
型材断面
  6
Continuous
100
AcDbLine
 10
-37.10894
 20
20.1839
 30
0.0
 11
-35.61331
 21
17.593392
 31
0.0
  0
LINE
  5
11D
330
1D
100
AcDbEntity
  8
型材断面
  6
Continuous
100
AcDbLine
 10
-37.10894
 20
20.1839
 30
0.0
 11
-38.60457
 21
17.593392
 31
0.0
  0
LINE
  5
11E
330
1D
100
AcDbEntity
  8
型材断面
  6
Continuous
100
AcDbLine
 10
-38.60457
 20
17.593392
 30
0.0
 11
-35.61331
 21
17.593392
 31
0.0
  0
LINE
  5
11F
330
1D
100
AcDbEntity
  8
型材断面
  6
Continuous
100
AcDbLine
 10
-167.31707
 20
78.188112
 30
0.0
 11
-121.075292
 21
78.188112
 31
0.0
  0
LINE
  5
120
330
1D
100
AcDbEntity
  8
型材断面
  6
Continuous
100
AcDbLine
 10
49.39106
 20
19.647365
 30
0.0
 11
49.39106
 21
45.9807
 31
0.0
  0
LINE
  5
121
330
1D
100
AcDbEntity
  8
型材断面
  6
Continuous
100
AcDbLine
 10
49.39106
 20
45.9807
 30
0.0
 11
-123.60894
 21
45.9807
 31
0.0
  0
LINE
  5
122
330
1D
100
AcDbEntity
  8
型材断面
  6
Continuous
100
AcDbLine
 10
-123.60894
 20
45.9807
 30
0.0
 11
-123.60894
 21
19.647365
 31
0.0
  0
LINE
  5
123
330
1D
100
AcDbEntity
  8
型材断面
  6
Continuous
100
AcDbLine
 10
49.39106
 20
19.647365
 30
0.0
 11
-123.60894
 21
19.647365
 31
0.0
  0
LINE
  5
124
330
1D
100
AcDbEntity
  8
型材断面
  6
DASHDOT
100
AcDbLine
 10
-87.328942
 20
22.814033
 30
0.0
 11
-87.328942
 21
42.814033
 31
0.0
  0
LINE
  5
125
330
1D
100
AcDbEntity
  8
型材断面
  6
DASHDOT
100
AcDbLine
 10
-53.848942
 20
22.814033
 30
0.0
 11
-53.848942
 21
42.814033
 31
0.0
  0
LINE
  5
126
330
1D
100
AcDbEntity
  8
型材断面
  6
DASHDOT
100
AcDbLine
 10
13.111062
 20
22.814033
 30
0.0
 11
13.111062
 21
42.814033
 31
0.0
  0
LINE
  5
127
330
1D
100
AcDbEntity
  8
型材断面
  6
DASHDOT
100
AcDbLine
 10
-20.368937
 20
22.814033
 30
0.0
 11
-20.368937
 21
42.814033
 31
0.0
  0
LINE
  5
128
330
1D
100
AcDbEntity
  8
型材断面
  6
Continuous
100
AcDbLine
 10
30.084395
 20
23.567512
 30
0.0
 11
30.084395
 21
21.067512
 31
0.0
  0
LINE
  5
129
330
1D
100
AcDbEntity
  8
型材断面
  6
Continuous
100
AcDbLine
 10
29.25106
 20
23.567512
 30
0.0
 11
29.25106
 21
21.067512
 31
0.0
  0
LINE
  5
12A
330
1D
100
AcDbEntity
  8
型材断面
  6
Continuous
100
AcDbLine
 10
-3.21227
 20
23.567512
 30
0.0
 11
-3.21227
 21
21.067512
 31
0.0
  0
LINE
  5
12B
330
1D
100
AcDbEntity
  8
型材断面
  6
Continuous
100
AcDbLine
 10
-4.045605
 20
23.567512
 30
0.0
 11
-4.045605
 21
21.067512
 31
0.0
  0
LINE
  5
12C
330
1D
100
AcDbEntity
  8
型材断面
  6
Continuous
100
AcDbLine
 10
-36.692273
 20
23.567512
 30
0.0
 11
-36.692273
 21
21.067512
 31
0.0
  0
LINE
  5
12D
330
1D
100
AcDbEntity
  8
型材断面
  6
Continuous
100
AcDbLine
 10
-37.525608
 20
23.567512
 30
0.0
 11
-37.525608
 21
21.067512
 31
0.0
  0
LINE
  5
12E
330
1D
100
AcDbEntity
  8
型材断面
  6
Continuous
100
AcDbLine
 10
-104.302275
 20
23.567512
 30
0.0
 11
-104.302275
 21
21.067512
 31
0.0
  0
LINE
  5
12F
330
1D
100
AcDbEntity
  8
型材断面
  6
Continuous
100
AcDbLine
 10
-103.46894
 20
23.567512
 30
0.0
 11
-103.46894
 21
21.067512
 31
0.0
  0
LINE
  5
130
330
1D
100
AcDbEntity
  8
型材断面
  6
Continuous
100
AcDbLine
 10
-71.00561
 20
23.567512
 30
0.0
 11
-71.00561
 21
21.067512
 31
0.0
  0
LINE
  5
131
330
1D
100
AcDbEntity
  8
型材断面
  6
Continuous
100
AcDbLine
 10
-70.172275
 20
23.567512
 30
0.0
 11
-70.172275
 21
21.067512
 31
0.0
  0
LINE
  5
132
330
1D
100
AcDbEntity
  8
型材断面
  6
Continuous
100
AcDbLine
 10
47.735212
 20
21.067512
 30
0.0
 11
47.970912
 21
21.303212
 31
0.0
  0
LINE
  5
133
330
1D
100
AcDbEntity
  8
型材断面
  6
Continuous
100
AcDbLine
 10
-121.953093
 20
21.067512
 30
0.0
 11
-122.188793
 21
21.303212
 31
0.0
  0
LINE
  5
134
330
1D
100
AcDbEntity
  8
型材断面
  6
Continuous
100
AcDbLine
 10
-86.16227499999999
 20
24.400845
 30
0.0
 11
-88.49561
 21
24.400845
 31
0.0
  0
LINE
  5
135
330
1D
100
AcDbEntity
  8
型材断面
  6
Continuous
100
AcDbLine
 10
-52.682275
 20
24.400845
 30
0.0
 11
-55.01561
 21
24.400845
 31
0.0
  0
LINE
  5
136
330
1D
100
AcDbEntity
  8
型材断面
  6
Continuous
100
AcDbLine
 10
-19.20227
 20
24.400845
 30
0.0
 11
-21.535605
 21
24.400845
 31
0.0
  0
LINE
  5
137
330
1D
100
AcDbEntity
  8
型材断面
  6
Continuous
100
AcDbLine
 10
14.27773
 20
24.400845
 30
0.0
 11
11.944395
 21
24.400845
 31
0.0
  0
LINE
  5
138
330
1D
100
AcDbEntity
  8
型材断面
  6
Continuous
100
AcDbLine
 10
30.084395
 20
42.060553
 30
0.0
 11
30.084395
 21
44.560553
 31
0.0
  0
LINE
  5
139
330
1D
100
AcDbEntity
  8
型材断面
  6
Continuous
100
AcDbLine
 10
29.25106
 20
42.060553
 30
0.0
 11
29.25106
 21
44.560553
 31
0.0
  0
LINE
  5
13A
330
1D
100
AcDbEntity
  8
型材断面
  6
Continuous
100
AcDbLine
 10
-3.21227
 20
42.060553
 30
0.0
 11
-3.21227
 21
44.560553
 31
0.0
  0
LINE
  5
13B
330
1D
100
AcDbEntity
  8
型材断面
  6
Continuous
100
AcDbLine
 10
-4.045605
 20
42.060553
 30
0.0
 11
-4.045605
 21
44.560553
 31
0.0
  0
LINE
  5
13C
330
1D
100
AcDbEntity
  8
型材断面
  6
Continuous
100
AcDbLine
 10
-36.692273
 20
42.060553
 30
0.0
 11
-36.692273
 21
44.560553
 31
0.0
  0
LINE
  5
13D
330
1D
100
AcDbEntity
  8
型材断面
  6
Continuous
100
AcDbLine
 10
-37.525608
 20
42.060553
 30
0.0
 11
-37.525608
 21
44.560553
 31
0.0
  0
LINE
  5
13E
330
1D
100
AcDbEntity
  8
型材断面
  6
Continuous
100
AcDbLine
 10
-104.302275
 20
42.060553
 30
0.0
 11
-104.302275
 21
44.560553
 31
0.0
  0
LINE
  5
13F
330
1D
100
AcDbEntity
  8
型材断面
  6
Continuous
100
AcDbLine
 10
-103.46894
 20
42.060553
 30
0.0
 11
-103.46894
 21
44.560553
 31
0.0
  0
LINE
  5
140
330
1D
100
AcDbEntity
  8
型材断面
  6
Continuous
100
AcDbLine
 10
-71.00561
 20
42.060553
 30
0.0
 11
-71.00561
 21
44.560553
 31
0.0
  0
LINE
  5
141
330
1D
100
AcDbEntity
  8
型材断面
  6
Continuous
100
AcDbLine
 10
-70.172275
 20
42.060553
 30
0.0
 11
-70.172275
 21
44.560553
 31
0.0
  0
LINE
  5
142
330
1D
100
AcDbEntity
  8
型材断面
  6
Continuous
100
AcDbLine
 10
47.735212
 20
44.560553
 30
0.0
 11
47.970912
 21
44.324853
 31
0.0
  0
LINE
  5
143
330
1D
100
AcDbEntity
  8
型材断面
  6
Continuous
100
AcDbLine
 10
-121.953093
 20
44.560553
 30
0.0
 11
-122.188793
 21
44.324853
 31
0.0
  0
LINE
  5
144
330
1D
100
AcDbEntity
  8
型材断面
  6
Continuous
100
AcDbLine
 10
-86.16227499999999
 20
41.22722
 30
0.0
 11
-88.49561
 21
41.22722
 31
0.0
  0
LINE
  5
145
330
1D
100
AcDbEntity
  8
型材断面
  6
Continuous
100
AcDbLine
 10
-52.682275
 20
41.22722
 30
0.0
 11
-55.01561
 21
41.22722
 31
0.0
  0
LINE
  5
146
330
1D
100
AcDbEntity
  8
型材断面
  6
Continuous
100
AcDbLine
 10
-19.20227
 20
41.22722
 30
0.0
 11
-21.535605
 21
41.22722
 31
0.0
  0
LINE
  5
147
330
1D
100
AcDbEntity
  8
型材断面
  6
Continuous
100
AcDbLine
 10
14.27773
 20
41.22722
 30
0.0
 11
11.944395
 21
41.22722
 31
0.0
  0
LINE
  5
148
330
1D
100
AcDbEntity
  8
型材断面
  6
Continuous
100
AcDbLine
 10
45.235215
 20
23.567512
 30
0.0
 11
47.735212
 21
21.067512
 31
0.0
  0
LINE
  5
149
330
1D
100
AcDbEntity
  8
型材断面
  6
Continuous
100
AcDbLine
 10
45.470912
 20
23.803215
 30
0.0
 11
47.970917
 21
21.303207
 31
0.0
  0
LINE
  5
14A
330
1D
100
AcDbEntity
  8
型材断面
  6
Continuous
100
AcDbLine
 10
49.39106
 20
19.647365
 30
0.0
 11
47.853062
 21
21.185362
 31
0.0
  0
LINE
  5
14B
330
1D
100
AcDbEntity
  8
型材断面
  6
Continuous
100
AcDbLine
 10
45.470917
 20
32.397365
 30
0.0
 11
45.470917
 21
23.80322
 31
0.0
  0
LINE
  5
14C
330
1D
100
AcDbEntity
  8
型材断面
  6
Continuous
100
AcDbLine
 10
45.470917
 20
23.80322
 30
0.0
 11
45.235215
 21
23.567512
 31
0.0
  0
LINE
  5
14D
330
1D
100
AcDbEntity
  8
型材断面
  6
Continuous
100
AcDbLine
 10
45.470917
 20
33.2307
 30
0.0
 11
45.470917
 21
41.824845
 31
0.0
  0
LINE
  5
14E
330
1D
100
AcDbEntity
  8
型材断面
  6
Continuous
100
AcDbLine
 10
45.470917
 20
41.824845
 30
0.0
 11
45.235215
 21
42.060553
 31
0.0
  0
LINE
  5
14F
330
1D
100
AcDbEntity
  8
型材断面
  6
Continuous
100
AcDbLine
 10
45.470912
 20
41.82485
 30
0.0
 11
47.970917
 21
44.324857
 31
0.0
  0
LINE
  5
150
330
1D
100
AcDbEntity
  8
型材断面
  6
Continuous
100
AcDbLine
 10
47.970917
 20
21.303207
 30
0.0
 11
47.970917
 21
44.324857
 31
0.0
  0
LINE
  5
151
330
1D
100
AcDbEntity
  8
型材断面
  6
Continuous
100
AcDbLine
 10
45.235215
 20
42.060553
 30
0.0
 11
47.735212
 21
44.560553
 31
0.0
  0
LINE
  5
152
330
1D
100
AcDbEntity
  8
型材断面
  6
Continuous
100
AcDbLine
 10
49.39106
 20
45.9807
 30
0.0
 11
47.853062
 21
44.442703
 31
0.0
  0
LINE
  5
153
330
1D
100
AcDbEntity
  8
型材断面
  6
Continuous
100
AcDbLine
 10
30.084395
 20
42.060553
 30
0.0
 11
45.235215
 21
42.060553
 31
0.0
  0
LINE
  5
154
330
1D
100
AcDbEntity
  8
型材断面
  6
Continuous
100
AcDbLine
 10
30.084395
 20
23.567512
 30
0.0
 11
45.235215
 21
23.567512
 31
0.0
  0
LINE
  5
155
330
1D
100
AcDbEntity
  8
型材断面
  6
Continuous
100
AcDbLine
 10
-3.21227
 20
23.567512
 30
0.0
 11
29.25106
 21
23.567512
 31
0.0
  0
LINE
  5
156
330
1D
100
AcDbEntity
  8
型材断面
  6
Continuous
100
AcDbLine
 10
-3.21227
 20
42.060553
 30
0.0
 11
29.25106
 21
42.060553
 31
0.0
  0
LINE
  5
157
330
1D
100
AcDbEntity
  8
型材断面
  6
Continuous
100
AcDbLine
 10
-36.692273
 20
42.060553
 30
0.0
 11
-4.045605
 21
42.060553
 31
0.0
  0
LINE
  5
158
330
1D
100
AcDbEntity
  8
型材断面
  6
Continuous
100
AcDbLine
 10
-36.692273
 20
23.567512
 30
0.0
 11
-4.045605
 21
23.567512
 31
0.0
  0
LINE
  5
159
330
1D
100
AcDbEntity
  8
型材断面
  6
Continuous
100
AcDbLine
 10
-70.172275
 20
23.567512
 30
0.0
 11
-37.525608
 21
23.567512
 31
0.0
  0
LINE
  5
15A
330
1D
100
AcDbEntity
  8
型材断面
  6
Continuous
100
AcDbLine
 10
-70.172275
 20
42.060553
 30
0.0
 11
-37.525608
 21
42.060553
 31
0.0
  0
LINE
  5
15B
330
1D
100
AcDbEntity
  8
型材断面
  6
Continuous
100
AcDbLine
 10
-103.46894
 20
42.060553
 30
0.0
 11
-71.00561
 21
42.060553
 31
0.0
  0
LINE
  5
15C
330
1D
100
AcDbEntity
  8
型材断面
  6
Continuous
100
AcDbLine
 10
-103.46894
 20
23.567512
 30
0.0
 11
-71.00561
 21
23.567512
 31
0.0
  0
LINE
  5
15D
330
1D
100
AcDbEntity
  8
型材断面
  6
Continuous
100
AcDbLine
 10
-104.302275
 20
23.567512
 30
0.0
 11
-119.453095
 21
23.567512
 31
0.0
  0
LINE
  5
15E
330
1D
100
AcDbEntity
  8
型材断面
  6
Continuous
100
AcDbLine
 10
-119.453095
 20
23.567512
 30
0.0
 11
-119.688797
 21
23.80322
 31
0.0
  0
LINE
  5
15F
330
1D
100
AcDbEntity
  8
型材断面
  6
Continuous
100
AcDbLine
 10
-119.688797
 20
32.397365
 30
0.0
 11
-119.688797
 21
23.80322
 31
0.0
  0
LINE
  5
160
330
1D
100
AcDbEntity
  8
型材断面
  6
Continuous
100
AcDbLine
 10
-119.453095
 20
23.567512
 30
0.0
 11
-121.953093
 21
21.067512
 31
0.0
  0
LINE
  5
161
330
1D
100
AcDbEntity
  8
型材断面
  6
Continuous
100
AcDbLine
 10
47.735212
 20
21.067512
 30
0.0
 11
-121.953093
 21
21.067512
 31
0.0
  0
LINE
  5
162
330
1D
100
AcDbEntity
  8
型材断面
  6
Continuous
100
AcDbLine
 10
-119.688793
 20
23.803215
 30
0.0
 11
-122.188797
 21
21.303207
 31
0.0
  0
LINE
  5
163
330
1D
100
AcDbEntity
  8
型材断面
  6
Continuous
100
AcDbLine
 10
-123.60894
 20
19.647365
 30
0.0
 11
-122.070943
 21
21.185362
 31
0.0
  0
LINE
  5
164
330
1D
100
AcDbEntity
  8
型材断面
  6
Continuous
100
AcDbLine
 10
-104.302275
 20
42.060553
 30
0.0
 11
-119.453095
 21
42.060553
 31
0.0
  0
LINE
  5
165
330
1D
100
AcDbEntity
  8
型材断面
  6
Continuous
100
AcDbLine
 10
-119.453095
 20
42.060553
 30
0.0
 11
-119.688797
 21
41.824845
 31
0.0
  0
LINE
  5
166
330
1D
100
AcDbEntity
  8
型材断面
  6
Continuous
100
AcDbLine
 10
-119.688797
 20
33.2307
 30
0.0
 11
-119.688797
 21
41.824845
 31
0.0
  0
LINE
  5
167
330
1D
100
AcDbEntity
  8
型材断面
  6
Continuous
100
AcDbLine
 10
-119.453095
 20
42.060553
 30
0.0
 11
-121.953093
 21
44.560553
 31
0.0
  0
LINE
  5
168
330
1D
100
AcDbEntity
  8
型材断面
  6
Continuous
100
AcDbLine
 10
47.735212
 20
44.560553
 30
0.0
 11
-121.953093
 21
44.560553
 31
0.0
  0
LINE
  5
169
330
1D
100
AcDbEntity
  8
型材断面
  6
Continuous
100
AcDbLine
 10
-119.688793
 20
41.82485
 30
0.0
 11
-122.188797
 21
44.324857
 31
0.0
  0
LINE
  5
16A
330
1D
100
AcDbEntity
  8
型材断面
  6
Continuous
100
AcDbLine
 10
-122.188797
 20
21.303207
 30
0.0
 11
-122.188797
 21
44.324857
 31
0.0
  0
LINE
  5
16B
330
1D
100
AcDbEntity
  8
型材断面
  6
Continuous
100
AcDbLine
 10
-123.60894
 20
45.9807
 30
0.0
 11
-122.070943
 21
44.442703
 31
0.0
  0
LINE
  5
16C
330
1D
100
AcDbEntity
  8
型材断面
  6
Continuous
100
AcDbLine
 10
-88.49561
 20
24.400845
 30
0.0
 11
-88.49561
 21
41.22722
 31
0.0
  0
LINE
  5
16D
330
1D
100
AcDbEntity
  8
型材断面
  6
Continuous
100
AcDbLine
 10
-86.16227499999999
 20
24.400845
 30
0.0
 11
-86.16227499999999
 21
41.22722
 31
0.0
  0
LINE
  5
16E
330
1D
100
AcDbEntity
  8
型材断面
  6
Continuous
100
AcDbLine
 10
-52.682275
 20
24.400845
 30
0.0
 11
-52.682275
 21
41.22722
 31
0.0
  0
LINE
  5
16F
330
1D
100
AcDbEntity
  8
型材断面
  6
Continuous
100
AcDbLine
 10
-55.01561
 20
24.400845
 30
0.0
 11
-55.01561
 21
41.22722
 31
0.0
  0
LINE
  5
170
330
1D
100
AcDbEntity
  8
型材断面
  6
Continuous
100
AcDbLine
 10
-21.535605
 20
24.400845
 30
0.0
 11
-21.535605
 21
41.22722
 31
0.0
  0
LINE
  5
171
330
1D
100
AcDbEntity
  8
型材断面
  6
Continuous
100
AcDbLine
 10
-19.20227
 20
24.400845
 30
0.0
 11
-19.20227
 21
41.22722
 31
0.0
  0
LINE
  5
172
330
1D
100
AcDbEntity
  8
型材断面
  6
Continuous
100
AcDbLine
 10
14.27773
 20
24.400845
 30
0.0
 11
14.27773
 21
41.22722
 31
0.0
  0
LINE
  5
173
330
1D
100
AcDbEntity
  8
型材断面
  6
Continuous
100
AcDbLine
 10
11.944395
 20
24.400845
 30
0.0
 11
11.944395
 21
41.22722
 31
0.0
  0
LINE
  5
174
330
1D
100
AcDbEntity
  8
型材断面
  6
Continuous
 62
    14
100
AcDbLine
 10
138.726618
 20
45.9807
 30
0.0
 11
138.226618
 21
45.9807
 31
0.0
  0
LINE
  5
175
330
1D
100
AcDbEntity
  8
型材断面
  6
Continuous
100
AcDbLine
 10
138.059952
 20
44.147365
 30
0.0
 11
138.226618
 21
45.9807
 31
0.0
  0
LINE
  5
176
330
1D
100
AcDbEntity
  8
型材断面
  6
Continuous
100
AcDbLine
 10
138.226618
 20
45.9807
 30
0.0
 11
138.726618
 21
45.9807
 31
0.0
  0
LINE
  5
177
330
1D
100
AcDbEntity
  8
型材断面
  6
Continuous
100
AcDbLine
 10
138.726618
 20
45.147365
 30
0.0
 11
139.059952
 21
45.147365
 31
0.0
  0
LWPOLYLINE
  5
178
330
1D
100
AcDbEntity
  8
型材断面
  6
Continuous
100
AcDbPolyline
 90
        3
 70
     0
 43
0.0
 10
136.376618
 20
44.147365
 10
136.243282
 20
44.01403
 10
136.093282
 20
44.01403
  0
LINE
  5
17D
330
1D
100
AcDbEntity
  8
型材断面
  6
Continuous
100
AcDbLine
 10
138.059952
 20
44.147365
 30
0.0
 11
136.376618
 21
44.147365
 31
0.0
  0
LINE
  5
17E
330
1D
100
AcDbEntity
  8
型材断面
  6
Continuous
 62
    14
100
AcDbLine
 10
138.726618
 20
19.647365
 30
0.0
 11
138.226618
 21
19.647365
 31
0.0
  0
LINE
  5
17F
330
1D
100
AcDbEntity
  8
型材断面
  6
Continuous
100
AcDbLine
 10
138.059952
 20
21.480695
 30
0.0
 11
138.226618
 21
19.647365
 31
0.0
  0
LINE
  5
180
330
1D
100
AcDbEntity
  8
型材断面
  6
Continuous
100
AcDbLine
 10
138.226618
 20
19.647365
 30
0.0
 11
138.726618
 21
19.647365
 31
0.0
  0
LINE
  5
181
330
1D
100
AcDbEntity
  8
型材断面
  6
Continuous
100
AcDbLine
 10
138.726618
 20
20.480695
 30
0.0
 11
139.059952
 21
20.480695
 31
0.0
  0
LINE
  5
182
330
1D
100
AcDbEntity
  8
型材断面
  6
Continuous
100
AcDbLine
 10
138.059952
 20
21.480695
 30
0.0
 11
138.059952
 21
44.147365
 31
0.0
  0
LINE
  5
183
330
1D
100
AcDbEntity
  8
型材断面
  6
Continuous
100
AcDbLine
 10
138.226618
 20
19.647365
 30
0.0
 11
138.226618
 21
45.9807
 31
0.0
  0
LINE
  5
184
330
1D
100
AcDbEntity
  8
型材断面
  6
Continuous
100
AcDbLine
 10
138.726618
 20
19.647365
 30
0.0
 11
138.726618
 21
45.9807
 31
0.0
  0
LINE
  5
185
330
1D
100
AcDbEntity
  8
型材断面
  6
Continuous
100
AcDbLine
 10
139.05995
 20
20.480695
 30
0.0
 11
139.05995
 21
45.147365
 31
0.0
  0
LWPOLYLINE
  5
186
330
1D
100
AcDbEntity
  8
型材断面
  6
Continuous
100
AcDbPolyline
 90
        3
 70
     0
 43
0.0
 10
136.376618
 20
21.480697
 10
136.243282
 20
21.61403
 10
136.093282
 20
21.61403
  0
LINE
  5
18B
330
1D
100
AcDbEntity
  8
型材断面
  6
Continuous
100
AcDbLine
 10
138.059952
 20
21.480695
 30
0.0
 11
136.376618
 21
21.480695
 31
0.0
  0
LINE
  5
18C
330
1D
100
AcDbEntity
  8
型材断面
  6
Continuous
100
AcDbLine
 10
136.093282
 20
21.330697
 30
0.0
 11
136.093282
 21
44.297365
 31
0.0
  0
LINE
  5
18D
330
1D
100
AcDbEntity
  8
型材断面
  6
Continuous
100
AcDbLine
 10
134.593282
 20
21.174175
 30
0.0
 11
134.593282
 21
44.453885
 31
0.0
  0
LINE
  5
18E
330
1D
100
AcDbEntity
  8
型材断面
  6
Continuous
100
AcDbLine
 10
134.426615
 20
44.353888
 30
0.0
 11
134.426615
 21
21.274175
 31
0.0
  0
LINE
  5
18F
330
1D
100
AcDbEntity
  8
型材断面
  6
Continuous
100
AcDbLine
 10
136.243282
 20
44.01403
 30
0.0
 11
136.243282
 21
21.61403
 31
0.0
  0
LINE
  5
190
330
1D
100
AcDbEntity
  8
型材断面
  6
Continuous
100
AcDbLine
 10
136.376618
 20
21.480697
 30
0.0
 11
136.376618
 21
44.147365
 31
0.0
  0
LINE
  5
191
330
1D
100
AcDbEntity
  8
型材断面
  6
Continuous
 62
    14
100
AcDbLine
 10
49.39106
 20
-73.052333
 30
0.0
 11
49.39106
 21
-72.552333
 31
0.0
  0
LINE
  5
192
330
1D
100
AcDbEntity
  8
型材断面
  6
Continuous
100
AcDbLine
 10
47.557725
 20
-72.38567000000001
 30
0.0
 11
49.39106
 21
-72.552333
 31
0.0
  0
LINE
  5
193
330
1D
100
AcDbEntity
  8
型材断面
  6
Continuous
100
AcDbLine
 10
49.39106
 20
-72.552333
 30
0.0
 11
49.39106
 21
-73.052333
 31
0.0
  0
LINE
  5
194
330
1D
100
AcDbEntity
  8
型材断面
  6
Continuous
100
AcDbLine
 10
48.557725
 20
-73.052333
 30
0.0
 11
48.557725
 21
-73.38567000000001
 31
0.0
  0
LWPOLYLINE
  5
195
330
1D
100
AcDbEntity
  8
型材断面
  6
Continuous
100
AcDbPolyline
 90
        3
 70
     0
 43
0.0
 10
47.557725
 20
-70.702333
 10
47.42439
 20
-70.569
 10
47.42439
 20
-70.419
  0
LINE
  5
19A
330
1D
100
AcDbEntity
  8
型材断面
  6
Continuous
100
AcDbLine
 10
47.557725
 20
-72.38567000000001
 30
0.0
 11
47.557725
 21
-70.70233500000001
 31
0.0
  0
LINE
  5
19B
330
1D
100
AcDbEntity
  8
型材断面
  6
Continuous
 62
    14
100
AcDbLine
 10
-123.60894
 20
-73.052333
 30
0.0
 11
-123.60894
 21
-72.552333
 31
0.0
  0
LINE
  5
19C
330
1D
100
AcDbEntity
  8
型材断面
  6
Continuous
100
AcDbLine
 10
-121.775608
 20
-72.38567000000001
 30
0.0
 11
-123.60894
 21
-72.552333
 31
0.0
  0
LINE
  5
19D
330
1D
100
AcDbEntity
  8
型材断面
  6
Continuous
100
AcDbLine
 10
-123.60894
 20
-72.552333
 30
0.0
 11
-123.60894
 21
-73.052333
 31
0.0
  0
LINE
  5
19E
330
1D
100
AcDbEntity
  8
型材断面
  6
Continuous
100
AcDbLine
 10
-122.775608
 20
-73.052333
 30
0.0
 11
-122.775608
 21
-73.38567000000001
 31
0.0
  0
LINE
  5
19F
330
1D
100
AcDbEntity
  8
型材断面
  6
Continuous
100
AcDbLine
 10
-121.775608
 20
-72.38567000000001
 30
0.0
 11
47.557725
 21
-72.38567000000001
 31
0.0
  0
LINE
  5
1A0
330
1D
100
AcDbEntity
  8
型材断面
  6
Continuous
100
AcDbLine
 10
-123.60894
 20
-72.552333
 30
0.0
 11
49.39106
 21
-72.552333
 31
0.0
  0
LINE
  5
1A1
330
1D
100
AcDbEntity
  8
型材断面
  6
Continuous
100
AcDbLine
 10
-123.60894
 20
-73.052333
 30
0.0
 11
49.39106
 21
-73.052333
 31
0.0
  0
LINE
  5
1A2
330
1D
100
AcDbEntity
  8
型材断面
  6
Continuous
100
AcDbLine
 10
-122.775608
 20
-73.385665
 30
0.0
 11
48.557725
 21
-73.385665
 31
0.0
  0
LWPOLYLINE
  5
1A3
330
1D
100
AcDbEntity
  8
型材断面
  6
Continuous
100
AcDbPolyline
 90
        3
 70
     0
 43
0.0
 10
-121.775605
 20
-70.702333
 10
-121.642273
 20
-70.569
 10
-121.642273
 20
-70.419
  0
LINE
  5
1A8
330
1D
100
AcDbEntity
  8
型材断面
  6
Continuous
100
AcDbLine
 10
-121.775608
 20
-72.38567000000001
 30
0.0
 11
-121.775608
 21
-70.70233500000001
 31
0.0
  0
LINE
  5
1A9
330
1D
100
AcDbEntity
  8
型材断面
  6
Continuous
100
AcDbLine
 10
-121.925605
 20
-70.419
 30
0.0
 11
47.707725
 21
-70.419
 31
0.0
  0
LINE
  5
1AA
330
1D
100
AcDbEntity
  8
型材断面
  6
Continuous
100
AcDbLine
 10
-122.082128
 20
-68.919
 30
0.0
 11
47.864245
 21
-68.919
 31
0.0
  0
LINE
  5
1AB
330
1D
100
AcDbEntity
  8
型材断面
  6
Continuous
100
AcDbLine
 10
47.764248
 20
-68.75233
 30
0.0
 11
-121.982128
 21
-68.75233
 31
0.0
  0
LINE
  5
1AC
330
1D
100
AcDbEntity
  8
型材断面
  6
Continuous
100
AcDbLine
 10
47.42439
 20
-70.569
 30
0.0
 11
-121.642273
 21
-70.569
 31
0.0
  0
LINE
  5
1AD
330
1D
100
AcDbEntity
  8
型材断面
  6
Continuous
100
AcDbLine
 10
-121.775605
 20
-70.702333
 30
0.0
 11
47.557725
 21
-70.702333
 31
0.0
  0
TEXT
  5
1AE
330
1D
100
AcDbEntity
  8
文字
  6
Continuous
100
AcDbText
 10
-158.45
 20
84.95
 30
0.0
 40
3.0
  1
は排水穴位置を示す
  7
TextStyle03
 72
     5
 11
-128.45
 21
84.95
 31
0.0
100
AcDbText
  0
TEXT
  5
1AF
330
1D
100
AcDbEntity
  8
文字
  6
Continuous
100
AcDbText
 10
137.0
 20
-62.775
 30
0.0
 40
3.0
  1
網入り6.8t
  7
TextStyle03
 72
     5
 11
153.6875
 21
-62.775
 31
0.0
100
AcDbText
  0
TEXT
  5
1B0
330
1D
100
AcDbEntity
  8
文字
  6
Continuous
100
AcDbText
 10
143.675
 20
-67.45
 30
0.0
 40
3.0
  1
×５枚
  7
TextStyle03
 72
     5
 11
153.425
 21
-67.45
 31
0.0
100
AcDbText
  0
TEXT
  5
1B1
330
1D
100
AcDbEntity
  8
文字
  6
Continuous
100
AcDbText
 10
-141.475
 20
11.275
 30
0.0
 40
3.0
  1
アンカーピッチ
 50
90.0
  7
TextStyle03
 72
     5
 11
-141.475
 21
34.525
 31
0.0
100
AcDbText
  0
TEXT
  5
1B2
330
1D
100
AcDbEntity
  8
文字
  6
Continuous
100
AcDbText
 10
-109.725
 20
80.25
 30
0.0
 40
3.0
  1
アンカーピッチ
  7
TextStyle03
 72
     5
 11
-86.47499999999999
 21
80.25
 31
0.0
100
AcDbText
  0
TEXT
  5
1B3
330
1D
100
AcDbEntity
  8
文字
  6
Continuous
100
AcDbText
 10
-162.175
 20
79.125
 30
0.0
 40
3.0
  1
アンカー数量　１８ヶ所
  7
TextStyle03
 72
     5
 11
-125.425
 21
79.125
 31
0.0
100
AcDbText
  0
LINE
  5
1B4
330
1D
100
AcDbEntity
  8
文字
  6
Continuous
100
AcDbLine
 10
134.426615
 20
56.89755
 30
0.0
 11
134.426615
 21
45.68501
 31
0.0
  0
LINE
  5
1B5
330
1D
100
AcDbEntity
  8
文字
  6
Continuous
100
AcDbLine
 10
138.726618
 20
56.89755
 30
0.0
 11
138.726618
 21
46.979073
 31
0.0
  0
LINE
  5
1B6
330
1D
100
AcDbEntity
  8
文字
  6
Continuous
100
AcDbLine
 10
60.307907
 20
-68.75233299999999
 30
0.0
 11
49.095368
 21
-68.75233299999999
 31
0.0
  0
LINE
  5
1B7
330
1D
100
AcDbEntity
  8
文字
  6
Continuous
100
AcDbLine
 10
60.307907
 20
-73.052333
 30
0.0
 11
50.38943
 21
-73.052333
 31
0.0
  0
LINE
  5
1B8
330
1D
100
AcDbEntity
  8
文字
  6
Continuous
100
AcDbLine
 10
123.124503
 20
-40.678715
 30
0.0
 11
123.124503
 21
-47.282463
 31
0.0
  0
LINE
  5
1B9
330
1D
100
AcDbEntity
  8
文字
  6
Continuous
100
AcDbLine
 10
155.537835
 20
-40.678715
 30
0.0
 11
155.537835
 21
-47.282463
 31
0.0
  0
LINE
  5
1BA
330
1D
100
AcDbEntity
  8
文字
  6
Continuous
100
AcDbLine
 10
45.470917
 20
32.397365
 30
0.0
 11
47.970917
 21
32.397365
 31
0.0
  0
LINE
  5
1BB
330
1D
100
AcDbEntity
  8
文字
  6
Continuous
100
AcDbLine
 10
45.470917
 20
33.2307
 30
0.0
 11
47.970917
 21
33.2307
 31
0.0
  0
LINE
  5
1BC
330
1D
100
AcDbEntity
  8
文字
  6
Continuous
100
AcDbLine
 10
-119.688797
 20
32.397365
 30
0.0
 11
-122.188797
 21
32.397365
 31
0.0
  0
LINE
  5
1BD
330
1D
100
AcDbEntity
  8
文字
  6
Continuous
100
AcDbLine
 10
-119.688797
 20
33.2307
 30
0.0
 11
-122.188797
 21
33.2307
 31
0.0
  0
TEXT
  5
1BE
330
1D
100
AcDbEntity
  8
文字
  6
Continuous
100
AcDbText
 10
61.95
 20
125.25
 30
0.0
 40
5.0
  1
シリーズ：ＴＦＦＫＬ
  7
TextStyle03
 72
     5
 11
117.575
 21
125.25
 31
0.0
100
AcDbText
  0
TEXT
  5
1BF
330
1D
100
AcDbEntity
  8
文字
  6
Continuous
100
AcDbText
 10
61.95
 20
119.625
 30
0.0
 40
5.0
  1
　　　　　（固定）600×5000タイプ
  7
TextStyle03
 72
     5
 11
154.1375
 21
119.625
 31
0.0
100
AcDbText
  0
TEXT
  5
1C0
330
1D
100
AcDbEntity
  8
文字
  6
Continuous
100
AcDbText
 10
61.95
 20
114.0
 30
0.0
 40
5.0
  1
図面名　：外観姿図
  7
TextStyle03
 72
     5
 11
111.95
 21
114.0
 31
0.0
100
AcDbText
  0
TEXT
  5
1C1
330
1D
100
AcDbEntity
  8
文字
  6
Continuous
100
AcDbText
 10
61.95
 20
108.375
 30
0.0
 40
5.0
  1
　　　　　　
  7
TextStyle03
 72
     5
 11
95.075
 21
108.375
 31
0.0
100
AcDbText
  0
INSERT
  5
1C2
330
1D
100
AcDbEntity
  8
寸法
  6
Continuous
100
AcDbBlockReference
  2
*U1
 10
0.0
 20
0.0
 30
0.0
  0
INSERT
  5
1C3
330
1D
100
AcDbEntity
  8
寸法
  6
Continuous
100
AcDbBlockReference
  2
*U2
 10
0.0
 20
0.0
 30
0.0
  0
INSERT
  5
1C4
330
1D
100
AcDbEntity
  8
寸法
  6
Continuous
100
AcDbBlockReference
  2
*U3
 10
0.0
 20
0.0
 30
0.0
  0
INSERT
  5
1C5
330
1D
100
AcDbEntity
  8
寸法
  6
Continuous
100
AcDbBlockReference
  2
*U4
 10
0.0
 20
0.0
 30
0.0
  0
INSERT
  5
1C6
330
1D
100
AcDbEntity
  8
寸法
  6
Continuous
100
AcDbBlockReference
  2
*U5
 10
0.0
 20
0.0
 30
0.0
  0
INSERT
  5
1C7
330
1D
100
AcDbEntity
  8
寸法
  6
Continuous
100
AcDbBlockReference
  2
*U6
 10
0.0
 20
0.0
 30
0.0
  0
INSERT
  5
1C8
330
1D
100
AcDbEntity
  8
寸法
  6
Continuous
100
AcDbBlockReference
  2
*U7
 10
0.0
 20
0.0
 30
0.0
  0
INSERT
  5
1C9
330
1D
100
AcDbEntity
  8
寸法
  6
Continuous
100
AcDbBlockReference
  2
*U8
 10
0.0
 20
0.0
 30
0.0
  0
INSERT
  5
1CA
330
1D
100
AcDbEntity
  8
寸法
  6
Continuous
100
AcDbBlockReference
  2
*U9
 10
0.0
 20
0.0
 30
0.0
  0
INSERT
  5
1CB
330
1D
100
AcDbEntity
  8
寸法
  6
Continuous
100
AcDbBlockReference
  2
*U10
 10
0.0
 20
0.0
 30
0.0
  0
INSERT
  5
1CC
330
1D
100
AcDbEntity
  8
寸法
  6
Continuous
100
AcDbBlockReference
  2
*U11
 10
0.0
 20
0.0
 30
0.0
  0
INSERT
  5
1CD
330
1D
100
AcDbEntity
  8
寸法
  6
Continuous
100
AcDbBlockReference
  2
*U12
 10
0.0
 20
0.0
 30
0.0
  0
INSERT
  5
1CE
330
1D
100
AcDbEntity
  8
寸法
  6
Continuous
100
AcDbBlockReference
  2
*U13
 10
0.0
 20
0.0
 30
0.0
  0
INSERT
  5
1CF
330
1D
100
AcDbEntity
  8
寸法
  6
Continuous
100
AcDbBlockReference
  2
*U14
 10
0.0
 20
0.0
 30
0.0
  0
INSERT
  5
1D0
330
1D
100
AcDbEntity
  8
寸法
  6
Continuous
100
AcDbBlockReference
  2
*U15
 10
0.0
 20
0.0
 30
0.0
  0
INSERT
  5
1D1
330
1D
100
AcDbEntity
  8
寸法
  6
Continuous
100
AcDbBlockReference
  2
*U16
 10
0.0
 20
0.0
 30
0.0
  0
INSERT
  5
1D2
330
1D
100
AcDbEntity
  8
寸法
  6
Continuous
100
AcDbBlockReference
  2
*U17
 10
0.0
 20
0.0
 30
0.0
  0
INSERT
  5
1D3
330
1D
100
AcDbEntity
  8
寸法
  6
Continuous
100
AcDbBlockReference
  2
*U18
 10
0.0
 20
0.0
 30
0.0
  0
INSERT
  5
1D4
330
1D
100
AcDbEntity
  8
寸法
  6
Continuous
100
AcDbBlockReference
  2
*U19
 10
0.0
 20
0.0
 30
0.0
  0
LINE
  5
1D5
330
1D
100
AcDbEntity
  8
別途部材
  6
Continuous
 62
    47
100
AcDbLine
 10
134.526615
 20
44.453885
 30
0.0
 11
134.593282
 21
44.453885
 31
0.0
  0
ARC
  5
1D6
330
1D
100
AcDbEntity
  8
別途部材
  6
Continuous
 62
    47
100
AcDbCircle
 10
134.526616
 20
44.353886
 30
0.0
 40
0.1
100
AcDbArc
 50
90.0
 51
180.0
  0
LINE
  5
1D7
330
1D
100
AcDbEntity
  8
別途部材
  6
Continuous
 62
    47
100
AcDbLine
 10
134.593282
 20
44.297365
 30
0.0
 11
136.093282
 21
44.297365
 31
0.0
  0
LINE
  5
1D8
330
1D
100
AcDbEntity
  8
別途部材
  6
Continuous
 62
    47
100
AcDbLine
 10
134.526615
 20
21.174175
 30
0.0
 11
134.593282
 21
21.174175
 31
0.0
  0
ARC
  5
1D9
330
1D
100
AcDbEntity
  8
別途部材
  6
Continuous
 62
    47
100
AcDbCircle
 10
134.526616
 20
21.274175
 30
0.0
 40
0.1
100
AcDbArc
 50
180.0
 51
270.0
  0
LINE
  5
1DA
330
1D
100
AcDbEntity
  8
別途部材
  6
Continuous
 62
    47
100
AcDbLine
 10
134.593282
 20
21.330697
 30
0.0
 11
136.093282
 21
21.330697
 31
0.0
  0
LINE
  5
1DB
330
1D
100
AcDbEntity
  8
別途部材
  6
Continuous
 62
    47
100
AcDbLine
 10
47.864245
 20
-68.85233
 30
0.0
 11
47.864245
 21
-68.919
 31
0.0
  0
ARC
  5
1DC
330
1D
100
AcDbEntity
  8
別途部材
  6
Continuous
 62
    47
100
AcDbCircle
 10
47.764246
 20
-68.852332
 30
0.0
 40
0.1
100
AcDbArc
 50
0.0
 51
90.0
  0
LINE
  5
1DD
330
1D
100
AcDbEntity
  8
別途部材
  6
Continuous
 62
    47
100
AcDbLine
 10
47.707725
 20
-68.919
 30
0.0
 11
47.707725
 21
-70.419
 31
0.0
  0
LINE
  5
1DE
330
1D
100
AcDbEntity
  8
別途部材
  6
Continuous
 62
    47
100
AcDbLine
 10
-122.082128
 20
-68.85233
 30
0.0
 11
-122.082128
 21
-68.919
 31
0.0
  0
ARC
  5
1DF
330
1D
100
AcDbEntity
  8
別途部材
  6
Continuous
 62
    47
100
AcDbCircle
 10
-121.982129
 20
-68.852332
 30
0.0
 40
0.1
100
AcDbArc
 50
90.0
 51
180.0
  0
LINE
  5
1E0
330
1D
100
AcDbEntity
  8
別途部材
  6
Continuous
 62
    47
100
AcDbLine
 10
-121.925605
 20
-68.919
 30
0.0
 11
-121.925605
 21
-70.419
 31
0.0
  0
LINE
  5
1E1
330
1D
100
AcDbEntity
  8
曲げ物
  6
Continuous
100
AcDbLine
 10
155.537835
 20
-69.20038
 30
0.0
 11
155.537835
 21
-49.533713
 31
0.0
  0
LINE
  5
1E2
330
1D
100
AcDbEntity
  8
曲げ物
  6
Continuous
100
AcDbLine
 10
-35.306182
 20
34.61679
 30
0.0
 11
-39.001495
 21
30.921478
 31
0.0
  0
LINE
  5
1E3
330
1D
100
AcDbEntity
  8
曲げ物
  6
Continuous
100
AcDbLine
 10
-36.009652
 20
33.08068
 30
0.0
 11
-37.465383
 21
31.62495
 31
0.0
  0
LINE
  5
1E4
330
1D
100
AcDbEntity
  8
曲げ物
  6
Continuous
100
AcDbLine
 10
-36.842292
 20
33.91332
 30
0.0
 11
-38.298023
 21
32.45759
 31
0.0
  0
LINE
  5
1E5
330
1D
100
AcDbEntity
  8
曲げ物
  6
Continuous
100
AcDbLine
 10
-1.959508
 20
34.61679
 30
0.0
 11
-5.65482
 21
30.921478
 31
0.0
  0
LINE
  5
1E6
330
1D
100
AcDbEntity
  8
曲げ物
  6
Continuous
100
AcDbLine
 10
-2.662978
 20
33.08068
 30
0.0
 11
-4.118707
 21
31.62495
 31
0.0
  0
LINE
  5
1E7
330
1D
100
AcDbEntity
  8
曲げ物
  6
Continuous
100
AcDbLine
 10
-3.495618
 20
33.91332
 30
0.0
 11
-4.951347
 21
32.45759
 31
0.0
  0
LINE
  5
1E8
330
1D
100
AcDbEntity
  8
曲げ物
  6
Continuous
100
AcDbLine
 10
31.42049
 20
34.61679
 30
0.0
 11
27.725178
 21
30.921478
 31
0.0
  0
LINE
  5
1E9
330
1D
100
AcDbEntity
  8
曲げ物
  6
Continuous
100
AcDbLine
 10
30.71702
 20
33.08068
 30
0.0
 11
29.26129
 21
31.62495
 31
0.0
  0
LINE
  5
1EA
330
1D
100
AcDbEntity
  8
曲げ物
  6
Continuous
100
AcDbLine
 10
29.88438
 20
33.91332
 30
0.0
 11
28.42865
 21
32.45759
 31
0.0
  0
LINE
  5
1EB
330
1D
100
AcDbEntity
  8
曲げ物
  6
Continuous
100
AcDbLine
 10
-102.032855
 20
34.61679
 30
0.0
 11
-105.728168
 21
30.921478
 31
0.0
  0
LINE
  5
1EC
330
1D
100
AcDbEntity
  8
曲げ物
  6
Continuous
100
AcDbLine
 10
-102.736325
 20
33.08068
 30
0.0
 11
-104.192055
 21
31.62495
 31
0.0
  0
LINE
  5
1ED
330
1D
100
AcDbEntity
  8
曲げ物
  6
Continuous
100
AcDbLine
 10
-103.568965
 20
33.91332
 30
0.0
 11
-105.024695
 21
32.45759
 31
0.0
  0
LINE
  5
1EE
330
1D
100
AcDbEntity
  8
曲げ物
  6
Continuous
100
AcDbLine
 10
-68.68617999999999
 20
34.61679
 30
0.0
 11
-72.38149199999999
 21
30.921478
 31
0.0
  0
LINE
  5
1EF
330
1D
100
AcDbEntity
  8
曲げ物
  6
Continuous
100
AcDbLine
 10
-69.38965
 20
33.08068
 30
0.0
 11
-70.84538000000001
 21
31.62495
 31
0.0
  0
LINE
  5
1F0
330
1D
100
AcDbEntity
  8
曲げ物
  6
Continuous
100
AcDbLine
 10
-70.22229
 20
33.91332
 30
0.0
 11
-71.67802
 21
32.45759
 31
0.0
  0
LINE
  5
1F1
330
1D
100
AcDbEntity
  8
曲げ物
  6
Continuous
100
AcDbLine
 10
-35.306182
 20
34.61679
 30
0.0
 11
-39.001495
 21
30.921478
 31
0.0
  0
LINE
  5
1F2
330
1D
100
AcDbEntity
  8
曲げ物
  6
Continuous
100
AcDbLine
 10
-36.009652
 20
33.08068
 30
0.0
 11
-37.465383
 21
31.62495
 31
0.0
  0
LINE
  5
1F3
330
1D
100
AcDbEntity
  8
曲げ物
  6
Continuous
100
AcDbLine
 10
-36.842292
 20
33.91332
 30
0.0
 11
-38.298023
 21
32.45759
 31
0.0
  0
LINE
  5
1F4
330
1D
100
AcDbEntity
  8
曲げ物
  6
Continuous
100
AcDbLine
 10
123.124503
 20
-49.533713
 30
0.0
 11
123.124503
 21
-69.20038
 31
0.0
  0
LINE
  5
1F5
330
1D
100
AcDbEntity
  8
曲げ物
  6
Continuous
100
AcDbLine
 10
155.537835
 20
-49.533713
 30
0.0
 11
123.124503
 21
-49.533713
 31
0.0
  0
LINE
  5
1F6
330
1D
100
AcDbEntity
  8
曲げ物
  6
Continuous
100
AcDbLine
 10
155.537835
 20
-69.20038
 30
0.0
 11
123.124503
 21
-69.20038
 31
0.0
  0
ENDSEC
  0
SECTION
  2
OBJECTS
  0
DICTIONARY
  5
C
330
0
100
AcDbDictionary
281
     1
  3
ACAD_GROUP
350
D
  3
ACAD_LAYOUT
350
1A
  3
ACAD_MLINESTYLE
350
17
  3
ACAD_PLOTSETTINGS
350
19
  3
ACAD_PLOTSTYLENAME
350
E
  0
DICTIONARY
  5
D
102
{ACAD_REACTORS
330
C
102
}
330
C
100
AcDbDictionary
281
     1
  0
DICTIONARY
  5
1A
102
{ACAD_REACTORS
330
C
102
}
330
C
100
AcDbDictionary
281
     1
  3
Layout1
350
1C
  3
Model
350
1E
  0
DICTIONARY
  5
17
102
{ACAD_REACTORS
330
C
102
}
330
C
100
AcDbDictionary
281
     1
  3
Standard
350
18
  0
DICTIONARY
  5
19
102
{ACAD_REACTORS
330
C
102
}
330
C
100
AcDbDictionary
281
     1
  0
ACDBDICTIONARYWDFLT
  5
E
102
{ACAD_REACTORS
330
C
102
}
330
C
100
AcDbDictionary
281
     1
  3
Normal
350
F
100
AcDbDictionaryWithDefault
340
F
  0
LAYOUT
  5
1C
102
{ACAD_REACTORS
330
1A
102
}
330
1A
100
AcDbPlotSettings
  1

  2

  4

  6

 40
0.0
 41
0.0
 42
0.0
 43
0.0
 44
0.0
 45
0.0
 46
0.0
 47
0.0
 48
0.0
 49
0.0
140
0.0
141
0.0
142
1.0
143
1.0
 70
   688
 72
     0
 73
     0
 74
     5
  7

 75
    16
 76
     0
 77
     2
 78
   300
147
1.0
148
0.0
149
0.0
100
AcDbLayout
  1
Layout1
 70
     1
 71
     1
 10
0.0
 20
0.0
 11
12.0
 21
9.0
 12
0.0
 22
0.0
 32
0.0
 14
1.000000000000000E+20
 24
1.000000000000000E+20
 34
1.000000000000000E+20
 15
-1.000000000000000E+20
 25
-1.000000000000000E+20
 35
-1.000000000000000E+20
146
0.0
 13
0.0
 23
0.0
 33
0.0
 16
1.0
 26
0.0
 36
0.0
 17
0.0
 27
1.0
 37
0.0
 76
     0
330
1B
  0
LAYOUT
  5
1E
102
{ACAD_REACTORS
330
1A
102
}
330
1A
100
AcDbPlotSettings
  1

  2

  4

  6

 40
0.0
 41
0.0
 42
0.0
 43
0.0
 44
0.0
 45
0.0
 46
0.0
 47
0.0
 48
0.0
 49
0.0
140
0.0
141
0.0
142
1.0
143
1.0
 70
  1712
 72
     0
 73
     0
 74
     0
  7

 75
     0
 76
     0
 77
     2
 78
   300
147
1.0
148
0.0
149
0.0
100
AcDbLayout
  1
Model
 70
     1
 71
     0
 10
0.0
 20
0.0
 11
0.0
 21
0.0
 12
0.0
 22
0.0
 32
0.0
 14
-210.0
 24
-148.5
 34
0.0
 15
210.0
 25
148.5
 35
0.0
146
0.0
 13
0.0
 23
0.0
 33
0.0
 16
1.0
 26
0.0
 36
0.0
 17
0.0
 27
1.0
 37
0.0
 76
     0
330
1D
  0
MLINESTYLE
  5
18
102
{ACAD_REACTORS
330
17
102
}
330
17
100
AcDbMlineStyle
  2
Standard
 70
     0
  3

 62
   256
 51
90.0
 52
90.0
 71
     2
 49
0.5
 62
   256
  6
BYLAYER
 49
-0.5
 62
   256
  6
BYLAYER
  0
ACDBPLACEHOLDER
  5
F
102
{ACAD_REACTORS
330
E
102
}
330
E
  0
ENDSEC
  0
EOF
