  0
SECTION
  2
HEADER
  9
$EXTMIN
 10
-210.0
 20
-148.5
  9
$EXTMAX
 10
210.0
 20
148.5
  9
$PDMODE
 70
    32
  9
$PDSIZE
 40
1.5
  9
$LTSCALE
 40
10.0
  0
ENDSEC
  0
SECTION
  2
TABLES
  0
TABLE
  2
LTYPE
 70
    15
  0
LTYPE
  2
CONTINUOUS
 70
    64
  3
実線
 72
    65
 73
     0
 40
0.0
  0
LTYPE
  2
DASHED
 70
    64
  3
破線A
 72
    65
 73
     2
 40
0.6
 49
0.4
 49
-0.2
  0
LTYPE
  2
DASHEDX2
 70
    64
  3
破線B
 72
    65
 73
     2
 40
1.3
 49
0.9
 49
-0.4
  0
LTYPE
  2
DASHDOT
 70
    64
  3
１点鎖線A
 72
    65
 73
     4
 40
0.5375
 49
0.375
 49
-0.05
 49
0.0625
 49
-0.05
  0
LTYPE
  2
DASHDOTX2
 70
    64
  3
１点鎖線B
 72
    65
 73
     4
 40
1.075
 49
0.75
 49
-0.1
 49
0.125
 49
-0.1
  0
LTYPE
  2
DIVIDE2
 70
    64
  3
２点鎖線A
 72
    65
 73
     6
 40
0.5125
 49
0.3
 49
-0.0375
 49
0.05
 49
-0.0375
 49
0.05
 49
-0.0375
  0
LTYPE
  2
DIVIDE
 70
    64
  3
２点鎖線B
 72
    65
 73
     6
 40
1.05
 49
0.55
 49
-0.1
 49
0.1
 49
-0.1
 49
0.1
 49
-0.1
  0
LTYPE
  2
DOT
 70
    64
  3
点線A
 72
    65
 73
     2
 40
0.1125
 49
0.0625
 49
-0.05
  0
LTYPE
  2
DOTX2
 70
    64
  3
点線B
 72
    65
 73
     2
 40
0.275
 49
0.15
 49
-0.125
  0
LTYPE
  2
CONTINUOUS
 70
    64
  3
実線
 72
    65
 73
     0
 40
0.0
  0
LTYPE
  2
CONTINUOUS
 70
    64
  3
実線
 72
    65
 73
     0
 40
0.0
  0
LTYPE
  2
CONTINUOUS
 70
    64
  3
実線
 72
    65
 73
     0
 40
0.0
  0
LTYPE
  2
CONTINUOUS
 70
    64
  3
実線
 72
    65
 73
     0
 40
0.0
  0
LTYPE
  2
CONTINUOUS
 70
    64
  3
実線
 72
    65
 73
     0
 40
0.0
  0
LTYPE
  2
CONTINUOUS
 70
    64
  3
実線
 72
    65
 73
     0
 40
0.0
  0
ENDTAB
  0
TABLE
  2
LAYER
 70
    34
  0
LAYER
  2
通り芯
 70
     0
 62
    15
  6
CONTINUOUS
  0
LAYER
  2
補助線
 70
     0
 62
    16
  6
DOT
  0
LAYER
  2
躯体
 70
     0
 62
    31
  6
CONTINUOUS
  0
LAYER
  2
型材
 70
     0
 62
    32
  6
CONTINUOUS
  0
LAYER
  2
型材断面
 70
     0
 62
    47
  6
CONTINUOUS
  0
LAYER
  2
ガラス
 70
     0
 62
    48
  6
CONTINUOUS
  0
LAYER
  2
ゴム等
 70
     0
 62
    63
  6
CONTINUOUS
  0
LAYER
  2
ボルト／ビス
 70
     0
 62
    64
  6
CONTINUOUS
  0
LAYER
  2
文字
 70
     0
 62
    79
  6
CONTINUOUS
  0
LAYER
  2
寸法
 70
     0
 62
    80
  6
CONTINUOUS
  0
LAYER
  2
ﾊｯﾁﾝｸﾞ
 70
     0
 62
    95
  6
CONTINUOUS
  0
LAYER
  2
別途部材
 70
     0
 62
    96
  6
CONTINUOUS
  0
LAYER
  2
曲げ物
 70
     0
 62
   111
  6
CONTINUOUS
  0
LAYER
  2
鉄骨等
 70
     0
 62
   112
  6
CONTINUOUS
  0
LAYER
  2
St
 70
     0
 62
   127
  6
CONTINUOUS
  0
LAYER
  2
その他部品等
 70
     0
 62
   128
  6
CONTINUOUS
  0
LAYER
  2
ｶﾞｽｹｯﾄ
 70
     0
 62
   143
  6
CONTINUOUS
  0
LAYER
  2
ｽｹｯﾁ
 70
     0
 62
    14
  6
CONTINUOUS
  0
LAYER
  2
0
 70
     0
 62
    17
  6
CONTINUOUS
  0
LAYER
  2
1
 70
     0
 62
    30
  6
CONTINUOUS
  0
LAYER
  2
4
 70
     0
 62
    33
  6
CONTINUOUS
  0
LAYER
  2
ﾚｲﾔ3
 70
     0
 62
    46
  6
CONTINUOUS
  0
LAYER
  2
外形線
 70
     0
 62
    49
  6
CONTINUOUS
  0
LAYER
  2
部品
 70
     0
 62
    14
  6
CONTINUOUS
  0
LAYER
  2
サッシ芯
 70
     0
 62
    17
  6
DASHDOTX2
  0
LAYER
  2
寸法線
 70
     0
 62
    62
  6
CONTINUOUS
  0
LAYER
  2
姿図外形線
 70
     0
 62
    65
  6
CONTINUOUS
  0
LAYER
  2
姿補助線
 70
     0
 62
    30
  6
CONTINUOUS
  0
LAYER
  2
透視線
 70
     0
 62
    78
  6
DOT
  0
LAYER
  2
用紙
 70
     0
 62
    81
  6
CONTINUOUS
  0
LAYER
  2
実線図枠
 70
     0
 62
    94
  6
CONTINUOUS
  0
LAYER
  2
補助図枠
 70
     0
 62
    97
  6
CONTINUOUS
  0
LAYER
  2
建具記号
 70
     0
 62
   110
  6
CONTINUOUS
  0
LAYER
  2
補助文字
 70
     0
 62
   113
  6
CONTINUOUS
  0
ENDTAB
  0
TABLE
  2
STYLE
 70
    10
  0
STYLE
  2
STANDARD
 70
     0
 40
1.0
 41
1.0
 42
1.0
 50
0.0
 71
     0
  3
TXT
  4
BIGFONT
  0
STYLE
  2
TATE
 70
     4
 40
1.0
 41
1.0
 42
1.0
 50
0.0
 71
     0
  3
TXT
  4
BIGFONT
  0
STYLE
  2
TextStyle03
 70
     0
 40
1.0
 41
1.0
 42
1.0
 50
0.0
 71
     0
  3
MONOTXT
  4
BIGFONT
  0
STYLE
  2
TextStyle04
 70
     0
 40
1.0
 41
1.0
 42
1.0
 50
0.0
 71
     0
  3
MONOTXT
  4
BIGFONT
  0
STYLE
  2
TextStyle05
 70
     0
 40
1.0
 41
1.0
 42
1.0
 50
0.0
 71
     0
  3
MONOTXT
  4
BIGFONT
  0
STYLE
  2
TextStyle06
 70
     0
 40
1.0
 41
1.0
 42
1.0
 50
0.0
 71
     0
  3
MONOTXT
  4
BIGFONT
  0
STYLE
  2
TextStyle07
 70
     0
 40
1.0
 41
1.0
 42
1.0
 50
0.0
 71
     0
  3
MONOTXT
  4
BIGFONT
  0
STYLE
  2
TextStyle08
 70
     0
 40
1.0
 41
1.0
 42
1.0
 50
0.0
 71
     0
  3
MONOTXT
  4
BIGFONT
  0
STYLE
  2
TextStyle09
 70
     0
 40
1.0
 41
1.0
 42
1.0
 50
0.0
 71
     0
  3
MONOTXT
  4
BIGFONT
  0
STYLE
  2
TextStyle10
 70
     0
 40
1.0
 41
1.0
 42
1.0
 50
0.0
 71
     0
  3
MONOTXT
  4
BIGFONT
  0
ENDTAB
  0
ENDSEC
  0
SECTION
  2
BLOCKS
  0
BLOCK
  2
*GRP_0001
 70
    65
 10
0.0
 20
0.0
  0
LINE
  8
型材断面
  6
CONTINUOUS
 10
195.0
 20
133.5
 11
195.0
 21
-133.5
  0
LINE
  8
型材断面
  6
CONTINUOUS
 10
195.0
 20
-133.5
 11
-185.0
 21
-133.5
  0
LINE
  8
型材断面
  6
CONTINUOUS
 10
-185.0
 20
-133.5
 11
-185.0
 21
133.5
  0
LINE
  8
型材断面
  6
CONTINUOUS
 10
195.0
 20
133.5
 11
-185.0
 21
133.5
  0
LINE
  8
型材断面
  6
CONTINUOUS
 10
145.0
 20
-133.5
 11
145.0
 21
-118.5
  0
LINE
  8
型材断面
  6
CONTINUOUS
 10
195.0
 20
-118.5
 11
145.0
 21
-118.5
  0
ENDBLK
  0
BLOCK
  2
*DIM_0002
 70
    65
 10
0.0
 20
0.0
  0
LINE
  8
寸法
  6
BYBLOCK
 62
     0
 10
-95.755937
 20
-35.080245
 11
-95.755937
 21
-33.416065
  0
LINE
  8
寸法
  6
BYBLOCK
 62
     0
 10
-30.755937
 20
-35.080245
 11
-30.755937
 21
-33.416065
  0
LINE
  8
寸法
  6
BYBLOCK
 62
     0
 10
-95.755937
 20
-33.416065
 11
-30.755937
 21
-33.416065
  0
POINT
  8
寸法
 62
     0
 10
-95.755937
 20
-33.416065
  0
POINT
  8
寸法
 62
     0
 10
-30.755937
 20
-33.416065
  0
TEXT
  7
TextStyle03
  8
寸法
  6
CONTINUOUS
 62
     0
 10
-74.99375
 20
-33.05
  1
呼称寸法　1300
 40
3.0
 72
     5
 11
-51.55625
 21
-33.05
  0
ENDBLK
  0
BLOCK
  2
*DIM_0003
 70
    65
 10
0.0
 20
0.0
  0
LINE
  8
寸法
  6
BYBLOCK
 62
     0
 10
-29.755937
 20
59.370383
 11
-15.072648
 21
59.370383
  0
LINE
  8
寸法
  6
BYBLOCK
 62
     0
 10
-21.73206
 20
56.370383
 11
-15.072648
 21
56.370383
  0
LINE
  8
寸法
  6
BYBLOCK
 62
     0
 10
-15.072648
 20
59.370383
 11
-15.072648
 21
56.370383
  0
POINT
  8
寸法
 62
     0
 10
-15.072648
 20
59.370383
  0
POINT
  8
寸法
 62
     0
 10
-15.072648
 20
56.370383
  0
TEXT
  7
TextStyle03
  8
寸法
  6
CONTINUOUS
 62
     0
 10
-12.1
 20
56.23125
  1
60
 40
3.0
 50
90.0
 72
     5
 11
-12.1
 21
59.41875
  0
ENDBLK
  0
BLOCK
  2
*DIM_0004
 70
    65
 10
0.0
 20
0.0
  0
LINE
  8
寸法
  6
BYBLOCK
 62
     0
 10
-29.755937
 20
-5.629618
 11
-15.072648
 21
-5.629618
  0
LINE
  8
寸法
  6
BYBLOCK
 62
     0
 10
-21.73206
 20
-2.629618
 11
-15.072648
 21
-2.629618
  0
LINE
  8
寸法
  6
BYBLOCK
 62
     0
 10
-15.072648
 20
-5.629618
 11
-15.072648
 21
-2.629618
  0
POINT
  8
寸法
 62
     0
 10
-15.072648
 20
-5.629618
  0
POINT
  8
寸法
 62
     0
 10
-15.072648
 20
-2.629618
  0
TEXT
  7
TextStyle03
  8
寸法
  6
CONTINUOUS
 62
     0
 10
-12.075
 20
-5.74375
  1
60
 40
3.0
 50
90.0
 72
     5
 11
-12.075
 21
-2.55625
  0
ENDBLK
  0
BLOCK
  2
*DIM_0005
 70
    65
 10
0.0
 20
0.0
  0
LINE
  8
寸法
  6
BYBLOCK
 62
     0
 10
-62.255935
 20
-52.819873
 11
-10.143282
 21
-52.819873
  0
LINE
  8
寸法
  6
BYBLOCK
 62
     0
 10
-10.143282
 20
-70.319873
 11
-10.143282
 21
-52.819873
  0
POINT
  8
寸法
 62
     0
 10
-10.143282
 20
-70.319873
  0
POINT
  8
寸法
 62
     0
 10
-10.143282
 20
-52.819873
  0
TEXT
  7
TextStyle03
  8
寸法
  6
CONTINUOUS
 62
     0
 10
-10.5
 20
-64.0375
  1
350
 40
3.0
 50
90.0
 72
     5
 11
-10.5
 21
-59.1625
  0
ENDBLK
  0
BLOCK
  2
*DIM_0006
 70
    65
 10
0.0
 20
0.0
  0
LINE
  8
寸法
  6
BYBLOCK
 62
     0
 10
-105.990088
 20
44.370385
 11
-116.345625
 21
44.370385
  0
LINE
  8
寸法
  6
BYBLOCK
 62
     0
 10
-105.99009
 20
9.370385
 11
-116.345627
 21
9.370385
  0
LINE
  8
寸法
  6
BYBLOCK
 62
     0
 10
-116.345625
 20
44.370385
 11
-116.345627
 21
9.370385
  0
POINT
  8
寸法
 62
     0
 10
-116.345625
 20
44.370385
  0
POINT
  8
寸法
 62
     0
 10
-116.345627
 20
9.370385
  0
TEXT
  7
TextStyle03
  8
寸法
  6
CONTINUOUS
 62
     0
 10
-116.75
 20
24.4125
  1
700
 40
3.0
 50
90.0
 72
     5
 11
-116.75
 21
29.2875
  0
ENDBLK
  0
BLOCK
  2
*DIM_0007
 70
    65
 10
0.0
 20
0.0
  0
LINE
  8
寸法
  6
BYBLOCK
 62
     0
 10
-80.755937
 20
69.604535
 11
-80.755937
 21
79.960073
  0
LINE
  8
寸法
  6
BYBLOCK
 62
     0
 10
-45.755937
 20
69.604537
 11
-45.755937
 21
79.960073
  0
LINE
  8
寸法
  6
BYBLOCK
 62
     0
 10
-80.755937
 20
79.960073
 11
-45.755937
 21
79.960073
  0
POINT
  8
寸法
 62
     0
 10
-80.755937
 20
79.960073
  0
POINT
  8
寸法
 62
     0
 10
-45.755937
 20
79.960073
  0
TEXT
  7
TextStyle03
  8
寸法
  6
CONTINUOUS
 62
     0
 10
-65.7125
 20
80.325
  1
700
 40
3.0
 72
     5
 11
-60.8375
 21
80.325
  0
ENDBLK
  0
BLOCK
  2
*GRP_0008
 70
    65
 10
0.0
 20
0.0
  0
INSERT
  2
*GRP_0024
  8
補助線
  6
CONTINUOUS
 10
0.0
 20
0.0
  0
LINE
  8
ボルト／ビス
  6
CONTINUOUS
 10
-55.755937
 20
60.659058
 11
-56.005937
 21
60.51472
  0
LINE
  8
ボルト／ビス
  6
CONTINUOUS
 10
-55.755937
 20
60.659058
 11
-55.505937
 21
60.51472
  0
LINE
  8
ボルト／ビス
  6
CONTINUOUS
 10
-56.005937
 20
60.226045
 11
-55.755937
 21
60.081708
  0
LINE
  8
ボルト／ビス
  6
CONTINUOUS
 10
-55.505937
 20
60.226045
 11
-55.755937
 21
60.081708
  0
CIRCLE
  8
ボルト／ビス
  6
CONTINUOUS
 10
-55.755937
 20
60.370383
 40
0.25
  0
LINE
  8
ボルト／ビス
  6
CONTINUOUS
 10
-55.505937
 20
60.51472
 11
-55.505937
 21
60.226045
  0
LINE
  8
ボルト／ビス
  6
CONTINUOUS
 10
-56.005937
 20
60.226045
 11
-56.005937
 21
60.51472
  0
ENDBLK
  0
BLOCK
  2
*GRP_0009
 70
    65
 10
0.0
 20
0.0
  0
INSERT
  2
*GRP_0025
  8
補助線
  6
CONTINUOUS
 10
0.0
 20
0.0
  0
LINE
  8
ボルト／ビス
  6
CONTINUOUS
 10
-40.755937
 20
60.659058
 11
-41.005937
 21
60.51472
  0
LINE
  8
ボルト／ビス
  6
CONTINUOUS
 10
-40.755937
 20
60.659058
 11
-40.505937
 21
60.51472
  0
LINE
  8
ボルト／ビス
  6
CONTINUOUS
 10
-41.005937
 20
60.226045
 11
-40.755937
 21
60.081708
  0
LINE
  8
ボルト／ビス
  6
CONTINUOUS
 10
-40.505937
 20
60.226045
 11
-40.755937
 21
60.081708
  0
CIRCLE
  8
ボルト／ビス
  6
CONTINUOUS
 10
-40.755937
 20
60.370383
 40
0.25
  0
LINE
  8
ボルト／ビス
  6
CONTINUOUS
 10
-40.505937
 20
60.51472
 11
-40.505937
 21
60.226045
  0
LINE
  8
ボルト／ビス
  6
CONTINUOUS
 10
-41.005937
 20
60.226045
 11
-41.005937
 21
60.51472
  0
ENDBLK
  0
BLOCK
  2
*GRP_0010
 70
    65
 10
0.0
 20
0.0
  0
INSERT
  2
*GRP_0026
  8
補助線
  6
CONTINUOUS
 10
0.0
 20
0.0
  0
LINE
  8
ボルト／ビス
  6
CONTINUOUS
 10
-70.755937
 20
60.659058
 11
-70.505937
 21
60.51472
  0
LINE
  8
ボルト／ビス
  6
CONTINUOUS
 10
-70.755937
 20
60.659058
 11
-71.005937
 21
60.51472
  0
LINE
  8
ボルト／ビス
  6
CONTINUOUS
 10
-70.505937
 20
60.226045
 11
-70.755937
 21
60.081708
  0
LINE
  8
ボルト／ビス
  6
CONTINUOUS
 10
-71.005937
 20
60.226045
 11
-70.755937
 21
60.081708
  0
CIRCLE
  8
ボルト／ビス
  6
CONTINUOUS
 10
-70.755937
 20
60.370383
 40
0.25
  0
LINE
  8
ボルト／ビス
  6
CONTINUOUS
 10
-71.005937
 20
60.51472
 11
-71.005937
 21
60.226045
  0
LINE
  8
ボルト／ビス
  6
CONTINUOUS
 10
-70.505937
 20
60.226045
 11
-70.505937
 21
60.51472
  0
ENDBLK
  0
BLOCK
  2
*GRP_0011
 70
    65
 10
0.0
 20
0.0
  0
INSERT
  2
*GRP_0027
  8
補助線
  6
CONTINUOUS
 10
0.0
 20
0.0
  0
LINE
  8
ボルト／ビス
  6
CONTINUOUS
 10
-85.755937
 20
60.659058
 11
-85.505937
 21
60.51472
  0
LINE
  8
ボルト／ビス
  6
CONTINUOUS
 10
-85.755937
 20
60.659058
 11
-86.005937
 21
60.51472
  0
LINE
  8
ボルト／ビス
  6
CONTINUOUS
 10
-85.505937
 20
60.226045
 11
-85.755937
 21
60.081708
  0
LINE
  8
ボルト／ビス
  6
CONTINUOUS
 10
-86.005937
 20
60.226045
 11
-85.755937
 21
60.081708
  0
CIRCLE
  8
ボルト／ビス
  6
CONTINUOUS
 10
-85.755937
 20
60.370383
 40
0.25
  0
LINE
  8
ボルト／ビス
  6
CONTINUOUS
 10
-86.005937
 20
60.51472
 11
-86.005937
 21
60.226045
  0
LINE
  8
ボルト／ビス
  6
CONTINUOUS
 10
-85.505937
 20
60.226045
 11
-85.505937
 21
60.51472
  0
ENDBLK
  0
BLOCK
  2
*GRP_0012
 70
    65
 10
0.0
 20
0.0
  0
INSERT
  2
*GRP_0028
  8
補助線
  6
CONTINUOUS
 10
0.0
 20
0.0
  0
LINE
  8
ボルト／ビス
  6
CONTINUOUS
 10
-97.04461
 20
34.370385
 11
-96.900273
 21
34.120385
  0
LINE
  8
ボルト／ビス
  6
CONTINUOUS
 10
-97.04461
 20
34.370385
 11
-96.900273
 21
34.620385
  0
LINE
  8
ボルト／ビス
  6
CONTINUOUS
 10
-96.611597
 20
34.120385
 11
-96.46726
 21
34.370385
  0
LINE
  8
ボルト／ビス
  6
CONTINUOUS
 10
-96.611597
 20
34.620385
 11
-96.46726
 21
34.370385
  0
CIRCLE
  8
ボルト／ビス
  6
CONTINUOUS
 10
-96.755935
 20
34.370385
 40
0.25
  0
LINE
  8
ボルト／ビス
  6
CONTINUOUS
 10
-96.900273
 20
34.620385
 11
-96.611597
 21
34.620385
  0
LINE
  8
ボルト／ビス
  6
CONTINUOUS
 10
-96.611597
 20
34.120385
 11
-96.900273
 21
34.120385
  0
ENDBLK
  0
BLOCK
  2
*GRP_0013
 70
    65
 10
0.0
 20
0.0
  0
INSERT
  2
*GRP_0029
  8
補助線
  6
CONTINUOUS
 10
0.0
 20
0.0
  0
LINE
  8
ボルト／ビス
  6
CONTINUOUS
 10
-97.04461
 20
49.370385
 11
-96.900273
 21
49.120385
  0
LINE
  8
ボルト／ビス
  6
CONTINUOUS
 10
-97.04461
 20
49.370385
 11
-96.900273
 21
49.620385
  0
LINE
  8
ボルト／ビス
  6
CONTINUOUS
 10
-96.611597
 20
49.120385
 11
-96.46726
 21
49.370385
  0
LINE
  8
ボルト／ビス
  6
CONTINUOUS
 10
-96.611597
 20
49.620385
 11
-96.46726
 21
49.370385
  0
CIRCLE
  8
ボルト／ビス
  6
CONTINUOUS
 10
-96.755935
 20
49.370385
 40
0.25
  0
LINE
  8
ボルト／ビス
  6
CONTINUOUS
 10
-96.900273
 20
49.620385
 11
-96.611597
 21
49.620385
  0
LINE
  8
ボルト／ビス
  6
CONTINUOUS
 10
-96.611597
 20
49.120385
 11
-96.900273
 21
49.120385
  0
ENDBLK
  0
BLOCK
  2
*GRP_0014
 70
    65
 10
0.0
 20
0.0
  0
INSERT
  2
*GRP_0030
  8
補助線
  6
CONTINUOUS
 10
0.0
 20
0.0
  0
LINE
  8
ボルト／ビス
  6
CONTINUOUS
 10
-97.04461
 20
19.37038
 11
-96.900273
 21
19.62038
  0
LINE
  8
ボルト／ビス
  6
CONTINUOUS
 10
-97.04461
 20
19.37038
 11
-96.900273
 21
19.12038
  0
LINE
  8
ボルト／ビス
  6
CONTINUOUS
 10
-96.611597
 20
19.62038
 11
-96.46726
 21
19.37038
  0
LINE
  8
ボルト／ビス
  6
CONTINUOUS
 10
-96.611597
 20
19.12038
 11
-96.46726
 21
19.37038
  0
CIRCLE
  8
ボルト／ビス
  6
CONTINUOUS
 10
-96.755935
 20
19.37038
 40
0.25
  0
LINE
  8
ボルト／ビス
  6
CONTINUOUS
 10
-96.900273
 20
19.12038
 11
-96.611597
 21
19.12038
  0
LINE
  8
ボルト／ビス
  6
CONTINUOUS
 10
-96.611597
 20
19.62038
 11
-96.900273
 21
19.62038
  0
ENDBLK
  0
BLOCK
  2
*GRP_0015
 70
    65
 10
0.0
 20
0.0
  0
INSERT
  2
*GRP_0031
  8
補助線
  6
CONTINUOUS
 10
0.0
 20
0.0
  0
LINE
  8
ボルト／ビス
  6
CONTINUOUS
 10
-97.04461
 20
4.37038
 11
-96.900273
 21
4.62038
  0
LINE
  8
ボルト／ビス
  6
CONTINUOUS
 10
-97.04461
 20
4.37038
 11
-96.900273
 21
4.12038
  0
LINE
  8
ボルト／ビス
  6
CONTINUOUS
 10
-96.611597
 20
4.62038
 11
-96.46726
 21
4.37038
  0
LINE
  8
ボルト／ビス
  6
CONTINUOUS
 10
-96.611597
 20
4.12038
 11
-96.46726
 21
4.37038
  0
CIRCLE
  8
ボルト／ビス
  6
CONTINUOUS
 10
-96.755935
 20
4.37038
 40
0.25
  0
LINE
  8
ボルト／ビス
  6
CONTINUOUS
 10
-96.900273
 20
4.12038
 11
-96.611597
 21
4.12038
  0
LINE
  8
ボルト／ビス
  6
CONTINUOUS
 10
-96.611597
 20
4.62038
 11
-96.900273
 21
4.62038
  0
ENDBLK
  0
BLOCK
  2
*GRP_0016
 70
    65
 10
0.0
 20
0.0
  0
INSERT
  2
*GRP_0032
  8
補助線
  6
CONTINUOUS
 10
0.0
 20
0.0
  0
LINE
  8
ボルト／ビス
  6
CONTINUOUS
 10
-70.75594
 20
-6.91829
 11
-70.50594
 21
-6.773952
  0
LINE
  8
ボルト／ビス
  6
CONTINUOUS
 10
-70.75594
 20
-6.91829
 11
-71.00594
 21
-6.773952
  0
LINE
  8
ボルト／ビス
  6
CONTINUOUS
 10
-70.50594
 20
-6.485278
 11
-70.75594
 21
-6.34094
  0
LINE
  8
ボルト／ビス
  6
CONTINUOUS
 10
-71.00594
 20
-6.485278
 11
-70.75594
 21
-6.34094
  0
CIRCLE
  8
ボルト／ビス
  6
CONTINUOUS
 10
-70.75594
 20
-6.629615
 40
0.25
  0
LINE
  8
ボルト／ビス
  6
CONTINUOUS
 10
-71.00594
 20
-6.773952
 11
-71.00594
 21
-6.485278
  0
LINE
  8
ボルト／ビス
  6
CONTINUOUS
 10
-70.50594
 20
-6.485278
 11
-70.50594
 21
-6.773952
  0
ENDBLK
  0
BLOCK
  2
*GRP_0017
 70
    65
 10
0.0
 20
0.0
  0
INSERT
  2
*GRP_0033
  8
補助線
  6
CONTINUOUS
 10
0.0
 20
0.0
  0
LINE
  8
ボルト／ビス
  6
CONTINUOUS
 10
-85.75594
 20
-6.91829
 11
-85.50594
 21
-6.773952
  0
LINE
  8
ボルト／ビス
  6
CONTINUOUS
 10
-85.75594
 20
-6.91829
 11
-86.00594
 21
-6.773952
  0
LINE
  8
ボルト／ビス
  6
CONTINUOUS
 10
-85.50594
 20
-6.485278
 11
-85.75594
 21
-6.34094
  0
LINE
  8
ボルト／ビス
  6
CONTINUOUS
 10
-86.00594
 20
-6.485278
 11
-85.75594
 21
-6.34094
  0
CIRCLE
  8
ボルト／ビス
  6
CONTINUOUS
 10
-85.75594
 20
-6.629615
 40
0.25
  0
LINE
  8
ボルト／ビス
  6
CONTINUOUS
 10
-86.00594
 20
-6.773952
 11
-86.00594
 21
-6.485278
  0
LINE
  8
ボルト／ビス
  6
CONTINUOUS
 10
-85.50594
 20
-6.485278
 11
-85.50594
 21
-6.773952
  0
ENDBLK
  0
BLOCK
  2
*GRP_0018
 70
    65
 10
0.0
 20
0.0
  0
INSERT
  2
*GRP_0034
  8
補助線
  6
CONTINUOUS
 10
0.0
 20
0.0
  0
LINE
  8
ボルト／ビス
  6
CONTINUOUS
 10
-55.755935
 20
-6.91829
 11
-56.005935
 21
-6.773952
  0
LINE
  8
ボルト／ビス
  6
CONTINUOUS
 10
-55.755935
 20
-6.91829
 11
-55.505935
 21
-6.773952
  0
LINE
  8
ボルト／ビス
  6
CONTINUOUS
 10
-56.005935
 20
-6.485278
 11
-55.755935
 21
-6.34094
  0
LINE
  8
ボルト／ビス
  6
CONTINUOUS
 10
-55.505935
 20
-6.485278
 11
-55.755935
 21
-6.34094
  0
CIRCLE
  8
ボルト／ビス
  6
CONTINUOUS
 10
-55.755935
 20
-6.629615
 40
0.25
  0
LINE
  8
ボルト／ビス
  6
CONTINUOUS
 10
-55.505935
 20
-6.773952
 11
-55.505935
 21
-6.485278
  0
LINE
  8
ボルト／ビス
  6
CONTINUOUS
 10
-56.005935
 20
-6.485278
 11
-56.005935
 21
-6.773952
  0
ENDBLK
  0
BLOCK
  2
*GRP_0019
 70
    65
 10
0.0
 20
0.0
  0
INSERT
  2
*GRP_0035
  8
補助線
  6
CONTINUOUS
 10
0.0
 20
0.0
  0
LINE
  8
ボルト／ビス
  6
CONTINUOUS
 10
-40.755935
 20
-6.91829
 11
-41.005935
 21
-6.773952
  0
LINE
  8
ボルト／ビス
  6
CONTINUOUS
 10
-40.755935
 20
-6.91829
 11
-40.505935
 21
-6.773952
  0
LINE
  8
ボルト／ビス
  6
CONTINUOUS
 10
-41.005935
 20
-6.485278
 11
-40.755935
 21
-6.34094
  0
LINE
  8
ボルト／ビス
  6
CONTINUOUS
 10
-40.505935
 20
-6.485278
 11
-40.755935
 21
-6.34094
  0
CIRCLE
  8
ボルト／ビス
  6
CONTINUOUS
 10
-40.755935
 20
-6.629615
 40
0.25
  0
LINE
  8
ボルト／ビス
  6
CONTINUOUS
 10
-40.505935
 20
-6.773952
 11
-40.505935
 21
-6.485278
  0
LINE
  8
ボルト／ビス
  6
CONTINUOUS
 10
-41.005935
 20
-6.485278
 11
-41.005935
 21
-6.773952
  0
ENDBLK
  0
BLOCK
  2
*GRP_0020
 70
    65
 10
0.0
 20
0.0
  0
INSERT
  2
*GRP_0036
  8
補助線
  6
CONTINUOUS
 10
0.0
 20
0.0
  0
LINE
  8
ボルト／ビス
  6
CONTINUOUS
 10
-29.467263
 20
19.370383
 11
-29.6116
 21
19.620383
  0
LINE
  8
ボルト／ビス
  6
CONTINUOUS
 10
-29.467263
 20
19.370383
 11
-29.6116
 21
19.120383
  0
LINE
  8
ボルト／ビス
  6
CONTINUOUS
 10
-29.900275
 20
19.620383
 11
-30.044613
 21
19.370383
  0
LINE
  8
ボルト／ビス
  6
CONTINUOUS
 10
-29.900275
 20
19.120383
 11
-30.044613
 21
19.370383
  0
CIRCLE
  8
ボルト／ビス
  6
CONTINUOUS
 10
-29.755937
 20
19.370383
 40
0.25
  0
LINE
  8
ボルト／ビス
  6
CONTINUOUS
 10
-29.6116
 20
19.120383
 11
-29.900275
 21
19.120383
  0
LINE
  8
ボルト／ビス
  6
CONTINUOUS
 10
-29.900275
 20
19.620383
 11
-29.6116
 21
19.620383
  0
ENDBLK
  0
BLOCK
  2
*GRP_0021
 70
    65
 10
0.0
 20
0.0
  0
INSERT
  2
*GRP_0037
  8
補助線
  6
CONTINUOUS
 10
0.0
 20
0.0
  0
LINE
  8
ボルト／ビス
  6
CONTINUOUS
 10
-29.467263
 20
4.370383
 11
-29.6116
 21
4.620383
  0
LINE
  8
ボルト／ビス
  6
CONTINUOUS
 10
-29.467263
 20
4.370383
 11
-29.6116
 21
4.120383
  0
LINE
  8
ボルト／ビス
  6
CONTINUOUS
 10
-29.900275
 20
4.620383
 11
-30.044613
 21
4.370383
  0
LINE
  8
ボルト／ビス
  6
CONTINUOUS
 10
-29.900275
 20
4.120383
 11
-30.044613
 21
4.370383
  0
CIRCLE
  8
ボルト／ビス
  6
CONTINUOUS
 10
-29.755937
 20
4.370383
 40
0.25
  0
LINE
  8
ボルト／ビス
  6
CONTINUOUS
 10
-29.6116
 20
4.120383
 11
-29.900275
 21
4.120383
  0
LINE
  8
ボルト／ビス
  6
CONTINUOUS
 10
-29.900275
 20
4.620383
 11
-29.6116
 21
4.620383
  0
ENDBLK
  0
BLOCK
  2
*GRP_0022
 70
    65
 10
0.0
 20
0.0
  0
INSERT
  2
*GRP_0038
  8
補助線
  6
CONTINUOUS
 10
0.0
 20
0.0
  0
LINE
  8
ボルト／ビス
  6
CONTINUOUS
 10
-29.467263
 20
34.370383
 11
-29.6116
 21
34.120383
  0
LINE
  8
ボルト／ビス
  6
CONTINUOUS
 10
-29.467263
 20
34.370383
 11
-29.6116
 21
34.620383
  0
LINE
  8
ボルト／ビス
  6
CONTINUOUS
 10
-29.900275
 20
34.120383
 11
-30.044613
 21
34.370383
  0
LINE
  8
ボルト／ビス
  6
CONTINUOUS
 10
-29.900275
 20
34.620383
 11
-30.044613
 21
34.370383
  0
CIRCLE
  8
ボルト／ビス
  6
CONTINUOUS
 10
-29.755937
 20
34.370383
 40
0.25
  0
LINE
  8
ボルト／ビス
  6
CONTINUOUS
 10
-29.6116
 20
34.620383
 11
-29.900275
 21
34.620383
  0
LINE
  8
ボルト／ビス
  6
CONTINUOUS
 10
-29.900275
 20
34.120383
 11
-29.6116
 21
34.120383
  0
ENDBLK
  0
BLOCK
  2
*GRP_0023
 70
    65
 10
0.0
 20
0.0
  0
INSERT
  2
*GRP_0039
  8
補助線
  6
CONTINUOUS
 10
0.0
 20
0.0
  0
LINE
  8
ボルト／ビス
  6
CONTINUOUS
 10
-29.467263
 20
49.370383
 11
-29.6116
 21
49.120383
  0
LINE
  8
ボルト／ビス
  6
CONTINUOUS
 10
-29.467263
 20
49.370383
 11
-29.6116
 21
49.620383
  0
LINE
  8
ボルト／ビス
  6
CONTINUOUS
 10
-29.900275
 20
49.120383
 11
-30.044613
 21
49.370383
  0
LINE
  8
ボルト／ビス
  6
CONTINUOUS
 10
-29.900275
 20
49.620383
 11
-30.044613
 21
49.370383
  0
CIRCLE
  8
ボルト／ビス
  6
CONTINUOUS
 10
-29.755937
 20
49.370383
 40
0.25
  0
LINE
  8
ボルト／ビス
  6
CONTINUOUS
 10
-29.6116
 20
49.620383
 11
-29.900275
 21
49.620383
  0
LINE
  8
ボルト／ビス
  6
CONTINUOUS
 10
-29.900275
 20
49.120383
 11
-29.6116
 21
49.120383
  0
ENDBLK
  0
BLOCK
  2
*GRP_0024
 70
    65
 10
0.0
 20
0.0
  0
LINE
  8
補助線
  6
BYBLOCK
 62
     0
 10
-55.630937
 20
60.370383
 11
-55.880937
 21
60.370383
  0
LINE
  8
補助線
  6
BYBLOCK
 62
     0
 10
-55.755937
 20
60.495383
 11
-55.755937
 21
60.245383
  0
ENDBLK
  0
BLOCK
  2
*GRP_0025
 70
    65
 10
0.0
 20
0.0
  0
LINE
  8
補助線
  6
BYBLOCK
 62
     0
 10
-40.630937
 20
60.370383
 11
-40.880937
 21
60.370383
  0
LINE
  8
補助線
  6
BYBLOCK
 62
     0
 10
-40.755937
 20
60.495383
 11
-40.755937
 21
60.245383
  0
ENDBLK
  0
BLOCK
  2
*GRP_0026
 70
    65
 10
0.0
 20
0.0
  0
LINE
  8
補助線
  6
BYBLOCK
 62
     0
 10
-70.880937
 20
60.370383
 11
-70.630937
 21
60.370383
  0
LINE
  8
補助線
  6
BYBLOCK
 62
     0
 10
-70.755937
 20
60.495383
 11
-70.755937
 21
60.245383
  0
ENDBLK
  0
BLOCK
  2
*GRP_0027
 70
    65
 10
0.0
 20
0.0
  0
LINE
  8
補助線
  6
BYBLOCK
 62
     0
 10
-85.880937
 20
60.370383
 11
-85.630937
 21
60.370383
  0
LINE
  8
補助線
  6
BYBLOCK
 62
     0
 10
-85.755937
 20
60.495383
 11
-85.755937
 21
60.245383
  0
ENDBLK
  0
BLOCK
  2
*GRP_0028
 70
    65
 10
0.0
 20
0.0
  0
LINE
  8
補助線
  6
BYBLOCK
 62
     0
 10
-96.755935
 20
34.495385
 11
-96.755935
 21
34.245385
  0
LINE
  8
補助線
  6
BYBLOCK
 62
     0
 10
-96.880935
 20
34.370385
 11
-96.630935
 21
34.370385
  0
ENDBLK
  0
BLOCK
  2
*GRP_0029
 70
    65
 10
0.0
 20
0.0
  0
LINE
  8
補助線
  6
BYBLOCK
 62
     0
 10
-96.755935
 20
49.495385
 11
-96.755935
 21
49.245385
  0
LINE
  8
補助線
  6
BYBLOCK
 62
     0
 10
-96.880935
 20
49.370385
 11
-96.630935
 21
49.370385
  0
ENDBLK
  0
BLOCK
  2
*GRP_0030
 70
    65
 10
0.0
 20
0.0
  0
LINE
  8
補助線
  6
BYBLOCK
 62
     0
 10
-96.755935
 20
19.24538
 11
-96.755935
 21
19.49538
  0
LINE
  8
補助線
  6
BYBLOCK
 62
     0
 10
-96.880935
 20
19.37038
 11
-96.630935
 21
19.37038
  0
ENDBLK
  0
BLOCK
  2
*GRP_0031
 70
    65
 10
0.0
 20
0.0
  0
LINE
  8
補助線
  6
BYBLOCK
 62
     0
 10
-96.755935
 20
4.24538
 11
-96.755935
 21
4.49538
  0
LINE
  8
補助線
  6
BYBLOCK
 62
     0
 10
-96.880935
 20
4.37038
 11
-96.630935
 21
4.37038
  0
ENDBLK
  0
BLOCK
  2
*GRP_0032
 70
    65
 10
0.0
 20
0.0
  0
LINE
  8
補助線
  6
BYBLOCK
 62
     0
 10
-70.88094
 20
-6.629615
 11
-70.63094
 21
-6.629615
  0
LINE
  8
補助線
  6
BYBLOCK
 62
     0
 10
-70.75594
 20
-6.754615
 11
-70.75594
 21
-6.504615
  0
ENDBLK
  0
BLOCK
  2
*GRP_0033
 70
    65
 10
0.0
 20
0.0
  0
LINE
  8
補助線
  6
BYBLOCK
 62
     0
 10
-85.88094
 20
-6.629615
 11
-85.63094
 21
-6.629615
  0
LINE
  8
補助線
  6
BYBLOCK
 62
     0
 10
-85.75594
 20
-6.754615
 11
-85.75594
 21
-6.504615
  0
ENDBLK
  0
BLOCK
  2
*GRP_0034
 70
    65
 10
0.0
 20
0.0
  0
LINE
  8
補助線
  6
BYBLOCK
 62
     0
 10
-55.630935
 20
-6.629615
 11
-55.880935
 21
-6.629615
  0
LINE
  8
補助線
  6
BYBLOCK
 62
     0
 10
-55.755935
 20
-6.754615
 11
-55.755935
 21
-6.504615
  0
ENDBLK
  0
BLOCK
  2
*GRP_0035
 70
    65
 10
0.0
 20
0.0
  0
LINE
  8
補助線
  6
BYBLOCK
 62
     0
 10
-40.630935
 20
-6.629615
 11
-40.880935
 21
-6.629615
  0
LINE
  8
補助線
  6
BYBLOCK
 62
     0
 10
-40.755935
 20
-6.754615
 11
-40.755935
 21
-6.504615
  0
ENDBLK
  0
BLOCK
  2
*GRP_0036
 70
    65
 10
0.0
 20
0.0
  0
LINE
  8
補助線
  6
BYBLOCK
 62
     0
 10
-29.755937
 20
19.245383
 11
-29.755937
 21
19.495383
  0
LINE
  8
補助線
  6
BYBLOCK
 62
     0
 10
-29.630937
 20
19.370383
 11
-29.880937
 21
19.370383
  0
ENDBLK
  0
BLOCK
  2
*GRP_0037
 70
    65
 10
0.0
 20
0.0
  0
LINE
  8
補助線
  6
BYBLOCK
 62
     0
 10
-29.755937
 20
4.245383
 11
-29.755937
 21
4.495383
  0
LINE
  8
補助線
  6
BYBLOCK
 62
     0
 10
-29.630937
 20
4.370383
 11
-29.880937
 21
4.370383
  0
ENDBLK
  0
BLOCK
  2
*GRP_0038
 70
    65
 10
0.0
 20
0.0
  0
LINE
  8
補助線
  6
BYBLOCK
 62
     0
 10
-29.755937
 20
34.495383
 11
-29.755937
 21
34.245383
  0
LINE
  8
補助線
  6
BYBLOCK
 62
     0
 10
-29.630937
 20
34.370383
 11
-29.880937
 21
34.370383
  0
ENDBLK
  0
BLOCK
  2
*GRP_0039
 70
    65
 10
0.0
 20
0.0
  0
LINE
  8
補助線
  6
BYBLOCK
 62
     0
 10
-29.755937
 20
49.495383
 11
-29.755937
 21
49.245383
  0
LINE
  8
補助線
  6
BYBLOCK
 62
     0
 10
-29.630937
 20
49.370383
 11
-29.880937
 21
49.370383
  0
ENDBLK
  0
BLOCK
  2
*GRP_0040
 70
    65
 10
0.0
 20
0.0
  0
LINE
  8
ボルト／ビス
  6
CONTINUOUS
 10
-29.755937
 20
-70.319875
 11
-29.755937
 21
-69.619873
  0
LINE
  8
ボルト／ビス
  6
CONTINUOUS
 10
-29.205935
 20
-70.319875
 11
-29.205935
 21
-70.219873
  0
LINE
  8
ボルト／ビス
  6
CONTINUOUS
 10
-29.205935
 20
-70.219873
 11
-30.305937
 21
-70.219873
  0
LINE
  8
ボルト／ビス
  6
CONTINUOUS
 10
-30.305937
 20
-70.219873
 11
-30.305937
 21
-70.319875
  0
LINE
  8
ボルト／ビス
  6
CONTINUOUS
 10
-29.205935
 20
-70.319875
 11
-30.305937
 21
-70.319875
  0
LINE
  8
ボルト／ビス
  6
CONTINUOUS
 10
-29.305937
 20
-70.169875
 11
-29.305937
 21
-70.219873
  0
LINE
  8
ボルト／ビス
  6
CONTINUOUS
 10
-29.305937
 20
-70.169875
 11
-30.205937
 21
-70.169875
  0
LINE
  8
ボルト／ビス
  6
CONTINUOUS
 10
-30.205937
 20
-70.169875
 11
-30.205937
 21
-70.219873
  0
LINE
  8
ボルト／ビス
  6
CONTINUOUS
 62
    64
 10
-29.515375
 20
-69.869875
 11
-29.467263
 21
-69.887388
  0
ARC
  8
ボルト／ビス
  6
CONTINUOUS
 62
    64
 10
-29.53943
 20
-70.027343
 40
0.157468
 50
90.0
 51
117.278033
  0
ARC
  8
ボルト／ビス
  6
CONTINUOUS
 62
    64
 10
-29.755937
 20
-70.473479
 40
0.603603
 50
76.165015
 51
103.834998
  0
LINE
  8
ボルト／ビス
  6
CONTINUOUS
 62
    64
 10
-29.9965
 20
-69.869875
 11
-30.044613
 21
-69.887388
  0
ARC
  8
ボルト／ビス
  6
CONTINUOUS
 62
    64
 10
-29.972443
 20
-70.027343
 40
0.157468
 50
62.721967
 51
90.0
  0
LINE
  8
ボルト／ビス
  6
CONTINUOUS
 62
    64
 10
-29.515375
 20
-69.869875
 11
-29.9965
 21
-69.869875
  0
LINE
  8
ボルト／ビス
  6
CONTINUOUS
 62
    64
 10
-30.044613
 20
-69.887388
 11
-30.044613
 21
-70.069873
  0
LINE
  8
ボルト／ビス
  6
CONTINUOUS
 62
    64
 10
-29.900275
 20
-69.887388
 11
-29.900275
 21
-70.069873
  0
LINE
  8
ボルト／ビス
  6
CONTINUOUS
 62
    64
 10
-29.467263
 20
-69.887388
 11
-29.467263
 21
-70.069873
  0
LINE
  8
ボルト／ビス
  6
CONTINUOUS
 62
    64
 10
-29.6116
 20
-69.887388
 11
-29.6116
 21
-70.069873
  0
LINE
  8
ボルト／ビス
  6
CONTINUOUS
 10
-29.467263
 20
-70.069873
 11
-30.044613
 21
-70.069873
  0
LINE
  8
ボルト／ビス
  6
CONTINUOUS
 10
-29.455937
 20
-70.069873
 11
-29.455937
 21
-70.169875
  0
LINE
  8
ボルト／ビス
  6
CONTINUOUS
 10
-29.455937
 20
-70.069873
 11
-30.055937
 21
-70.069873
  0
LINE
  8
ボルト／ビス
  6
CONTINUOUS
 10
-30.055937
 20
-70.069873
 11
-30.055937
 21
-70.169875
  0
ENDBLK
  0
BLOCK
  2
*GRP_0041
 70
    65
 10
0.0
 20
0.0
  0
LINE
  8
ボルト／ビス
  6
CONTINUOUS
 10
-96.755943
 20
-70.319875
 11
-96.755943
 21
-69.619873
  0
LINE
  8
ボルト／ビス
  6
CONTINUOUS
 10
-97.305945
 20
-70.319875
 11
-97.305945
 21
-70.219873
  0
LINE
  8
ボルト／ビス
  6
CONTINUOUS
 10
-97.305945
 20
-70.219873
 11
-96.205943
 21
-70.219873
  0
LINE
  8
ボルト／ビス
  6
CONTINUOUS
 10
-96.205943
 20
-70.219873
 11
-96.205943
 21
-70.319875
  0
LINE
  8
ボルト／ビス
  6
CONTINUOUS
 10
-97.305945
 20
-70.319875
 11
-96.205943
 21
-70.319875
  0
LINE
  8
ボルト／ビス
  6
CONTINUOUS
 10
-97.205943
 20
-70.169875
 11
-97.205943
 21
-70.219873
  0
LINE
  8
ボルト／ビス
  6
CONTINUOUS
 10
-97.205943
 20
-70.169875
 11
-96.305943
 21
-70.169875
  0
LINE
  8
ボルト／ビス
  6
CONTINUOUS
 10
-96.305943
 20
-70.169875
 11
-96.305943
 21
-70.219873
  0
LINE
  8
ボルト／ビス
  6
CONTINUOUS
 62
    64
 10
-96.996505
 20
-69.869875
 11
-97.044618
 21
-69.887388
  0
ARC
  8
ボルト／ビス
  6
CONTINUOUS
 62
    64
 10
-96.972451
 20
-70.027343
 40
0.157468
 50
62.721967
 51
90.0
  0
ARC
  8
ボルト／ビス
  6
CONTINUOUS
 62
    64
 10
-96.755945
 20
-70.473479
 40
0.603603
 50
76.165002
 51
103.834985
  0
LINE
  8
ボルト／ビス
  6
CONTINUOUS
 62
    64
 10
-96.51538
 20
-69.869875
 11
-96.467267
 21
-69.887388
  0
ARC
  8
ボルト／ビス
  6
CONTINUOUS
 62
    64
 10
-96.539439
 20
-70.027343
 40
0.157468
 50
90.0
 51
117.278033
  0
LINE
  8
ボルト／ビス
  6
CONTINUOUS
 62
    64
 10
-96.996505
 20
-69.869875
 11
-96.51538
 21
-69.869875
  0
LINE
  8
ボルト／ビス
  6
CONTINUOUS
 62
    64
 10
-96.467267
 20
-69.887388
 11
-96.467267
 21
-70.069873
  0
LINE
  8
ボルト／ビス
  6
CONTINUOUS
 62
    64
 10
-96.611605
 20
-69.887388
 11
-96.611605
 21
-70.069873
  0
LINE
  8
ボルト／ビス
  6
CONTINUOUS
 62
    64
 10
-97.044618
 20
-69.887388
 11
-97.044618
 21
-70.069873
  0
LINE
  8
ボルト／ビス
  6
CONTINUOUS
 62
    64
 10
-96.90028
 20
-69.887388
 11
-96.90028
 21
-70.069873
  0
LINE
  8
ボルト／ビス
  6
CONTINUOUS
 10
-97.044618
 20
-70.069873
 11
-96.467267
 21
-70.069873
  0
LINE
  8
ボルト／ビス
  6
CONTINUOUS
 10
-97.055943
 20
-70.069873
 11
-97.055943
 21
-70.169875
  0
LINE
  8
ボルト／ビス
  6
CONTINUOUS
 10
-97.055943
 20
-70.069873
 11
-96.455943
 21
-70.069873
  0
LINE
  8
ボルト／ビス
  6
CONTINUOUS
 10
-96.455943
 20
-70.069873
 11
-96.455943
 21
-70.169875
  0
ENDBLK
  0
BLOCK
  2
*GRP_0042
 70
    65
 10
0.0
 20
0.0
  0
INSERT
  2
*GRP_0043
  8
補助線
  6
CONTINUOUS
 10
0.0
 20
0.0
  0
CIRCLE
  8
別途部材
  6
CONTINUOUS
 10
-97.55596
 20
-74.81993
 40
0.3
  0
CIRCLE
  8
別途部材
  6
CONTINUOUS
 10
-97.55596
 20
-74.81993
 40
0.15
  0
LINE
  8
別途部材
  6
CONTINUOUS
 10
-97.40596
 20
-72.71993
 11
-97.25596
 21
-72.71993
  0
LINE
  8
別途部材
  6
CONTINUOUS
 10
-97.25596
 20
-74.81993
 11
-97.25596
 21
-72.71993
  0
LINE
  8
別途部材
  6
CONTINUOUS
 10
-97.40596
 20
-72.71993
 11
-97.40596
 21
-74.560123
  0
LINE
  8
別途部材
  6
CONTINUOUS
 10
-97.40596
 20
-76.91993
 11
-97.25596
 21
-76.91993
  0
LINE
  8
別途部材
  6
CONTINUOUS
 10
-97.25596
 20
-74.81993
 11
-97.25596
 21
-76.91993
  0
LINE
  8
別途部材
  6
CONTINUOUS
 10
-97.40596
 20
-76.91993
 11
-97.40596
 21
-75.079738
  0
LINE
  8
別途部材
  6
CONTINUOUS
 10
-97.40596
 20
-73.119927
 11
-97.25596
 21
-73.119927
  0
LINE
  8
別途部材
  6
CONTINUOUS
 10
-97.40596
 20
-73.519927
 11
-97.25596
 21
-73.519927
  0
LINE
  8
別途部材
  6
CONTINUOUS
 10
-97.40596
 20
-73.91993
 11
-97.25596
 21
-73.91993
  0
LINE
  8
別途部材
  6
CONTINUOUS
 10
-97.40596
 20
-76.519927
 11
-97.25596
 21
-76.519927
  0
LINE
  8
別途部材
  6
CONTINUOUS
 10
-97.40596
 20
-76.119927
 11
-97.25596
 21
-76.119927
  0
LINE
  8
別途部材
  6
CONTINUOUS
 10
-97.40596
 20
-75.71993
 11
-97.25596
 21
-75.71993
  0
ENDBLK
  0
BLOCK
  2
*GRP_0043
 70
    65
 10
0.0
 20
0.0
  0
LINE
  8
補助線
  6
BYBLOCK
 62
     0
 10
-97.30596
 20
-74.81993
 11
-97.80596
 21
-74.81993
  0
LINE
  8
補助線
  6
BYBLOCK
 62
     0
 10
-97.55596
 20
-74.569927
 11
-97.55596
 21
-75.069927
  0
ENDBLK
  0
BLOCK
  2
*DIM_0044
 70
    65
 10
0.0
 20
0.0
  0
LINE
  8
寸法
  6
CONTINUOUS
 10
-27.255937
 20
-70.319873
 11
-10.143282
 21
-70.319873
  0
LINE
  8
寸法
  6
CONTINUOUS
 10
-28.255915
 20
-78.569873
 11
-10.143282
 21
-78.569873
  0
LINE
  8
寸法
  6
CONTINUOUS
 10
-10.143282
 20
-70.319873
 11
-10.143282
 21
-78.569873
  0
POINT
  8
寸法
 10
-10.143282
 20
-70.319873
  0
POINT
  8
寸法
 10
-10.143282
 20
-78.569873
  0
TEXT
  7
TextStyle03
  8
寸法
  6
CONTINUOUS
 10
-10.525
 20
-76.8875
  1
165
 40
3.0
 50
90.0
 72
     5
 11
-10.525
 21
-72.0125
  0
ENDBLK
  0
BLOCK
  2
*DIM_0045
 70
    65
 10
0.0
 20
0.0
  0
LINE
  8
寸法
  6
CONTINUOUS
 10
-20.005915
 20
-83.069873
 11
-10.143282
 21
-83.069873
  0
LINE
  8
寸法
  6
CONTINUOUS
 10
-10.143282
 20
-78.569873
 11
-10.143282
 21
-83.069873
  0
POINT
  8
寸法
 10
-10.143282
 20
-83.069873
  0
TEXT
  7
TextStyle03
  8
寸法
  6
CONTINUOUS
 10
-10.525
 20
-82.325
  1
※
 40
3.0
 50
90.0
 72
     5
 11
-10.525
 21
-79.325
  0
ENDBLK
  0
BLOCK
  2
*DIM_0046
 70
    65
 10
0.0
 20
0.0
  0
LINE
  8
寸法
  6
CONTINUOUS
 10
-21.005915
 20
-78.569875
 11
-21.005915
 21
-33.416065
  0
LINE
  8
寸法
  6
CONTINUOUS
 10
-30.755937
 20
-33.416065
 11
-21.005915
 21
-33.416065
  0
POINT
  8
寸法
 10
-30.755937
 20
-33.416065
  0
POINT
  8
寸法
 10
-21.005915
 20
-33.416065
  0
TEXT
  7
TextStyle03
  8
寸法
  6
CONTINUOUS
 10
-27.4
 20
-33.05
  1
※
 40
3.0
 72
     5
 11
-24.4
 21
-33.05
  0
ENDBLK
  0
BLOCK
  2
*DIM_0047
 70
    65
 10
0.0
 20
0.0
  0
LINE
  8
寸法
  6
CONTINUOUS
 10
-105.50596
 20
-78.569875
 11
-105.50596
 21
-33.416065
  0
LINE
  8
寸法
  6
CONTINUOUS
 10
-95.755937
 20
-33.416065
 11
-105.50596
 21
-33.416065
  0
POINT
  8
寸法
 10
-95.755937
 20
-33.416065
  0
POINT
  8
寸法
 10
-105.50596
 20
-33.416065
  0
TEXT
  7
TextStyle03
  8
寸法
  6
CONTINUOUS
 10
-102.15
 20
-33.05
  1
※
 40
3.0
 72
     5
 11
-99.15
 21
-33.05
  0
ENDBLK
  0
BLOCK
  2
*GRP_0048
 70
    65
 10
0.0
 20
0.0
  0
LINE
  8
型材断面
  6
DOT
 62
    47
 10
112.805983
 20
-24.403145
 11
114.821277
 21
-26.41844
  0
LINE
  8
型材断面
  6
DOT
 62
    47
 10
64.722688
 20
-72.486438
 11
66.737983
 21
-74.501732
  0
LINE
  8
型材断面
  6
DOT
 10
114.821277
 20
-26.41844
 11
66.737983
 21
-74.501732
  0
LINE
  8
別途部材
  6
DOT
 62
    96
 10
112.452412
 20
-22.635393
 11
113.937337
 21
-23.27179
  0
ARC
  8
別途部材
  6
DOT
 10
102.855965
 20
-62.53642
 40
38.928572
 50
78.39849
 51
191.60151
  0
INSERT
  2
*GRP_0052
  8
別途部材
  6
DOT
 10
0.0
 20
0.0
  0
LINE
  8
別途部材
  6
DOT
 62
    96
 10
62.954935
 20
-72.13287
 11
63.59133
 21
-73.617795
  0
INSERT
  2
*GRP_0053
  8
別途部材
  6
DOT
 10
0.0
 20
0.0
  0
LINE
  8
別途部材
  6
DOT
 10
113.937337
 20
-23.27179
 11
63.59133
 21
-73.617795
  0
LINE
  8
別途部材
  6
DOT
 62
    96
 10
112.452412
 20
-22.635393
 11
62.954935
 21
-72.13287
  0
ENDBLK
  0
BLOCK
  2
*GRP_0049
 70
    65
 10
0.0
 20
0.0
  0
LINE
  8
ボルト／ビス
  6
CONTINUOUS
 10
134.43194
 20
-70.319875
 11
134.43194
 21
-69.619873
  0
LINE
  8
ボルト／ビス
  6
CONTINUOUS
 10
134.981942
 20
-70.319875
 11
134.981942
 21
-70.219873
  0
LINE
  8
ボルト／ビス
  6
CONTINUOUS
 10
134.981942
 20
-70.219873
 11
133.88194
 21
-70.219873
  0
LINE
  8
ボルト／ビス
  6
CONTINUOUS
 10
133.88194
 20
-70.219873
 11
133.88194
 21
-70.319875
  0
LINE
  8
ボルト／ビス
  6
CONTINUOUS
 10
134.981942
 20
-70.319875
 11
133.88194
 21
-70.319875
  0
LINE
  8
ボルト／ビス
  6
CONTINUOUS
 10
134.88194
 20
-70.169875
 11
134.88194
 21
-70.219873
  0
LINE
  8
ボルト／ビス
  6
CONTINUOUS
 10
134.88194
 20
-70.169875
 11
133.98194
 21
-70.169875
  0
LINE
  8
ボルト／ビス
  6
CONTINUOUS
 10
133.98194
 20
-70.169875
 11
133.98194
 21
-70.219873
  0
LINE
  8
ボルト／ビス
  6
CONTINUOUS
 62
    64
 10
134.672502
 20
-69.869875
 11
134.720615
 21
-69.887388
  0
ARC
  8
ボルト／ビス
  6
CONTINUOUS
 62
    64
 10
134.648449
 20
-70.027344
 40
0.157468
 50
90.0
 51
117.278033
  0
ARC
  8
ボルト／ビス
  6
CONTINUOUS
 62
    64
 10
134.431942
 20
-70.47348
 40
0.603603
 50
76.165015
 51
103.834998
  0
LINE
  8
ボルト／ビス
  6
CONTINUOUS
 62
    64
 10
134.191378
 20
-69.869875
 11
134.143265
 21
-69.887388
  0
ARC
  8
ボルト／ビス
  6
CONTINUOUS
 62
    64
 10
134.215436
 20
-70.027344
 40
0.157468
 50
62.721967
 51
90.0
  0
LINE
  8
ボルト／ビス
  6
CONTINUOUS
 62
    64
 10
134.672502
 20
-69.869875
 11
134.191378
 21
-69.869875
  0
LINE
  8
ボルト／ビス
  6
CONTINUOUS
 62
    64
 10
134.143265
 20
-69.887388
 11
134.143265
 21
-70.069873
  0
LINE
  8
ボルト／ビス
  6
CONTINUOUS
 62
    64
 10
134.287602
 20
-69.887388
 11
134.287602
 21
-70.069873
  0
LINE
  8
ボルト／ビス
  6
CONTINUOUS
 62
    64
 10
134.720615
 20
-69.887388
 11
134.720615
 21
-70.069873
  0
LINE
  8
ボルト／ビス
  6
CONTINUOUS
 62
    64
 10
134.576277
 20
-69.887388
 11
134.576277
 21
-70.069873
  0
LINE
  8
ボルト／ビス
  6
CONTINUOUS
 10
134.720615
 20
-70.069873
 11
134.143265
 21
-70.069873
  0
LINE
  8
ボルト／ビス
  6
CONTINUOUS
 10
134.73194
 20
-70.069873
 11
134.73194
 21
-70.169875
  0
LINE
  8
ボルト／ビス
  6
CONTINUOUS
 10
134.73194
 20
-70.069873
 11
134.13194
 21
-70.069873
  0
LINE
  8
ボルト／ビス
  6
CONTINUOUS
 10
134.13194
 20
-70.069873
 11
134.13194
 21
-70.169875
  0
ENDBLK
  0
BLOCK
  2
*GRP_0050
 70
    65
 10
0.0
 20
0.0
  0
LINE
  8
ボルト／ビス
  6
CONTINUOUS
 10
67.431935
 20
-70.319875
 11
67.431935
 21
-69.619873
  0
LINE
  8
ボルト／ビス
  6
CONTINUOUS
 10
66.881933
 20
-70.319875
 11
66.881933
 21
-70.219873
  0
LINE
  8
ボルト／ビス
  6
CONTINUOUS
 10
66.881933
 20
-70.219873
 11
67.981935
 21
-70.219873
  0
LINE
  8
ボルト／ビス
  6
CONTINUOUS
 10
67.981935
 20
-70.219873
 11
67.981935
 21
-70.319875
  0
LINE
  8
ボルト／ビス
  6
CONTINUOUS
 10
66.881933
 20
-70.319875
 11
67.981935
 21
-70.319875
  0
LINE
  8
ボルト／ビス
  6
CONTINUOUS
 10
66.981935
 20
-70.169875
 11
66.981935
 21
-70.219873
  0
LINE
  8
ボルト／ビス
  6
CONTINUOUS
 10
66.981935
 20
-70.169875
 11
67.881935
 21
-70.169875
  0
LINE
  8
ボルト／ビス
  6
CONTINUOUS
 10
67.881935
 20
-70.169875
 11
67.881935
 21
-70.219873
  0
LINE
  8
ボルト／ビス
  6
CONTINUOUS
 62
    64
 10
67.191373
 20
-69.869875
 11
67.14326
 21
-69.887388
  0
ARC
  8
ボルト／ビス
  6
CONTINUOUS
 62
    64
 10
67.215428
 20
-70.027344
 40
0.157468
 50
62.721967
 51
90.0
  0
ARC
  8
ボルト／ビス
  6
CONTINUOUS
 62
    64
 10
67.431934
 20
-70.47348
 40
0.603603
 50
76.165002
 51
103.834985
  0
LINE
  8
ボルト／ビス
  6
CONTINUOUS
 62
    64
 10
67.672497
 20
-69.869875
 11
67.72061
 21
-69.887388
  0
ARC
  8
ボルト／ビス
  6
CONTINUOUS
 62
    64
 10
67.64844
 20
-70.027344
 40
0.157468
 50
90.0
 51
117.278033
  0
LINE
  8
ボルト／ビス
  6
CONTINUOUS
 62
    64
 10
67.191373
 20
-69.869875
 11
67.672497
 21
-69.869875
  0
LINE
  8
ボルト／ビス
  6
CONTINUOUS
 62
    64
 10
67.72061
 20
-69.887388
 11
67.72061
 21
-70.069873
  0
LINE
  8
ボルト／ビス
  6
CONTINUOUS
 62
    64
 10
67.576273
 20
-69.887388
 11
67.576273
 21
-70.069873
  0
LINE
  8
ボルト／ビス
  6
CONTINUOUS
 62
    64
 10
67.14326
 20
-69.887388
 11
67.14326
 21
-70.069873
  0
LINE
  8
ボルト／ビス
  6
CONTINUOUS
 62
    64
 10
67.287598
 20
-69.887388
 11
67.287598
 21
-70.069873
  0
LINE
  8
ボルト／ビス
  6
CONTINUOUS
 10
67.14326
 20
-70.069873
 11
67.72061
 21
-70.069873
  0
LINE
  8
ボルト／ビス
  6
CONTINUOUS
 10
67.131935
 20
-70.069873
 11
67.131935
 21
-70.169875
  0
LINE
  8
ボルト／ビス
  6
CONTINUOUS
 10
67.131935
 20
-70.069873
 11
67.731935
 21
-70.069873
  0
LINE
  8
ボルト／ビス
  6
CONTINUOUS
 10
67.731935
 20
-70.069873
 11
67.731935
 21
-70.169875
  0
ENDBLK
  0
BLOCK
  2
*GRP_0051
 70
    65
 10
0.0
 20
0.0
  0
INSERT
  2
*GRP_0054
  8
補助線
  6
CONTINUOUS
 10
0.0
 20
0.0
  0
CIRCLE
  8
別途部材
  6
CONTINUOUS
 10
66.631918
 20
-74.81993
 40
0.3
  0
CIRCLE
  8
別途部材
  6
CONTINUOUS
 10
66.631918
 20
-74.81993
 40
0.15
  0
LINE
  8
別途部材
  6
CONTINUOUS
 10
66.781918
 20
-72.71993
 11
66.931918
 21
-72.71993
  0
LINE
  8
別途部材
  6
CONTINUOUS
 10
66.931918
 20
-74.81993
 11
66.931918
 21
-72.71993
  0
LINE
  8
別途部材
  6
CONTINUOUS
 10
66.781918
 20
-72.71993
 11
66.781918
 21
-74.560123
  0
LINE
  8
別途部材
  6
CONTINUOUS
 10
66.781918
 20
-76.91993
 11
66.931918
 21
-76.91993
  0
LINE
  8
別途部材
  6
CONTINUOUS
 10
66.931918
 20
-74.81993
 11
66.931918
 21
-76.91993
  0
LINE
  8
別途部材
  6
CONTINUOUS
 10
66.781918
 20
-76.91993
 11
66.781918
 21
-75.079738
  0
LINE
  8
別途部材
  6
CONTINUOUS
 10
66.781918
 20
-73.119927
 11
66.931918
 21
-73.119927
  0
LINE
  8
別途部材
  6
CONTINUOUS
 10
66.781918
 20
-73.519927
 11
66.931918
 21
-73.519927
  0
LINE
  8
別途部材
  6
CONTINUOUS
 10
66.781918
 20
-73.91993
 11
66.931918
 21
-73.91993
  0
LINE
  8
別途部材
  6
CONTINUOUS
 10
66.781918
 20
-76.519927
 11
66.931918
 21
-76.519927
  0
LINE
  8
別途部材
  6
CONTINUOUS
 10
66.781918
 20
-76.119927
 11
66.931918
 21
-76.119927
  0
LINE
  8
別途部材
  6
CONTINUOUS
 10
66.781918
 20
-75.71993
 11
66.931918
 21
-75.71993
  0
ENDBLK
  0
BLOCK
  2
*GRP_0052
 70
    65
 10
0.0
 20
0.0
  0
LINE
  8
ボルト／ビス
  6
DOT
 10
111.391755
 20
-23.696055
 11
110.896777
 21
-23.201077
  0
LINE
  8
ボルト／ビス
  6
DOT
 10
111.780665
 20
-23.307145
 11
111.709952
 21
-23.236432
  0
LINE
  8
ボルト／ビス
  6
DOT
 10
111.709952
 20
-23.236432
 11
110.932133
 21
-24.01425
  0
LINE
  8
ボルト／ビス
  6
DOT
 10
110.932133
 20
-24.01425
 11
111.002845
 21
-24.084962
  0
LINE
  8
ボルト／ビス
  6
DOT
 10
111.780665
 20
-23.307145
 11
111.002845
 21
-24.084962
  0
LINE
  8
ボルト／ビス
  6
DOT
 10
111.603885
 20
-23.27179
 11
111.63924
 21
-23.307145
  0
LINE
  8
ボルト／ビス
  6
DOT
 10
111.603885
 20
-23.27179
 11
110.96749
 21
-23.908187
  0
LINE
  8
ボルト／ビス
  6
DOT
 10
110.96749
 20
-23.908187
 11
111.002843
 21
-23.94354
  0
LINE
  8
ボルト／ビス
  6
DOT
 62
    64
 10
111.24366
 20
-23.207752
 11
111.290063
 21
-23.186115
  0
ARC
  8
ボルト／ビス
  6
DOT
 62
    64
 10
111.337999
 20
-23.336111
 40
0.157468
 50
135.0
 51
162.278033
  0
ARC
  8
ボルト／ビス
  6
DOT
 62
    64
 10
111.500371
 20
-23.80467
 40
0.603603
 50
121.165015
 51
148.834998
  0
LINE
  8
ボルト／ビス
  6
DOT
 62
    64
 10
110.903452
 20
-23.54796
 11
110.881815
 21
-23.594365
  0
ARC
  8
ボルト／ビス
  6
DOT
 62
    64
 10
111.031812
 20
-23.642297
 40
0.157468
 50
107.721967
 51
135.0
  0
LINE
  8
ボルト／ビス
  6
DOT
 62
    64
 10
111.24366
 20
-23.207752
 11
110.903452
 21
-23.54796
  0
LINE
  8
ボルト／ビス
  6
DOT
 62
    64
 10
110.881815
 20
-23.594365
 11
111.010852
 21
-23.7234
  0
LINE
  8
ボルト／ビス
  6
DOT
 62
    64
 10
110.983878
 20
-23.492303
 11
111.112912
 21
-23.621338
  0
LINE
  8
ボルト／ビス
  6
DOT
 62
    64
 10
111.290063
 20
-23.186115
 11
111.4191
 21
-23.315153
  0
LINE
  8
ボルト／ビス
  6
DOT
 62
    64
 10
111.188
 20
-23.288177
 11
111.317037
 21
-23.417215
  0
LINE
  8
ボルト／ビス
  6
DOT
 10
111.4191
 20
-23.315153
 11
111.010852
 21
-23.7234
  0
LINE
  8
ボルト／ビス
  6
DOT
 10
111.427108
 20
-23.307145
 11
111.49782
 21
-23.377858
  0
LINE
  8
ボルト／ビス
  6
DOT
 10
111.427108
 20
-23.307145
 11
111.002843
 21
-23.731408
  0
LINE
  8
ボルト／ビス
  6
DOT
 10
111.002843
 20
-23.731408
 11
111.073555
 21
-23.80212
  0
ENDBLK
  0
BLOCK
  2
*GRP_0053
 70
    65
 10
0.0
 20
0.0
  0
LINE
  8
ボルト／ビス
  6
DOT
 10
64.015595
 20
-71.072213
 11
63.52062
 21
-70.577237
  0
LINE
  8
ボルト／ビス
  6
DOT
 10
63.626685
 20
-71.461122
 11
63.555972
 21
-71.39041
  0
LINE
  8
ボルト／ビス
  6
DOT
 10
63.555972
 20
-71.39041
 11
64.333792
 21
-70.612593
  0
LINE
  8
ボルト／ビス
  6
DOT
 10
64.333792
 20
-70.612593
 11
64.404505
 21
-70.683305
  0
LINE
  8
ボルト／ビス
  6
DOT
 10
63.626685
 20
-71.461122
 11
64.404505
 21
-70.683305
  0
LINE
  8
ボルト／ビス
  6
DOT
 10
63.591332
 20
-71.284345
 11
63.626685
 21
-71.319697
  0
LINE
  8
ボルト／ビス
  6
DOT
 10
63.591332
 20
-71.284345
 11
64.227728
 21
-70.647948
  0
LINE
  8
ボルト／ビス
  6
DOT
 10
64.227728
 20
-70.647948
 11
64.263083
 21
-70.683302
  0
LINE
  8
ボルト／ビス
  6
DOT
 62
    64
 10
63.527295
 20
-70.924118
 11
63.505658
 21
-70.970522
  0
ARC
  8
ボルト／ビス
  6
DOT
 62
    64
 10
63.655652
 20
-71.018458
 40
0.157468
 50
107.721967
 51
135.0
  0
ARC
  8
ボルト／ビス
  6
DOT
 62
    64
 10
64.124211
 20
-71.18083
 40
0.603603
 50
121.165002
 51
148.834985
  0
LINE
  8
ボルト／ビス
  6
DOT
 62
    64
 10
63.8675
 20
-70.583913
 11
63.913905
 21
-70.562275
  0
ARC
  8
ボルト／ビス
  6
DOT
 62
    64
 10
63.961838
 20
-70.712271
 40
0.157468
 50
135.0
 51
162.278033
  0
LINE
  8
ボルト／ビス
  6
DOT
 62
    64
 10
63.527295
 20
-70.924118
 11
63.8675
 21
-70.583913
  0
LINE
  8
ボルト／ビス
  6
DOT
 62
    64
 10
63.913905
 20
-70.562275
 11
64.042943
 21
-70.69131
  0
LINE
  8
ボルト／ビス
  6
DOT
 62
    64
 10
63.811843
 20
-70.664335
 11
63.94088
 21
-70.793372
  0
LINE
  8
ボルト／ビス
  6
DOT
 62
    64
 10
63.505658
 20
-70.970522
 11
63.634692
 21
-71.099557
  0
LINE
  8
ボルト／ビス
  6
DOT
 62
    64
 10
63.60772
 20
-70.86846
 11
63.736755
 21
-70.997498
  0
LINE
  8
ボルト／ビス
  6
DOT
 10
63.634692
 20
-71.099557
 11
64.042943
 21
-70.69131
  0
LINE
  8
ボルト／ビス
  6
DOT
 10
63.626685
 20
-71.107568
 11
63.697398
 21
-71.17828
  0
LINE
  8
ボルト／ビス
  6
DOT
 10
63.626685
 20
-71.107568
 11
64.05095
 21
-70.683302
  0
LINE
  8
ボルト／ビス
  6
DOT
 10
64.05095
 20
-70.683302
 11
64.121662
 21
-70.754015
  0
ENDBLK
  0
BLOCK
  2
*GRP_0054
 70
    65
 10
0.0
 20
0.0
  0
LINE
  8
補助線
  6
BYBLOCK
 62
     0
 10
66.881918
 20
-74.81993
 11
66.381918
 21
-74.81993
  0
LINE
  8
補助線
  6
BYBLOCK
 62
     0
 10
66.631918
 20
-74.569927
 11
66.631918
 21
-75.069927
  0
ENDBLK
  0
BLOCK
  2
*DIM_0055
 70
    65
 10
0.0
 20
0.0
  0
LINE
  8
寸法
  6
CONTINUOUS
 10
170.304785
 20
75.557477
 11
179.67738
 21
75.557477
  0
LINE
  8
寸法
  6
CONTINUOUS
 10
170.304785
 20
10.557477
 11
179.67738
 21
10.557477
  0
LINE
  8
寸法
  6
CONTINUOUS
 10
179.67738
 20
75.557477
 11
179.67738
 21
10.557477
  0
POINT
  8
寸法
 10
179.67738
 20
75.557477
  0
POINT
  8
寸法
 10
179.67738
 20
10.557477
  0
TEXT
  7
TextStyle03
  8
寸法
  6
CONTINUOUS
 10
179.3
 20
39.76875
  1
1300
 40
3.0
 50
90.0
 72
     5
 11
179.3
 21
46.33125
  0
ENDBLK
  0
BLOCK
  2
*DIM_0056
 70
    65
 10
0.0
 20
0.0
  0
LINE
  8
寸法
  6
CONTINUOUS
 10
102.304785
 20
78.557477
 11
102.304785
 21
86.054365
  0
LINE
  8
寸法
  6
CONTINUOUS
 10
167.304785
 20
78.557477
 11
167.304785
 21
86.054365
  0
LINE
  8
寸法
  6
CONTINUOUS
 10
102.304785
 20
86.054365
 11
167.304785
 21
86.054365
  0
POINT
  8
寸法
 10
102.304785
 20
86.054365
  0
POINT
  8
寸法
 10
167.304785
 20
86.054365
  0
TEXT
  7
TextStyle03
  8
寸法
  6
CONTINUOUS
 10
131.51875
 20
86.425
  1
1300
 40
3.0
 72
     5
 11
138.08125
 21
86.425
  0
ENDBLK
  0
ENDSEC
  0
SECTION
  2
ENTITIES
  0
POLYLINE
  8
通り芯
  6
CONTINUOUS
 66
     1
 70
     1
  0
VERTEX
  8
通り芯
 10
-210.0
 20
-148.5
  0
VERTEX
  8
通り芯
 10
210.0
 20
-148.5
  0
VERTEX
  8
通り芯
 10
210.0
 20
148.5
  0
VERTEX
  8
通り芯
 10
-210.0
 20
148.5
  0
SEQEND
  0
INSERT
  2
*GRP_0001
  8
型材断面
  6
CONTINUOUS
 10
0.0
 20
0.0
  0
LINE
  8
型材断面
  6
CONTINUOUS
 10
4.930422
 20
-11.415415
 11
2.686977
 21
-15.301175
  0
LINE
  8
型材断面
  6
CONTINUOUS
 10
4.930422
 20
-11.415415
 11
7.173868
 21
-15.301175
  0
LINE
  8
型材断面
  6
CONTINUOUS
 10
7.173868
 20
-15.301175
 11
2.686977
 21
-15.301175
  0
LINE
  8
型材断面
  6
CONTINUOUS
 10
4.930422
 20
-19.104962
 11
5.824508
 21
-22.990722
  0
LINE
  8
型材断面
  6
CONTINUOUS
 10
4.930422
 20
-19.104962
 11
4.036338
 21
-22.990722
  0
LINE
  8
型材断面
  6
CONTINUOUS
 10
4.036338
 20
-22.990722
 11
5.824508
 21
-22.990722
  0
LINE
  8
型材断面
  6
CONTINUOUS
 10
-4.103457
 20
-16.709068
 11
48.553223
 21
-16.709068
  0
LINE
  8
型材断面
  6
CONTINUOUS
 10
-4.103457
 20
-27.90906
 11
48.553223
 21
-27.90906
  0
LINE
  8
型材断面
  6
CONTINUOUS
 10
-4.103457
 20
-34.749005
 11
48.553223
 21
-34.749005
  0
LINE
  8
型材断面
  6
DASHDOT
 10
-30.755937
 20
-85.083888
 11
-30.755937
 21
59.370383
  0
LINE
  8
型材断面
  6
CONTINUOUS
 10
-22.732063
 20
26.870383
 11
-18.846303
 21
24.626937
  0
LINE
  8
型材断面
  6
CONTINUOUS
 10
-22.732063
 20
26.870383
 11
-18.846303
 21
29.113827
  0
LINE
  8
型材断面
  6
CONTINUOUS
 10
-18.846303
 20
29.113827
 11
-18.846303
 21
24.626937
  0
LINE
  8
型材断面
  6
CONTINUOUS
 10
-63.255937
 20
67.394257
 11
-65.499382
 21
71.280018
  0
LINE
  8
型材断面
  6
CONTINUOUS
 10
-63.255937
 20
67.394257
 11
-61.012493
 21
71.280018
  0
LINE
  8
型材断面
  6
CONTINUOUS
 10
-61.012493
 20
71.280018
 11
-65.499382
 21
71.280018
  0
LINE
  8
型材断面
  6
CONTINUOUS
 10
-63.255937
 20
-13.653492
 11
-65.499382
 21
-17.539253
  0
LINE
  8
型材断面
  6
CONTINUOUS
 10
-63.255937
 20
-13.653492
 11
-61.012493
 21
-17.539253
  0
LINE
  8
型材断面
  6
CONTINUOUS
 10
-61.012493
 20
-17.539253
 11
-65.499382
 21
-17.539253
  0
LINE
  8
型材断面
  6
CONTINUOUS
 10
-103.779813
 20
26.870383
 11
-107.665572
 21
24.626937
  0
LINE
  8
型材断面
  6
CONTINUOUS
 10
-103.779813
 20
26.870383
 11
-107.665572
 21
29.113827
  0
LINE
  8
型材断面
  6
CONTINUOUS
 10
-107.665572
 20
29.113827
 11
-107.665572
 21
24.626937
  0
LINE
  8
型材断面
  6
DASHDOT
 10
-95.755937
 20
26.870383
 11
-30.755937
 21
26.870383
  0
LINE
  8
型材断面
  6
DASHDOT
 10
-95.755937
 20
59.370383
 11
-30.755937
 21
59.370383
  0
LINE
  8
型材断面
  6
DASHDOT
 10
-95.755937
 20
-5.629618
 11
-30.755937
 21
-5.629618
  0
LINE
  8
型材断面
  6
CONTINUOUS
 10
-22.73206
 20
56.370383
 11
-18.8463
 21
55.476297
  0
LINE
  8
型材断面
  6
CONTINUOUS
 10
-22.73206
 20
56.370383
 11
-18.8463
 21
57.264467
  0
LINE
  8
型材断面
  6
CONTINUOUS
 10
-18.8463
 20
57.264467
 11
-18.8463
 21
55.476297
  0
LINE
  8
型材断面
  6
CONTINUOUS
 10
-22.73206
 20
-2.629618
 11
-18.8463
 21
-1.735533
  0
LINE
  8
型材断面
  6
CONTINUOUS
 10
-22.73206
 20
-2.629618
 11
-18.8463
 21
-3.523703
  0
LINE
  8
型材断面
  6
CONTINUOUS
 10
-18.8463
 20
-3.523703
 11
-18.8463
 21
-1.735533
  0
LINE
  8
型材断面
  6
DASHDOT
 10
-63.255937
 20
59.370383
 11
-63.255937
 21
-85.083888
  0
LINE
  8
型材断面
  6
DASHDOT
 10
-95.755937
 20
59.370383
 11
-95.755937
 21
-85.083888
  0
LINE
  8
型材断面
  6
CONTINUOUS
 10
-21.005915
 20
69.120405
 11
-21.005915
 21
-15.37964
  0
LINE
  8
型材断面
  6
CONTINUOUS
 10
-21.005915
 20
-15.37964
 11
-105.50596
 21
-15.37964
  0
LINE
  8
型材断面
  6
CONTINUOUS
 10
-105.50596
 20
-15.37964
 11
-105.50596
 21
69.120405
  0
LINE
  8
型材断面
  6
CONTINUOUS
 10
-21.005915
 20
69.120405
 11
-105.50596
 21
69.120405
  0
LINE
  8
型材断面
  6
CONTINUOUS
 10
-105.50596
 20
-15.37964
 11
-98.855943
 21
-8.729623
  0
LINE
  8
型材断面
  6
CONTINUOUS
 10
-27.655933
 20
-8.729623
 11
-21.005915
 21
-15.37964
  0
LINE
  8
型材断面
  6
CONTINUOUS
 10
-27.655933
 20
62.470387
 11
-21.005915
 21
69.120405
  0
LINE
  8
型材断面
  6
CONTINUOUS
 10
-98.855943
 20
62.470387
 11
-105.50596
 21
69.120405
  0
POLYLINE
  8
型材断面
  6
DASHDOT
 66
     1
  0
VERTEX
  8
型材断面
 10
-30.755937
 20
59.370383
  0
VERTEX
  8
型材断面
 10
-95.755937
 20
26.870383
  0
VERTEX
  8
型材断面
 10
-30.755937
 20
-5.629618
  0
SEQEND
  0
LINE
  8
型材断面
  6
CONTINUOUS
 10
-105.50596
 20
-83.069873
 11
-21.005915
 21
-83.069873
  0
LINE
  8
型材断面
  6
CONTINUOUS
 10
-105.50596
 20
-79.569875
 11
-21.005915
 21
-79.569875
  0
LINE
  8
型材断面
  6
CONTINUOUS
 62
    47
 10
-29.255915
 20
-71.819873
 11
-29.255915
 21
-74.66993
  0
LINE
  8
型材断面
  6
CONTINUOUS
 10
-29.255915
 20
-74.96993
 11
-29.255915
 21
-78.569873
  0
LINE
  8
型材断面
  6
CONTINUOUS
 10
-29.255915
 20
-78.569873
 11
-21.005915
 21
-79.569875
  0
LINE
  8
型材断面
  6
CONTINUOUS
 10
-21.005915
 20
-83.069873
 11
-21.005915
 21
-79.569875
  0
LINE
  8
型材断面
  6
CONTINUOUS
 62
    47
 10
-97.25596
 20
-71.819873
 11
-97.25596
 21
-74.66993
  0
LINE
  8
型材断面
  6
CONTINUOUS
 10
-97.25596
 20
-74.96993
 11
-97.25596
 21
-78.569873
  0
LINE
  8
型材断面
  6
CONTINUOUS
 10
-97.25596
 20
-78.569873
 11
-105.50596
 21
-79.569875
  0
LINE
  8
型材断面
  6
CONTINUOUS
 10
-105.50596
 20
-83.069873
 11
-105.50596
 21
-79.569875
  0
LINE
  8
型材断面
  6
CONTINUOUS
 10
-29.255915
 20
-74.66993
 11
-97.25596
 21
-74.66993
  0
LINE
  8
型材断面
  6
CONTINUOUS
 10
-29.255915
 20
-74.96993
 11
-97.25596
 21
-74.96993
  0
LINE
  8
型材断面
  6
CONTINUOUS
 10
-29.255915
 20
-78.569873
 11
-97.25596
 21
-78.569873
  0
POLYLINE
  8
型材断面
  6
CONTINUOUS
 66
     1
 70
     1
  0
VERTEX
  8
型材断面
 10
-112.456672
 20
-72.018157
  0
VERTEX
  8
型材断面
 10
-126.052682
 20
-72.018157
  0
VERTEX
  8
型材断面
 10
-126.052682
 20
-77.311685
  0
VERTEX
  8
型材断面
 10
-112.456672
 20
-77.311685
  0
SEQEND
  0
LINE
  8
型材断面
  6
CONTINUOUS
 10
58.681918
 20
-83.069873
 11
143.181963
 21
-83.069873
  0
LINE
  8
型材断面
  6
CONTINUOUS
 10
58.681918
 20
-79.569875
 11
143.181963
 21
-79.569875
  0
LINE
  8
型材断面
  6
CONTINUOUS
 62
    47
 10
134.931963
 20
-71.819873
 11
134.931963
 21
-74.66993
  0
LINE
  8
型材断面
  6
CONTINUOUS
 10
134.931963
 20
-74.96993
 11
134.931963
 21
-78.569873
  0
LINE
  8
型材断面
  6
CONTINUOUS
 10
134.931963
 20
-78.569873
 11
143.181963
 21
-79.569875
  0
LINE
  8
型材断面
  6
CONTINUOUS
 10
143.181963
 20
-83.069873
 11
143.181963
 21
-79.569875
  0
LINE
  8
型材断面
  6
CONTINUOUS
 62
    47
 10
66.931918
 20
-71.819873
 11
66.931918
 21
-74.66993
  0
LINE
  8
型材断面
  6
CONTINUOUS
 10
66.931918
 20
-74.96993
 11
66.931918
 21
-78.569873
  0
LINE
  8
型材断面
  6
CONTINUOUS
 10
66.931918
 20
-78.569873
 11
58.681918
 21
-79.569875
  0
LINE
  8
型材断面
  6
CONTINUOUS
 10
58.681918
 20
-83.069873
 11
58.681918
 21
-79.569875
  0
LINE
  8
型材断面
  6
CONTINUOUS
 10
134.931963
 20
-74.66993
 11
66.931918
 21
-74.66993
  0
LINE
  8
型材断面
  6
CONTINUOUS
 10
134.931963
 20
-74.96993
 11
66.931918
 21
-74.96993
  0
LINE
  8
型材断面
  6
CONTINUOUS
 10
134.931963
 20
-78.569873
 11
66.931918
 21
-78.569873
  0
INSERT
  2
*GRP_0048
  8
型材断面
  6
DASHDOT
 10
0.0
 20
0.0
  0
ARC
  8
型材断面
  6
DASHDOT
 10
66.631919
 20
-74.81993
 40
69.445977
 50
363.715335
 51
408.715335
  0
LINE
  8
ガラス
  6
CONTINUOUS
 10
167.304785
 20
75.557477
 11
167.304785
 21
10.557477
  0
LINE
  8
ガラス
  6
CONTINUOUS
 10
102.304785
 20
10.557477
 11
167.304785
 21
10.557477
  0
LINE
  8
ガラス
  6
CONTINUOUS
 10
167.304785
 20
75.557477
 11
102.304785
 21
75.557477
  0
LINE
  8
ガラス
  6
CONTINUOUS
 10
102.304785
 20
10.557477
 11
102.304785
 21
75.557477
  0
CIRCLE
  8
ボルト／ビス
  6
CONTINUOUS
 10
-55.755937
 20
60.370383
 40
0.288675
  0
CIRCLE
  8
ボルト／ビス
  6
CONTINUOUS
 10
-55.755937
 20
60.370383
 40
0.455885
  0
CIRCLE
  8
ボルト／ビス
  6
CONTINUOUS
 10
-40.755937
 20
60.370383
 40
0.288675
  0
CIRCLE
  8
ボルト／ビス
  6
CONTINUOUS
 10
-40.755937
 20
60.370383
 40
0.455885
  0
CIRCLE
  8
ボルト／ビス
  6
CONTINUOUS
 10
-70.755937
 20
60.370383
 40
0.288675
  0
CIRCLE
  8
ボルト／ビス
  6
CONTINUOUS
 10
-70.755937
 20
60.370383
 40
0.455885
  0
CIRCLE
  8
ボルト／ビス
  6
CONTINUOUS
 10
-85.755937
 20
60.370383
 40
0.288675
  0
CIRCLE
  8
ボルト／ビス
  6
CONTINUOUS
 10
-85.755937
 20
60.370383
 40
0.455885
  0
CIRCLE
  8
ボルト／ビス
  6
CONTINUOUS
 10
-96.755935
 20
34.370385
 40
0.288675
  0
CIRCLE
  8
ボルト／ビス
  6
CONTINUOUS
 10
-96.755935
 20
34.370385
 40
0.455885
  0
CIRCLE
  8
ボルト／ビス
  6
CONTINUOUS
 10
-96.755935
 20
49.370385
 40
0.288675
  0
CIRCLE
  8
ボルト／ビス
  6
CONTINUOUS
 10
-96.755935
 20
49.370385
 40
0.455885
  0
CIRCLE
  8
ボルト／ビス
  6
CONTINUOUS
 10
-96.755935
 20
19.37038
 40
0.288675
  0
CIRCLE
  8
ボルト／ビス
  6
CONTINUOUS
 10
-96.755935
 20
19.37038
 40
0.455885
  0
CIRCLE
  8
ボルト／ビス
  6
CONTINUOUS
 10
-96.755935
 20
4.37038
 40
0.288675
  0
CIRCLE
  8
ボルト／ビス
  6
CONTINUOUS
 10
-96.755935
 20
4.37038
 40
0.455885
  0
CIRCLE
  8
ボルト／ビス
  6
CONTINUOUS
 10
-70.75594
 20
-6.629615
 40
0.288675
  0
CIRCLE
  8
ボルト／ビス
  6
CONTINUOUS
 10
-70.75594
 20
-6.629615
 40
0.455885
  0
CIRCLE
  8
ボルト／ビス
  6
CONTINUOUS
 10
-85.75594
 20
-6.629615
 40
0.288675
  0
CIRCLE
  8
ボルト／ビス
  6
CONTINUOUS
 10
-85.75594
 20
-6.629615
 40
0.455885
  0
CIRCLE
  8
ボルト／ビス
  6
CONTINUOUS
 10
-55.755935
 20
-6.629615
 40
0.288675
  0
CIRCLE
  8
ボルト／ビス
  6
CONTINUOUS
 10
-55.755935
 20
-6.629615
 40
0.455885
  0
CIRCLE
  8
ボルト／ビス
  6
CONTINUOUS
 10
-40.755935
 20
-6.629615
 40
0.288675
  0
CIRCLE
  8
ボルト／ビス
  6
CONTINUOUS
 10
-40.755935
 20
-6.629615
 40
0.455885
  0
CIRCLE
  8
ボルト／ビス
  6
CONTINUOUS
 10
-29.755937
 20
19.370383
 40
0.288675
  0
CIRCLE
  8
ボルト／ビス
  6
CONTINUOUS
 10
-29.755937
 20
19.370383
 40
0.455885
  0
CIRCLE
  8
ボルト／ビス
  6
CONTINUOUS
 10
-29.755937
 20
4.370383
 40
0.288675
  0
CIRCLE
  8
ボルト／ビス
  6
CONTINUOUS
 10
-29.755937
 20
4.370383
 40
0.455885
  0
CIRCLE
  8
ボルト／ビス
  6
CONTINUOUS
 10
-29.755937
 20
34.370383
 40
0.288675
  0
CIRCLE
  8
ボルト／ビス
  6
CONTINUOUS
 10
-29.755937
 20
34.370383
 40
0.455885
  0
CIRCLE
  8
ボルト／ビス
  6
CONTINUOUS
 10
-29.755937
 20
49.370383
 40
0.288675
  0
CIRCLE
  8
ボルト／ビス
  6
CONTINUOUS
 10
-29.755937
 20
49.370383
 40
0.455885
  0
TEXT
  7
TextStyle03
  8
文字
  6
CONTINUOUS
 10
9.175
 20
-14.975
  1
は排水穴位置を示す
 40
3.0
 72
     5
 11
39.175
 21
-14.975
  0
TEXT
  7
TextStyle03
  8
文字
  6
CONTINUOUS
 10
9.175
 20
-22.825
  1
はケーシング位置を示す
 40
3.0
 72
     5
 11
45.925
 21
-22.825
  0
TEXT
  7
TextStyle03
  8
文字
  6
CONTINUOUS
 10
9.175
 20
-26.2
  1
２ヶ所中1ヶ所に設定
 40
3.0
 72
     5
 11
40.8625
 21
-26.2
  0
TEXT
  7
TextStyle03
  8
文字
  6
CONTINUOUS
 10
85.4
 20
97.325
  1
ＮＳコード：ＮＳＨＳ
 40
5.0
 72
     5
 11
141.025
 21
97.325
  0
TEXT
  7
TextStyle03
  8
文字
  6
CONTINUOUS
 10
3.575
 20
-33.35
  1
アンカー数量　８ヶ所
 40
3.0
 72
     5
 11
36.95
 21
-33.35
  0
TEXT
  7
TextStyle03
  8
文字
  6
CONTINUOUS
 10
146.1
 20
18.8
  1
網入り6.8t
 40
3.0
 72
     5
 11
162.7875
 21
18.8
  0
TEXT
  7
TextStyle03
  8
文字
  6
CONTINUOUS
 10
152.725
 20
13.55
  1
×１枚
 40
3.0
 72
     5
 11
162.475
 21
13.55
  0
TEXT
  7
TextStyle03
  8
文字
  6
CONTINUOUS
 10
-110.25
 20
86.275
  1
アンカーピッチ
 40
3.0
 72
     5
 11
-87.0
 21
86.275
  0
TEXT
  7
TextStyle03
  8
文字
  6
CONTINUOUS
 10
-127.25
 20
-16.525
  1
アンカーピッチ
 40
3.0
 50
90.0
 72
     5
 11
-127.25
 21
6.725
  0
TEXT
  7
TextStyle03
  8
文字
  6
CONTINUOUS
 10
85.3
 20
119.325
  1
シリーズ：ＳＴＤＨ
 40
5.0
 72
     5
 11
135.3
 21
119.325
  0
TEXT
  7
TextStyle03
  8
文字
  6
CONTINUOUS
 10
85.3
 20
113.7
  1
　　　　　（片側開閉）1300×1300タイプ
 40
5.0
 72
     5
 11
191.55
 21
113.7
  0
TEXT
  7
TextStyle03
  8
文字
  6
CONTINUOUS
 10
85.3
 20
108.075
  1
図面名　：外観姿図
 40
5.0
 72
     5
 11
135.3
 21
108.075
  0
TEXT
  7
TextStyle03
  8
文字
  6
CONTINUOUS
 10
85.3
 20
102.45
  1
　　　　　　
 40
5.0
 72
     5
 11
118.425
 21
102.45
  0
INSERT
  2
*GRP_0008
  8
文字
  6
CONTINUOUS
 10
0.0
 20
0.0
  0
INSERT
  2
*GRP_0009
  8
文字
  6
CONTINUOUS
 10
0.0
 20
0.0
  0
INSERT
  2
*GRP_0010
  8
文字
  6
CONTINUOUS
 10
0.0
 20
0.0
  0
INSERT
  2
*GRP_0011
  8
文字
  6
CONTINUOUS
 10
0.0
 20
0.0
  0
INSERT
  2
*GRP_0012
  8
文字
  6
CONTINUOUS
 10
0.0
 20
0.0
  0
INSERT
  2
*GRP_0013
  8
文字
  6
CONTINUOUS
 10
0.0
 20
0.0
  0
INSERT
  2
*GRP_0014
  8
文字
  6
CONTINUOUS
 10
0.0
 20
0.0
  0
INSERT
  2
*GRP_0015
  8
文字
  6
CONTINUOUS
 10
0.0
 20
0.0
  0
INSERT
  2
*GRP_0016
  8
文字
  6
CONTINUOUS
 10
0.0
 20
0.0
  0
INSERT
  2
*GRP_0017
  8
文字
  6
CONTINUOUS
 10
0.0
 20
0.0
  0
INSERT
  2
*GRP_0018
  8
文字
  6
CONTINUOUS
 10
0.0
 20
0.0
  0
INSERT
  2
*GRP_0019
  8
文字
  6
CONTINUOUS
 10
0.0
 20
0.0
  0
INSERT
  2
*GRP_0020
  8
文字
  6
CONTINUOUS
 10
0.0
 20
0.0
  0
INSERT
  2
*GRP_0021
  8
文字
  6
CONTINUOUS
 10
0.0
 20
0.0
  0
INSERT
  2
*GRP_0022
  8
文字
  6
CONTINUOUS
 10
0.0
 20
0.0
  0
INSERT
  2
*GRP_0023
  8
文字
  6
CONTINUOUS
 10
0.0
 20
0.0
  0
TEXT
  7
TextStyle03
  8
文字
  6
CONTINUOUS
 10
-124.4
 20
-76.025
  1
丁番側
 40
3.0
 72
     5
 11
-114.65
 21
-76.025
  0
TEXT
  7
TextStyle03
  8
文字
  6
CONTINUOUS
 10
-113.8
 20
-94.675
  1
※は物件対応寸法
 40
3.0
 72
     5
 11
-87.175
 21
-94.675
  0
TEXT
  7
TextStyle03
  8
文字
  6
CONTINUOUS
 10
132.225
 20
-45.025
  1
45°
 40
3.0
 72
     5
 11
138.6
 21
-45.025
  0
INSERT
  2
*DIM_0002
  8
寸法
  6
CONTINUOUS
 10
0.0
 20
0.0
  0
INSERT
  2
*DIM_0003
  8
寸法
  6
CONTINUOUS
 10
0.0
 20
0.0
  0
INSERT
  2
*DIM_0004
  8
寸法
  6
CONTINUOUS
 10
0.0
 20
0.0
  0
INSERT
  2
*DIM_0005
  8
寸法
  6
CONTINUOUS
 10
0.0
 20
0.0
  0
INSERT
  2
*DIM_0006
  8
寸法
  6
CONTINUOUS
 10
0.0
 20
0.0
  0
INSERT
  2
*DIM_0007
  8
寸法
  6
CONTINUOUS
 10
0.0
 20
0.0
  0
INSERT
  2
*DIM_0044
  8
寸法
  6
CONTINUOUS
 10
0.0
 20
0.0
  0
INSERT
  2
*DIM_0045
  8
寸法
  6
CONTINUOUS
 10
0.0
 20
0.0
  0
INSERT
  2
*DIM_0046
  8
寸法
  6
CONTINUOUS
 10
0.0
 20
0.0
  0
INSERT
  2
*DIM_0047
  8
寸法
  6
CONTINUOUS
 10
0.0
 20
0.0
  0
INSERT
  2
*DIM_0055
  8
寸法
  6
CONTINUOUS
 10
0.0
 20
0.0
  0
INSERT
  2
*DIM_0056
  8
寸法
  6
CONTINUOUS
 10
0.0
 20
0.0
  0
LINE
  8
別途部材
  6
CONTINUOUS
 10
-98.855943
 20
62.470387
 11
-95.755937
 21
59.370383
  0
LINE
  8
別途部材
  6
CONTINUOUS
 10
-95.755937
 20
59.370383
 11
-30.755937
 21
59.370383
  0
LINE
  8
別途部材
  6
CONTINUOUS
 10
-98.255943
 20
61.870387
 11
-28.255933
 21
61.870387
  0
LINE
  8
別途部材
  6
CONTINUOUS
 10
-98.855943
 20
62.470387
 11
-27.655933
 21
62.470387
  0
LINE
  8
別途部材
  6
CONTINUOUS
 10
-30.755937
 20
59.370383
 11
-27.655933
 21
62.470387
  0
LINE
  8
別途部材
  6
CONTINUOUS
 10
-30.755937
 20
59.370383
 11
-30.755937
 21
-5.629618
  0
LINE
  8
別途部材
  6
CONTINUOUS
 10
-28.255933
 20
61.870387
 11
-28.255933
 21
-8.129623
  0
LINE
  8
別途部材
  6
CONTINUOUS
 10
-27.655933
 20
62.470387
 11
-27.655933
 21
-8.729623
  0
LINE
  8
別途部材
  6
CONTINUOUS
 10
-30.755937
 20
-5.629618
 11
-27.655933
 21
-8.729623
  0
LINE
  8
別途部材
  6
CONTINUOUS
 10
-95.755937
 20
59.370383
 11
-95.755937
 21
-5.629618
  0
LINE
  8
別途部材
  6
CONTINUOUS
 10
-30.755937
 20
-5.629618
 11
-95.755937
 21
-5.629618
  0
LINE
  8
別途部材
  6
CONTINUOUS
 10
-28.255933
 20
-8.129623
 11
-98.255943
 21
-8.129623
  0
LINE
  8
別途部材
  6
CONTINUOUS
 10
-98.255943
 20
61.870387
 11
-98.255943
 21
-8.129623
  0
LINE
  8
別途部材
  6
CONTINUOUS
 10
-98.855943
 20
62.470387
 11
-98.855943
 21
-8.729623
  0
LINE
  8
別途部材
  6
CONTINUOUS
 10
-27.655933
 20
-8.729623
 11
-98.855943
 21
-8.729623
  0
LINE
  8
別途部材
  6
CONTINUOUS
 10
-98.855943
 20
-8.729623
 11
-95.755937
 21
-5.629618
  0
LINE
  8
別途部材
  6
CONTINUOUS
 10
-95.755937
 20
-5.629618
 11
-83.82653
 21
6.29979
  0
LINE
  8
別途部材
  6
CONTINUOUS
 10
-30.755937
 20
-5.629618
 11
-42.685345
 21
6.29979
  0
LINE
  8
別途部材
  6
CONTINUOUS
 10
-95.755937
 20
59.370383
 11
-83.82653
 21
47.440975
  0
LINE
  8
別途部材
  6
CONTINUOUS
 10
-30.755937
 20
59.370383
 11
-42.685345
 21
47.440975
  0
LINE
  8
別途部材
  6
CONTINUOUS
 62
    96
 10
-28.255937
 20
-70.319873
 11
-27.655937
 21
-71.819873
  0
ARC
  8
別途部材
  6
CONTINUOUS
 10
-63.255938
 20
-91.748444
 40
38.928572
 50
33.39849
 51
146.60151
  0
INSERT
  2
*GRP_0040
  8
別途部材
  6
DOT
 10
0.0
 20
0.0
  0
LINE
  8
別途部材
  6
CONTINUOUS
 62
    96
 10
-98.255943
 20
-70.319873
 11
-98.855943
 21
-71.819873
  0
INSERT
  2
*GRP_0041
  8
別途部材
  6
DOT
 10
0.0
 20
0.0
  0
LINE
  8
別途部材
  6
CONTINUOUS
 10
-27.655937
 20
-71.819873
 11
-98.855943
 21
-71.819873
  0
LINE
  8
別途部材
  6
CONTINUOUS
 62
    96
 10
-28.255937
 20
-70.319873
 11
-98.255943
 21
-70.319873
  0
INSERT
  2
*GRP_0042
  8
別途部材
  6
CONTINUOUS
 10
0.0
 20
0.0
  0
LINE
  8
別途部材
  6
CONTINUOUS
 62
    96
 10
135.93194
 20
-70.319873
 11
136.53194
 21
-71.819873
  0
ARC
  8
別途部材
  6
CONTINUOUS
 10
100.931941
 20
-91.748445
 40
38.928572
 50
33.39849
 51
146.60151
  0
INSERT
  2
*GRP_0049
  8
別途部材
  6
DOT
 10
0.0
 20
0.0
  0
LINE
  8
別途部材
  6
CONTINUOUS
 62
    96
 10
65.931935
 20
-70.319873
 11
65.331935
 21
-71.819873
  0
INSERT
  2
*GRP_0050
  8
別途部材
  6
DOT
 10
0.0
 20
0.0
  0
LINE
  8
別途部材
  6
CONTINUOUS
 10
136.53194
 20
-71.819873
 11
65.331935
 21
-71.819873
  0
LINE
  8
別途部材
  6
CONTINUOUS
 62
    96
 10
135.93194
 20
-70.319873
 11
65.931935
 21
-70.319873
  0
INSERT
  2
*GRP_0051
  8
別途部材
  6
CONTINUOUS
 10
0.0
 20
0.0
  0
ENDSEC
  0
EOF
