  0
SECTION
  2
HEADER
  9
$EXTMIN
 10
-210.0
 20
-148.5
  9
$EXTMAX
 10
210.0
 20
148.5
  9
$PDMODE
 70
    32
  9
$PDSIZE
 40
1.5
  9
$LTSCALE
 40
10.0
  0
ENDSEC
  0
SECTION
  2
TABLES
  0
TABLE
  2
LTYPE
 70
    15
  0
LTYPE
  2
CONTINUOUS
 70
    64
  3
実線
 72
    65
 73
     0
 40
0.0
  0
LTYPE
  2
DASHED
 70
    64
  3
破線A
 72
    65
 73
     2
 40
0.6
 49
0.4
 49
-0.2
  0
LTYPE
  2
DASHEDX2
 70
    64
  3
破線B
 72
    65
 73
     2
 40
1.3
 49
0.9
 49
-0.4
  0
LTYPE
  2
DASHDOT
 70
    64
  3
１点鎖線A
 72
    65
 73
     4
 40
0.5375
 49
0.375
 49
-0.05
 49
0.0625
 49
-0.05
  0
LTYPE
  2
DASHDOTX2
 70
    64
  3
１点鎖線B
 72
    65
 73
     4
 40
1.075
 49
0.75
 49
-0.1
 49
0.125
 49
-0.1
  0
LTYPE
  2
DIVIDE2
 70
    64
  3
２点鎖線A
 72
    65
 73
     6
 40
0.5125
 49
0.3
 49
-0.0375
 49
0.05
 49
-0.0375
 49
0.05
 49
-0.0375
  0
LTYPE
  2
DIVIDE
 70
    64
  3
２点鎖線B
 72
    65
 73
     6
 40
1.05
 49
0.55
 49
-0.1
 49
0.1
 49
-0.1
 49
0.1
 49
-0.1
  0
LTYPE
  2
DOT
 70
    64
  3
点線A
 72
    65
 73
     2
 40
0.1125
 49
0.0625
 49
-0.05
  0
LTYPE
  2
DOTX2
 70
    64
  3
点線B
 72
    65
 73
     2
 40
0.275
 49
0.15
 49
-0.125
  0
LTYPE
  2
CONTINUOUS
 70
    64
  3
実線
 72
    65
 73
     0
 40
0.0
  0
LTYPE
  2
CONTINUOUS
 70
    64
  3
実線
 72
    65
 73
     0
 40
0.0
  0
LTYPE
  2
CONTINUOUS
 70
    64
  3
実線
 72
    65
 73
     0
 40
0.0
  0
LTYPE
  2
CONTINUOUS
 70
    64
  3
実線
 72
    65
 73
     0
 40
0.0
  0
LTYPE
  2
CONTINUOUS
 70
    64
  3
実線
 72
    65
 73
     0
 40
0.0
  0
LTYPE
  2
CONTINUOUS
 70
    64
  3
実線
 72
    65
 73
     0
 40
0.0
  0
ENDTAB
  0
TABLE
  2
LAYER
 70
    34
  0
LAYER
  2
通り芯
 70
     0
 62
    15
  6
CONTINUOUS
  0
LAYER
  2
補助線
 70
     0
 62
    16
  6
DOT
  0
LAYER
  2
躯体
 70
     0
 62
    31
  6
CONTINUOUS
  0
LAYER
  2
型材
 70
     0
 62
    32
  6
CONTINUOUS
  0
LAYER
  2
型材断面
 70
     0
 62
    47
  6
CONTINUOUS
  0
LAYER
  2
ガラス
 70
     0
 62
    48
  6
CONTINUOUS
  0
LAYER
  2
ゴム等
 70
     0
 62
    63
  6
CONTINUOUS
  0
LAYER
  2
ボルト／ビス
 70
     0
 62
    64
  6
CONTINUOUS
  0
LAYER
  2
文字
 70
     0
 62
    79
  6
CONTINUOUS
  0
LAYER
  2
寸法
 70
     0
 62
    80
  6
CONTINUOUS
  0
LAYER
  2
ﾊｯﾁﾝｸﾞ
 70
     0
 62
    95
  6
CONTINUOUS
  0
LAYER
  2
別途部材
 70
     0
 62
    96
  6
CONTINUOUS
  0
LAYER
  2
曲げ物
 70
     0
 62
   111
  6
CONTINUOUS
  0
LAYER
  2
鉄骨等
 70
     0
 62
   112
  6
CONTINUOUS
  0
LAYER
  2
St
 70
     0
 62
   127
  6
CONTINUOUS
  0
LAYER
  2
その他部品等
 70
     0
 62
   128
  6
CONTINUOUS
  0
LAYER
  2
ｶﾞｽｹｯﾄ
 70
     0
 62
   143
  6
CONTINUOUS
  0
LAYER
  2
ｽｹｯﾁ
 70
     0
 62
    14
  6
CONTINUOUS
  0
LAYER
  2
0
 70
     0
 62
    17
  6
CONTINUOUS
  0
LAYER
  2
1
 70
     0
 62
    30
  6
CONTINUOUS
  0
LAYER
  2
4
 70
     0
 62
    33
  6
CONTINUOUS
  0
LAYER
  2
ﾚｲﾔ3
 70
     0
 62
    46
  6
CONTINUOUS
  0
LAYER
  2
外形線
 70
     0
 62
    49
  6
CONTINUOUS
  0
LAYER
  2
部品
 70
     0
 62
    14
  6
CONTINUOUS
  0
LAYER
  2
サッシ芯
 70
     0
 62
    17
  6
DASHDOTX2
  0
LAYER
  2
寸法線
 70
     0
 62
    62
  6
CONTINUOUS
  0
LAYER
  2
姿図外形線
 70
     0
 62
    65
  6
CONTINUOUS
  0
LAYER
  2
姿補助線
 70
     0
 62
    30
  6
CONTINUOUS
  0
LAYER
  2
透視線
 70
     0
 62
    78
  6
DOT
  0
LAYER
  2
用紙
 70
     0
 62
    81
  6
CONTINUOUS
  0
LAYER
  2
実線図枠
 70
     0
 62
    94
  6
CONTINUOUS
  0
LAYER
  2
補助図枠
 70
     0
 62
    97
  6
CONTINUOUS
  0
LAYER
  2
建具記号
 70
     0
 62
   110
  6
CONTINUOUS
  0
LAYER
  2
補助文字
 70
     0
 62
   113
  6
CONTINUOUS
  0
ENDTAB
  0
TABLE
  2
STYLE
 70
    10
  0
STYLE
  2
STANDARD
 70
     0
 40
1.0
 41
1.0
 42
1.0
 50
0.0
 71
     0
  3
TXT
  4
BIGFONT
  0
STYLE
  2
TATE
 70
     4
 40
1.0
 41
1.0
 42
1.0
 50
0.0
 71
     0
  3
TXT
  4
BIGFONT
  0
STYLE
  2
TextStyle03
 70
     0
 40
1.0
 41
1.0
 42
1.0
 50
0.0
 71
     0
  3
MONOTXT
  4
BIGFONT
  0
STYLE
  2
TextStyle04
 70
     0
 40
1.0
 41
1.0
 42
1.0
 50
0.0
 71
     0
  3
MONOTXT
  4
BIGFONT
  0
STYLE
  2
TextStyle05
 70
     0
 40
1.0
 41
1.0
 42
1.0
 50
0.0
 71
     0
  3
MONOTXT
  4
BIGFONT
  0
STYLE
  2
TextStyle06
 70
     0
 40
1.0
 41
1.0
 42
1.0
 50
0.0
 71
     0
  3
MONOTXT
  4
BIGFONT
  0
STYLE
  2
TextStyle07
 70
     0
 40
1.0
 41
1.0
 42
1.0
 50
0.0
 71
     0
  3
MONOTXT
  4
BIGFONT
  0
STYLE
  2
TextStyle08
 70
     0
 40
1.0
 41
1.0
 42
1.0
 50
0.0
 71
     0
  3
MONOTXT
  4
BIGFONT
  0
STYLE
  2
TextStyle09
 70
     0
 40
1.0
 41
1.0
 42
1.0
 50
0.0
 71
     0
  3
MONOTXT
  4
BIGFONT
  0
STYLE
  2
TextStyle10
 70
     0
 40
1.0
 41
1.0
 42
1.0
 50
0.0
 71
     0
  3
MONOTXT
  4
BIGFONT
  0
ENDTAB
  0
ENDSEC
  0
SECTION
  2
BLOCKS
  0
BLOCK
  2
*GRP_0001
 70
    65
 10
0.0
 20
0.0
  0
LINE
  8
型材断面
  6
CONTINUOUS
 10
195.0
 20
133.5
 11
195.0
 21
-133.5
  0
LINE
  8
型材断面
  6
CONTINUOUS
 10
195.0
 20
-133.5
 11
-185.0
 21
-133.5
  0
LINE
  8
型材断面
  6
CONTINUOUS
 10
-185.0
 20
-133.5
 11
-185.0
 21
133.5
  0
LINE
  8
型材断面
  6
CONTINUOUS
 10
195.0
 20
133.5
 11
-185.0
 21
133.5
  0
LINE
  8
型材断面
  6
CONTINUOUS
 10
145.0
 20
-133.5
 11
145.0
 21
-118.5
  0
LINE
  8
型材断面
  6
CONTINUOUS
 10
195.0
 20
-118.5
 11
145.0
 21
-118.5
  0
ENDBLK
  0
BLOCK
  2
*DIM_0002
 70
    65
 10
0.0
 20
0.0
  0
LINE
  8
寸法
  6
BYBLOCK
 62
     0
 10
-92.435405
 20
-26.094458
 11
-62.435405
 21
-26.094458
  0
POINT
  8
寸法
 62
     0
 10
-92.435405
 20
-26.094458
  0
POINT
  8
寸法
 62
     0
 10
-62.435405
 20
-26.094458
  0
TEXT
  7
TextStyle03
  8
寸法
  6
CONTINUOUS
 62
     0
 10
-88.325
 20
-25.725
  1
呼称寸法　600
 40
3.0
 72
     5
 11
-66.575
 21
-25.725
  0
ENDBLK
  0
BLOCK
  2
*DIM_0003
 70
    65
 10
0.0
 20
0.0
  0
LINE
  8
寸法
  6
BYBLOCK
 62
     0
 10
-61.435405
 20
31.69199
 11
-46.752115
 21
31.69199
  0
LINE
  8
寸法
  6
BYBLOCK
 62
     0
 10
-53.411528
 20
28.69199
 11
-46.752115
 21
28.69199
  0
LINE
  8
寸法
  6
BYBLOCK
 62
     0
 10
-46.752115
 20
31.69199
 11
-46.752115
 21
28.69199
  0
POINT
  8
寸法
 62
     0
 10
-46.752115
 20
31.69199
  0
POINT
  8
寸法
 62
     0
 10
-46.752115
 20
28.69199
  0
TEXT
  7
TextStyle03
  8
寸法
  6
CONTINUOUS
 62
     0
 10
-43.775
 20
28.58125
  1
60
 40
3.0
 50
90.0
 72
     5
 11
-43.775
 21
31.76875
  0
ENDBLK
  0
BLOCK
  2
*DIM_0004
 70
    65
 10
0.0
 20
0.0
  0
LINE
  8
寸法
  6
BYBLOCK
 62
     0
 10
-61.435405
 20
1.69199
 11
-46.752115
 21
1.69199
  0
LINE
  8
寸法
  6
BYBLOCK
 62
     0
 10
-53.411528
 20
4.69199
 11
-46.752115
 21
4.69199
  0
LINE
  8
寸法
  6
BYBLOCK
 62
     0
 10
-46.752115
 20
1.69199
 11
-46.752115
 21
4.69199
  0
POINT
  8
寸法
 62
     0
 10
-46.752115
 20
1.69199
  0
POINT
  8
寸法
 62
     0
 10
-46.752115
 20
4.69199
  0
TEXT
  7
TextStyle03
  8
寸法
  6
CONTINUOUS
 62
     0
 10
-43.775
 20
1.58125
  1
60
 40
3.0
 50
90.0
 72
     5
 11
-43.775
 21
4.76875
  0
ENDBLK
  0
BLOCK
  2
*DIM_0005
 70
    65
 10
0.0
 20
0.0
  0
LINE
  8
寸法
  6
BYBLOCK
 62
     0
 10
-87.435402
 20
32.691993
 11
-87.435402
 21
52.281172
  0
LINE
  8
寸法
  6
BYBLOCK
 62
     0
 10
-67.435402
 20
32.691993
 11
-67.435402
 21
52.281172
  0
LINE
  8
寸法
  6
BYBLOCK
 62
     0
 10
-87.435402
 20
52.281172
 11
-67.435402
 21
52.281172
  0
POINT
  8
寸法
 62
     0
 10
-87.435402
 20
52.281172
  0
POINT
  8
寸法
 62
     0
 10
-67.435402
 20
52.281172
  0
TEXT
  7
TextStyle03
  8
寸法
  6
CONTINUOUS
 62
     0
 10
-79.8875
 20
52.675
  1
400
 40
3.0
 72
     5
 11
-75.0125
 21
52.675
  0
ENDBLK
  0
BLOCK
  2
*DIM_0006
 70
    65
 10
0.0
 20
0.0
  0
LINE
  8
寸法
  6
BYBLOCK
 62
     0
 10
-76.435405
 20
-54.998262
 11
-41.30588
 21
-54.998262
  0
LINE
  8
寸法
  6
BYBLOCK
 62
     0
 10
-41.30588
 20
-62.998262
 11
-41.30588
 21
-54.998262
  0
POINT
  8
寸法
 62
     0
 10
-41.30588
 20
-62.998262
  0
POINT
  8
寸法
 62
     0
 10
-41.30588
 20
-54.998262
  0
TEXT
  7
TextStyle03
  8
寸法
  6
CONTINUOUS
 62
     0
 10
-41.7
 20
-61.4125
  1
160
 40
3.0
 50
90.0
 72
     5
 11
-41.7
 21
-56.5375
  0
ENDBLK
  0
BLOCK
  2
*GRP_0007
 70
    65
 10
0.0
 20
0.0
  0
INSERT
  2
*GRP_0015
  8
補助線
  6
CONTINUOUS
 10
0.0
 20
0.0
  0
LINE
  8
ボルト／ビス
  6
CONTINUOUS
 10
-84.935405
 20
0.403315
 11
-84.685405
 21
0.547653
  0
LINE
  8
ボルト／ビス
  6
CONTINUOUS
 10
-84.935405
 20
0.403315
 11
-85.185405
 21
0.547653
  0
LINE
  8
ボルト／ビス
  6
CONTINUOUS
 10
-84.685405
 20
0.836327
 11
-84.935405
 21
0.980665
  0
LINE
  8
ボルト／ビス
  6
CONTINUOUS
 10
-85.185405
 20
0.836327
 11
-84.935405
 21
0.980665
  0
CIRCLE
  8
ボルト／ビス
  6
CONTINUOUS
 10
-84.935405
 20
0.69199
 40
0.25
  0
LINE
  8
ボルト／ビス
  6
CONTINUOUS
 10
-85.185405
 20
0.547653
 11
-85.185405
 21
0.836327
  0
LINE
  8
ボルト／ビス
  6
CONTINUOUS
 10
-84.685405
 20
0.836327
 11
-84.685405
 21
0.547653
  0
ENDBLK
  0
BLOCK
  2
*GRP_0008
 70
    65
 10
0.0
 20
0.0
  0
INSERT
  2
*GRP_0016
  8
補助線
  6
CONTINUOUS
 10
0.0
 20
0.0
  0
LINE
  8
ボルト／ビス
  6
CONTINUOUS
 10
-93.72408
 20
9.19199
 11
-93.579742
 21
9.44199
  0
LINE
  8
ボルト／ビス
  6
CONTINUOUS
 10
-93.72408
 20
9.19199
 11
-93.579742
 21
8.94199
  0
LINE
  8
ボルト／ビス
  6
CONTINUOUS
 10
-93.291068
 20
9.44199
 11
-93.14673
 21
9.19199
  0
LINE
  8
ボルト／ビス
  6
CONTINUOUS
 10
-93.291068
 20
8.94199
 11
-93.14673
 21
9.19199
  0
CIRCLE
  8
ボルト／ビス
  6
CONTINUOUS
 10
-93.435405
 20
9.19199
 40
0.25
  0
LINE
  8
ボルト／ビス
  6
CONTINUOUS
 10
-93.579742
 20
8.94199
 11
-93.291068
 21
8.94199
  0
LINE
  8
ボルト／ビス
  6
CONTINUOUS
 10
-93.291068
 20
9.44199
 11
-93.579742
 21
9.44199
  0
ENDBLK
  0
BLOCK
  2
*GRP_0009
 70
    65
 10
0.0
 20
0.0
  0
INSERT
  2
*GRP_0017
  8
補助線
  6
CONTINUOUS
 10
0.0
 20
0.0
  0
LINE
  8
ボルト／ビス
  6
CONTINUOUS
 10
-69.935405
 20
0.403315
 11
-70.185405
 21
0.547653
  0
LINE
  8
ボルト／ビス
  6
CONTINUOUS
 10
-69.935405
 20
0.403315
 11
-69.685405
 21
0.547653
  0
LINE
  8
ボルト／ビス
  6
CONTINUOUS
 10
-70.185405
 20
0.836327
 11
-69.935405
 21
0.980665
  0
LINE
  8
ボルト／ビス
  6
CONTINUOUS
 10
-69.685405
 20
0.836327
 11
-69.935405
 21
0.980665
  0
CIRCLE
  8
ボルト／ビス
  6
CONTINUOUS
 10
-69.935405
 20
0.69199
 40
0.25
  0
LINE
  8
ボルト／ビス
  6
CONTINUOUS
 10
-69.685405
 20
0.547653
 11
-69.685405
 21
0.836327
  0
LINE
  8
ボルト／ビス
  6
CONTINUOUS
 10
-70.185405
 20
0.836327
 11
-70.185405
 21
0.547653
  0
ENDBLK
  0
BLOCK
  2
*GRP_0010
 70
    65
 10
0.0
 20
0.0
  0
INSERT
  2
*GRP_0018
  8
補助線
  6
CONTINUOUS
 10
0.0
 20
0.0
  0
LINE
  8
ボルト／ビス
  6
CONTINUOUS
 10
-61.14673
 20
9.19199
 11
-61.291068
 21
9.44199
  0
LINE
  8
ボルト／ビス
  6
CONTINUOUS
 10
-61.14673
 20
9.19199
 11
-61.291068
 21
8.94199
  0
LINE
  8
ボルト／ビス
  6
CONTINUOUS
 10
-61.579742
 20
9.44199
 11
-61.72408
 21
9.19199
  0
LINE
  8
ボルト／ビス
  6
CONTINUOUS
 10
-61.579742
 20
8.94199
 11
-61.72408
 21
9.19199
  0
CIRCLE
  8
ボルト／ビス
  6
CONTINUOUS
 10
-61.435405
 20
9.19199
 40
0.25
  0
LINE
  8
ボルト／ビス
  6
CONTINUOUS
 10
-61.291068
 20
8.94199
 11
-61.579742
 21
8.94199
  0
LINE
  8
ボルト／ビス
  6
CONTINUOUS
 10
-61.579742
 20
9.44199
 11
-61.291068
 21
9.44199
  0
ENDBLK
  0
BLOCK
  2
*GRP_0011
 70
    65
 10
0.0
 20
0.0
  0
INSERT
  2
*GRP_0019
  8
補助線
  6
CONTINUOUS
 10
0.0
 20
0.0
  0
LINE
  8
ボルト／ビス
  6
CONTINUOUS
 10
-69.935405
 20
32.980665
 11
-70.185405
 21
32.836327
  0
LINE
  8
ボルト／ビス
  6
CONTINUOUS
 10
-69.935405
 20
32.980665
 11
-69.685405
 21
32.836327
  0
LINE
  8
ボルト／ビス
  6
CONTINUOUS
 10
-70.185405
 20
32.547653
 11
-69.935405
 21
32.403315
  0
LINE
  8
ボルト／ビス
  6
CONTINUOUS
 10
-69.685405
 20
32.547653
 11
-69.935405
 21
32.403315
  0
CIRCLE
  8
ボルト／ビス
  6
CONTINUOUS
 10
-69.935405
 20
32.69199
 40
0.25
  0
LINE
  8
ボルト／ビス
  6
CONTINUOUS
 10
-69.685405
 20
32.836327
 11
-69.685405
 21
32.547653
  0
LINE
  8
ボルト／ビス
  6
CONTINUOUS
 10
-70.185405
 20
32.547653
 11
-70.185405
 21
32.836327
  0
ENDBLK
  0
BLOCK
  2
*GRP_0012
 70
    65
 10
0.0
 20
0.0
  0
INSERT
  2
*GRP_0020
  8
補助線
  6
CONTINUOUS
 10
0.0
 20
0.0
  0
LINE
  8
ボルト／ビス
  6
CONTINUOUS
 10
-61.14673
 20
24.19199
 11
-61.291068
 21
23.94199
  0
LINE
  8
ボルト／ビス
  6
CONTINUOUS
 10
-61.14673
 20
24.19199
 11
-61.291068
 21
24.44199
  0
LINE
  8
ボルト／ビス
  6
CONTINUOUS
 10
-61.579742
 20
23.94199
 11
-61.72408
 21
24.19199
  0
LINE
  8
ボルト／ビス
  6
CONTINUOUS
 10
-61.579742
 20
24.44199
 11
-61.72408
 21
24.19199
  0
CIRCLE
  8
ボルト／ビス
  6
CONTINUOUS
 10
-61.435405
 20
24.19199
 40
0.25
  0
LINE
  8
ボルト／ビス
  6
CONTINUOUS
 10
-61.291068
 20
24.44199
 11
-61.579742
 21
24.44199
  0
LINE
  8
ボルト／ビス
  6
CONTINUOUS
 10
-61.579742
 20
23.94199
 11
-61.291068
 21
23.94199
  0
ENDBLK
  0
BLOCK
  2
*GRP_0013
 70
    65
 10
0.0
 20
0.0
  0
INSERT
  2
*GRP_0021
  8
補助線
  6
CONTINUOUS
 10
0.0
 20
0.0
  0
LINE
  8
ボルト／ビス
  6
CONTINUOUS
 10
-84.935405
 20
32.980665
 11
-84.685405
 21
32.836327
  0
LINE
  8
ボルト／ビス
  6
CONTINUOUS
 10
-84.935405
 20
32.980665
 11
-85.185405
 21
32.836327
  0
LINE
  8
ボルト／ビス
  6
CONTINUOUS
 10
-84.685405
 20
32.547653
 11
-84.935405
 21
32.403315
  0
LINE
  8
ボルト／ビス
  6
CONTINUOUS
 10
-85.185405
 20
32.547653
 11
-84.935405
 21
32.403315
  0
CIRCLE
  8
ボルト／ビス
  6
CONTINUOUS
 10
-84.935405
 20
32.69199
 40
0.25
  0
LINE
  8
ボルト／ビス
  6
CONTINUOUS
 10
-85.185405
 20
32.836327
 11
-85.185405
 21
32.547653
  0
LINE
  8
ボルト／ビス
  6
CONTINUOUS
 10
-84.685405
 20
32.547653
 11
-84.685405
 21
32.836327
  0
ENDBLK
  0
BLOCK
  2
*GRP_0014
 70
    65
 10
0.0
 20
0.0
  0
INSERT
  2
*GRP_0022
  8
補助線
  6
CONTINUOUS
 10
0.0
 20
0.0
  0
LINE
  8
ボルト／ビス
  6
CONTINUOUS
 10
-93.72408
 20
24.19199
 11
-93.579742
 21
23.94199
  0
LINE
  8
ボルト／ビス
  6
CONTINUOUS
 10
-93.72408
 20
24.19199
 11
-93.579742
 21
24.44199
  0
LINE
  8
ボルト／ビス
  6
CONTINUOUS
 10
-93.291068
 20
23.94199
 11
-93.14673
 21
24.19199
  0
LINE
  8
ボルト／ビス
  6
CONTINUOUS
 10
-93.291068
 20
24.44199
 11
-93.14673
 21
24.19199
  0
CIRCLE
  8
ボルト／ビス
  6
CONTINUOUS
 10
-93.435405
 20
24.19199
 40
0.25
  0
LINE
  8
ボルト／ビス
  6
CONTINUOUS
 10
-93.579742
 20
24.44199
 11
-93.291068
 21
24.44199
  0
LINE
  8
ボルト／ビス
  6
CONTINUOUS
 10
-93.291068
 20
23.94199
 11
-93.579742
 21
23.94199
  0
ENDBLK
  0
BLOCK
  2
*GRP_0015
 70
    65
 10
0.0
 20
0.0
  0
LINE
  8
補助線
  6
BYBLOCK
 62
     0
 10
-85.060405
 20
0.69199
 11
-84.810405
 21
0.69199
  0
LINE
  8
補助線
  6
BYBLOCK
 62
     0
 10
-84.935405
 20
0.56699
 11
-84.935405
 21
0.81699
  0
ENDBLK
  0
BLOCK
  2
*GRP_0016
 70
    65
 10
0.0
 20
0.0
  0
LINE
  8
補助線
  6
BYBLOCK
 62
     0
 10
-93.435405
 20
9.06699
 11
-93.435405
 21
9.31699
  0
LINE
  8
補助線
  6
BYBLOCK
 62
     0
 10
-93.560405
 20
9.19199
 11
-93.310405
 21
9.19199
  0
ENDBLK
  0
BLOCK
  2
*GRP_0017
 70
    65
 10
0.0
 20
0.0
  0
LINE
  8
補助線
  6
BYBLOCK
 62
     0
 10
-69.810405
 20
0.69199
 11
-70.060405
 21
0.69199
  0
LINE
  8
補助線
  6
BYBLOCK
 62
     0
 10
-69.935405
 20
0.56699
 11
-69.935405
 21
0.81699
  0
ENDBLK
  0
BLOCK
  2
*GRP_0018
 70
    65
 10
0.0
 20
0.0
  0
LINE
  8
補助線
  6
BYBLOCK
 62
     0
 10
-61.435405
 20
9.06699
 11
-61.435405
 21
9.31699
  0
LINE
  8
補助線
  6
BYBLOCK
 62
     0
 10
-61.310405
 20
9.19199
 11
-61.560405
 21
9.19199
  0
ENDBLK
  0
BLOCK
  2
*GRP_0019
 70
    65
 10
0.0
 20
0.0
  0
LINE
  8
補助線
  6
BYBLOCK
 62
     0
 10
-69.810405
 20
32.69199
 11
-70.060405
 21
32.69199
  0
LINE
  8
補助線
  6
BYBLOCK
 62
     0
 10
-69.935405
 20
32.81699
 11
-69.935405
 21
32.56699
  0
ENDBLK
  0
BLOCK
  2
*GRP_0020
 70
    65
 10
0.0
 20
0.0
  0
LINE
  8
補助線
  6
BYBLOCK
 62
     0
 10
-61.435405
 20
24.31699
 11
-61.435405
 21
24.06699
  0
LINE
  8
補助線
  6
BYBLOCK
 62
     0
 10
-61.310405
 20
24.19199
 11
-61.560405
 21
24.19199
  0
ENDBLK
  0
BLOCK
  2
*GRP_0021
 70
    65
 10
0.0
 20
0.0
  0
LINE
  8
補助線
  6
BYBLOCK
 62
     0
 10
-85.060405
 20
32.69199
 11
-84.810405
 21
32.69199
  0
LINE
  8
補助線
  6
BYBLOCK
 62
     0
 10
-84.935405
 20
32.81699
 11
-84.935405
 21
32.56699
  0
ENDBLK
  0
BLOCK
  2
*GRP_0022
 70
    65
 10
0.0
 20
0.0
  0
LINE
  8
補助線
  6
BYBLOCK
 62
     0
 10
-93.435405
 20
24.31699
 11
-93.435405
 21
24.06699
  0
LINE
  8
補助線
  6
BYBLOCK
 62
     0
 10
-93.560405
 20
24.19199
 11
-93.310405
 21
24.19199
  0
ENDBLK
  0
BLOCK
  2
*GRP_0023
 70
    65
 10
0.0
 20
0.0
  0
LINE
  8
ボルト／ビス
  6
CONTINUOUS
 10
-93.43541
 20
-62.998268
 11
-93.43541
 21
-62.298265
  0
LINE
  8
ボルト／ビス
  6
CONTINUOUS
 10
-93.985412
 20
-62.998268
 11
-93.985412
 21
-62.898265
  0
LINE
  8
ボルト／ビス
  6
CONTINUOUS
 10
-93.985412
 20
-62.898265
 11
-92.88541
 21
-62.898265
  0
LINE
  8
ボルト／ビス
  6
CONTINUOUS
 10
-92.88541
 20
-62.898265
 11
-92.88541
 21
-62.998268
  0
LINE
  8
ボルト／ビス
  6
CONTINUOUS
 10
-93.985412
 20
-62.998268
 11
-92.88541
 21
-62.998268
  0
LINE
  8
ボルト／ビス
  6
CONTINUOUS
 10
-93.88541
 20
-62.848268
 11
-93.88541
 21
-62.898265
  0
LINE
  8
ボルト／ビス
  6
CONTINUOUS
 10
-93.88541
 20
-62.848268
 11
-92.98541
 21
-62.848268
  0
LINE
  8
ボルト／ビス
  6
CONTINUOUS
 10
-92.98541
 20
-62.848268
 11
-92.98541
 21
-62.898265
  0
LINE
  8
ボルト／ビス
  6
CONTINUOUS
 62
    64
 10
-93.675972
 20
-62.548268
 11
-93.724085
 21
-62.56578
  0
ARC
  8
ボルト／ビス
  6
CONTINUOUS
 62
    64
 10
-93.651918
 20
-62.705736
 40
0.157468
 50
62.721967
 51
90.0
  0
ARC
  8
ボルト／ビス
  6
CONTINUOUS
 62
    64
 10
-93.435412
 20
-63.151871
 40
0.603603
 50
76.165002
 51
103.834985
  0
LINE
  8
ボルト／ビス
  6
CONTINUOUS
 62
    64
 10
-93.194848
 20
-62.548268
 11
-93.146735
 21
-62.56578
  0
ARC
  8
ボルト／ビス
  6
CONTINUOUS
 62
    64
 10
-93.218905
 20
-62.705736
 40
0.157468
 50
90.0
 51
117.278033
  0
LINE
  8
ボルト／ビス
  6
CONTINUOUS
 62
    64
 10
-93.675972
 20
-62.548268
 11
-93.194848
 21
-62.548268
  0
LINE
  8
ボルト／ビス
  6
CONTINUOUS
 62
    64
 10
-93.146735
 20
-62.56578
 11
-93.146735
 21
-62.748265
  0
LINE
  8
ボルト／ビス
  6
CONTINUOUS
 62
    64
 10
-93.291072
 20
-62.56578
 11
-93.291072
 21
-62.748265
  0
LINE
  8
ボルト／ビス
  6
CONTINUOUS
 62
    64
 10
-93.724085
 20
-62.56578
 11
-93.724085
 21
-62.748265
  0
LINE
  8
ボルト／ビス
  6
CONTINUOUS
 62
    64
 10
-93.579748
 20
-62.56578
 11
-93.579748
 21
-62.748265
  0
LINE
  8
ボルト／ビス
  6
CONTINUOUS
 10
-93.724085
 20
-62.748265
 11
-93.146735
 21
-62.748265
  0
LINE
  8
ボルト／ビス
  6
CONTINUOUS
 10
-93.73541
 20
-62.748265
 11
-93.73541
 21
-62.848268
  0
LINE
  8
ボルト／ビス
  6
CONTINUOUS
 10
-93.73541
 20
-62.748265
 11
-93.13541
 21
-62.748265
  0
LINE
  8
ボルト／ビス
  6
CONTINUOUS
 10
-93.13541
 20
-62.748265
 11
-93.13541
 21
-62.848268
  0
ENDBLK
  0
BLOCK
  2
*GRP_0024
 70
    65
 10
0.0
 20
0.0
  0
LINE
  8
ボルト／ビス
  6
CONTINUOUS
 10
-61.435405
 20
-62.998268
 11
-61.435405
 21
-62.298265
  0
LINE
  8
ボルト／ビス
  6
CONTINUOUS
 10
-60.885402
 20
-62.998268
 11
-60.885402
 21
-62.898265
  0
LINE
  8
ボルト／ビス
  6
CONTINUOUS
 10
-60.885402
 20
-62.898265
 11
-61.985405
 21
-62.898265
  0
LINE
  8
ボルト／ビス
  6
CONTINUOUS
 10
-61.985405
 20
-62.898265
 11
-61.985405
 21
-62.998268
  0
LINE
  8
ボルト／ビス
  6
CONTINUOUS
 10
-60.885402
 20
-62.998268
 11
-61.985405
 21
-62.998268
  0
LINE
  8
ボルト／ビス
  6
CONTINUOUS
 10
-60.985405
 20
-62.848268
 11
-60.985405
 21
-62.898265
  0
LINE
  8
ボルト／ビス
  6
CONTINUOUS
 10
-60.985405
 20
-62.848268
 11
-61.885405
 21
-62.848268
  0
LINE
  8
ボルト／ビス
  6
CONTINUOUS
 10
-61.885405
 20
-62.848268
 11
-61.885405
 21
-62.898265
  0
LINE
  8
ボルト／ビス
  6
CONTINUOUS
 62
    64
 10
-61.194842
 20
-62.548268
 11
-61.14673
 21
-62.56578
  0
ARC
  8
ボルト／ビス
  6
CONTINUOUS
 62
    64
 10
-61.218897
 20
-62.705736
 40
0.157468
 50
90.0
 51
117.278033
  0
ARC
  8
ボルト／ビス
  6
CONTINUOUS
 62
    64
 10
-61.435404
 20
-63.151871
 40
0.603603
 50
76.165015
 51
103.834998
  0
LINE
  8
ボルト／ビス
  6
CONTINUOUS
 62
    64
 10
-61.675968
 20
-62.548268
 11
-61.72408
 21
-62.56578
  0
ARC
  8
ボルト／ビス
  6
CONTINUOUS
 62
    64
 10
-61.65191
 20
-62.705736
 40
0.157468
 50
62.721967
 51
90.0
  0
LINE
  8
ボルト／ビス
  6
CONTINUOUS
 62
    64
 10
-61.194842
 20
-62.548268
 11
-61.675968
 21
-62.548268
  0
LINE
  8
ボルト／ビス
  6
CONTINUOUS
 62
    64
 10
-61.72408
 20
-62.56578
 11
-61.72408
 21
-62.748265
  0
LINE
  8
ボルト／ビス
  6
CONTINUOUS
 62
    64
 10
-61.579742
 20
-62.56578
 11
-61.579742
 21
-62.748265
  0
LINE
  8
ボルト／ビス
  6
CONTINUOUS
 62
    64
 10
-61.14673
 20
-62.56578
 11
-61.14673
 21
-62.748265
  0
LINE
  8
ボルト／ビス
  6
CONTINUOUS
 62
    64
 10
-61.291068
 20
-62.56578
 11
-61.291068
 21
-62.748265
  0
LINE
  8
ボルト／ビス
  6
CONTINUOUS
 10
-61.14673
 20
-62.748265
 11
-61.72408
 21
-62.748265
  0
LINE
  8
ボルト／ビス
  6
CONTINUOUS
 10
-61.135405
 20
-62.748265
 11
-61.135405
 21
-62.848268
  0
LINE
  8
ボルト／ビス
  6
CONTINUOUS
 10
-61.135405
 20
-62.748265
 11
-61.735405
 21
-62.748265
  0
LINE
  8
ボルト／ビス
  6
CONTINUOUS
 10
-61.735405
 20
-62.748265
 11
-61.735405
 21
-62.848268
  0
ENDBLK
  0
BLOCK
  2
*GRP_0025
 70
    65
 10
0.0
 20
0.0
  0
INSERT
  2
*GRP_0026
  8
補助線
  6
CONTINUOUS
 10
0.0
 20
0.0
  0
CIRCLE
  8
別途部材
  6
CONTINUOUS
 10
-94.235427
 20
-67.498323
 40
0.3
  0
CIRCLE
  8
別途部材
  6
CONTINUOUS
 10
-94.235427
 20
-67.498323
 40
0.15
  0
LINE
  8
別途部材
  6
CONTINUOUS
 10
-94.085427
 20
-65.398322
 11
-93.935427
 21
-65.398322
  0
LINE
  8
別途部材
  6
CONTINUOUS
 10
-93.935427
 20
-67.498323
 11
-93.935427
 21
-65.398322
  0
LINE
  8
別途部材
  6
CONTINUOUS
 10
-94.085427
 20
-65.398322
 11
-94.085427
 21
-67.238515
  0
LINE
  8
別途部材
  6
CONTINUOUS
 10
-94.085427
 20
-69.598322
 11
-93.935427
 21
-69.598322
  0
LINE
  8
別途部材
  6
CONTINUOUS
 10
-93.935427
 20
-67.498323
 11
-93.935427
 21
-69.598322
  0
LINE
  8
別途部材
  6
CONTINUOUS
 10
-94.085427
 20
-69.598322
 11
-94.085427
 21
-67.75813
  0
LINE
  8
別途部材
  6
CONTINUOUS
 10
-94.085427
 20
-65.79832
 11
-93.935427
 21
-65.79832
  0
LINE
  8
別途部材
  6
CONTINUOUS
 10
-94.085427
 20
-66.19832
 11
-93.935427
 21
-66.19832
  0
LINE
  8
別途部材
  6
CONTINUOUS
 10
-94.085427
 20
-66.598322
 11
-93.935427
 21
-66.598322
  0
LINE
  8
別途部材
  6
CONTINUOUS
 10
-94.085427
 20
-69.19832
 11
-93.935427
 21
-69.19832
  0
LINE
  8
別途部材
  6
CONTINUOUS
 10
-94.085427
 20
-68.79832
 11
-93.935427
 21
-68.79832
  0
LINE
  8
別途部材
  6
CONTINUOUS
 10
-94.085427
 20
-68.398322
 11
-93.935427
 21
-68.398322
  0
ENDBLK
  0
BLOCK
  2
*GRP_0026
 70
    65
 10
0.0
 20
0.0
  0
LINE
  8
補助線
  6
BYBLOCK
 62
     0
 10
-93.985427
 20
-67.498323
 11
-94.485427
 21
-67.498323
  0
LINE
  8
補助線
  6
BYBLOCK
 62
     0
 10
-94.235427
 20
-67.24832
 11
-94.235427
 21
-67.74832
  0
ENDBLK
  0
BLOCK
  2
*DIM_0027
 70
    65
 10
0.0
 20
0.0
  0
LINE
  8
寸法
  6
CONTINUOUS
 10
-52.685383
 20
-71.248268
 11
-52.685383
 21
-26.094458
  0
LINE
  8
寸法
  6
CONTINUOUS
 10
-62.435405
 20
-26.094458
 11
-52.685383
 21
-26.094458
  0
POINT
  8
寸法
 10
-62.435405
 20
-26.094458
  0
POINT
  8
寸法
 10
-52.685383
 20
-26.094458
  0
TEXT
  7
TextStyle03
  8
寸法
  6
CONTINUOUS
 10
-59.075
 20
-25.725
  1
※
 40
3.0
 72
     5
 11
-56.075
 21
-25.725
  0
ENDBLK
  0
BLOCK
  2
*DIM_0028
 70
    65
 10
0.0
 20
0.0
  0
LINE
  8
寸法
  6
CONTINUOUS
 10
-102.185427
 20
-71.248268
 11
-102.185427
 21
-26.094458
  0
LINE
  8
寸法
  6
CONTINUOUS
 10
-92.435405
 20
-26.094458
 11
-102.185427
 21
-26.094458
  0
POINT
  8
寸法
 10
-92.435405
 20
-26.094458
  0
POINT
  8
寸法
 10
-102.185427
 20
-26.094458
  0
TEXT
  7
TextStyle03
  8
寸法
  6
CONTINUOUS
 10
-98.825
 20
-25.725
  1
※
 40
3.0
 72
     5
 11
-95.825
 21
-25.725
  0
ENDBLK
  0
BLOCK
  2
*DIM_0029
 70
    65
 10
0.0
 20
0.0
  0
LINE
  8
寸法
  6
CONTINUOUS
 10
-58.935405
 20
-62.998265
 11
-41.30588
 21
-62.998265
  0
LINE
  8
寸法
  6
CONTINUOUS
 10
-59.935383
 20
-71.248265
 11
-41.30588
 21
-71.248265
  0
LINE
  8
寸法
  6
CONTINUOUS
 10
-41.30588
 20
-62.998265
 11
-41.30588
 21
-71.248265
  0
POINT
  8
寸法
 10
-41.30588
 20
-62.998265
  0
POINT
  8
寸法
 10
-41.30588
 20
-71.248265
  0
TEXT
  7
TextStyle03
  8
寸法
  6
CONTINUOUS
 10
-41.7
 20
-69.5625
  1
165
 40
3.0
 50
90.0
 72
     5
 11
-41.7
 21
-64.6875
  0
ENDBLK
  0
BLOCK
  2
*DIM_0030
 70
    65
 10
0.0
 20
0.0
  0
LINE
  8
寸法
  6
CONTINUOUS
 10
-51.685383
 20
-75.748265
 11
-41.30588
 21
-75.748265
  0
LINE
  8
寸法
  6
CONTINUOUS
 10
-41.30588
 20
-71.248265
 11
-41.30588
 21
-75.748265
  0
POINT
  8
寸法
 10
-41.30588
 20
-75.748265
  0
TEXT
  7
TextStyle03
  8
寸法
  6
CONTINUOUS
 10
-41.7
 20
-75.0
  1
※
 40
3.0
 50
90.0
 72
     5
 11
-41.7
 21
-72.0
  0
ENDBLK
  0
BLOCK
  2
*GRP_0031
 70
    65
 10
0.0
 20
0.0
  0
LINE
  8
型材断面
  6
DOT
 62
    47
 10
14.931332
 20
-65.16483
 11
16.946628
 21
-67.180125
  0
LINE
  8
型材断面
  6
DOT
 62
    47
 10
38.26589
 20
-41.830275
 11
40.281185
 21
-43.84557
  0
LINE
  8
型材断面
  6
DOT
 10
40.281185
 20
-43.84557
 11
16.946628
 21
-67.180125
  0
LINE
  8
別途部材
  6
DOT
 62
    96
 10
13.16358
 20
-64.811262
 11
13.799975
 21
-66.296188
  0
INSERT
  2
*GRP_0035
  8
別途部材
  6
DOT
 10
0.0
 20
0.0
  0
LINE
  8
別途部材
  6
DOT
 62
    96
 10
37.91232
 20
-40.062522
 11
39.397245
 21
-40.69892
  0
INSERT
  2
*GRP_0036
  8
別途部材
  6
DOT
 10
0.0
 20
0.0
  0
LINE
  8
別途部材
  6
DOT
 10
39.397245
 20
-40.69892
 11
13.799975
 21
-66.296188
  0
LINE
  8
別途部材
  6
DOT
 62
    96
 10
37.91232
 20
-40.062522
 11
13.16358
 21
-64.811262
  0
ARC
  8
別途部材
  6
DOT
 10
32.653212
 20
-59.552153
 40
18.0625
 50
78.855026
 51
191.144974
  0
ENDBLK
  0
BLOCK
  2
*GRP_0032
 70
    65
 10
0.0
 20
0.0
  0
LINE
  8
ボルト／ビス
  6
CONTINUOUS
 10
17.64058
 20
-62.998268
 11
17.64058
 21
-62.298265
  0
LINE
  8
ボルト／ビス
  6
CONTINUOUS
 10
17.090577
 20
-62.998268
 11
17.090577
 21
-62.898265
  0
LINE
  8
ボルト／ビス
  6
CONTINUOUS
 10
17.090577
 20
-62.898265
 11
18.19058
 21
-62.898265
  0
LINE
  8
ボルト／ビス
  6
CONTINUOUS
 10
18.19058
 20
-62.898265
 11
18.19058
 21
-62.998268
  0
LINE
  8
ボルト／ビス
  6
CONTINUOUS
 10
17.090577
 20
-62.998268
 11
18.19058
 21
-62.998268
  0
LINE
  8
ボルト／ビス
  6
CONTINUOUS
 10
17.19058
 20
-62.848268
 11
17.19058
 21
-62.898265
  0
LINE
  8
ボルト／ビス
  6
CONTINUOUS
 10
17.19058
 20
-62.848268
 11
18.09058
 21
-62.848268
  0
LINE
  8
ボルト／ビス
  6
CONTINUOUS
 10
18.09058
 20
-62.848268
 11
18.09058
 21
-62.898265
  0
LINE
  8
ボルト／ビス
  6
CONTINUOUS
 62
    64
 10
17.400017
 20
-62.548268
 11
17.351905
 21
-62.56578
  0
ARC
  8
ボルト／ビス
  6
CONTINUOUS
 62
    64
 10
17.42407
 20
-62.705737
 40
0.157468
 50
62.721967
 51
90.0
  0
ARC
  8
ボルト／ビス
  6
CONTINUOUS
 62
    64
 10
17.640577
 20
-63.151873
 40
0.603603
 50
76.165002
 51
103.834985
  0
LINE
  8
ボルト／ビス
  6
CONTINUOUS
 62
    64
 10
17.881142
 20
-62.548268
 11
17.929255
 21
-62.56578
  0
ARC
  8
ボルト／ビス
  6
CONTINUOUS
 62
    64
 10
17.857083
 20
-62.705737
 40
0.157468
 50
90.0
 51
117.278033
  0
LINE
  8
ボルト／ビス
  6
CONTINUOUS
 62
    64
 10
17.400017
 20
-62.548268
 11
17.881142
 21
-62.548268
  0
LINE
  8
ボルト／ビス
  6
CONTINUOUS
 62
    64
 10
17.929255
 20
-62.56578
 11
17.929255
 21
-62.748265
  0
LINE
  8
ボルト／ビス
  6
CONTINUOUS
 62
    64
 10
17.784917
 20
-62.56578
 11
17.784917
 21
-62.748265
  0
LINE
  8
ボルト／ビス
  6
CONTINUOUS
 62
    64
 10
17.351905
 20
-62.56578
 11
17.351905
 21
-62.748265
  0
LINE
  8
ボルト／ビス
  6
CONTINUOUS
 62
    64
 10
17.496242
 20
-62.56578
 11
17.496242
 21
-62.748265
  0
LINE
  8
ボルト／ビス
  6
CONTINUOUS
 10
17.351905
 20
-62.748265
 11
17.929255
 21
-62.748265
  0
LINE
  8
ボルト／ビス
  6
CONTINUOUS
 10
17.34058
 20
-62.748265
 11
17.34058
 21
-62.848268
  0
LINE
  8
ボルト／ビス
  6
CONTINUOUS
 10
17.34058
 20
-62.748265
 11
17.94058
 21
-62.748265
  0
LINE
  8
ボルト／ビス
  6
CONTINUOUS
 10
17.94058
 20
-62.748265
 11
17.94058
 21
-62.848268
  0
ENDBLK
  0
BLOCK
  2
*GRP_0033
 70
    65
 10
0.0
 20
0.0
  0
LINE
  8
ボルト／ビス
  6
CONTINUOUS
 10
49.640585
 20
-62.998268
 11
49.640585
 21
-62.298265
  0
LINE
  8
ボルト／ビス
  6
CONTINUOUS
 10
50.190588
 20
-62.998268
 11
50.190588
 21
-62.898265
  0
LINE
  8
ボルト／ビス
  6
CONTINUOUS
 10
50.190588
 20
-62.898265
 11
49.090585
 21
-62.898265
  0
LINE
  8
ボルト／ビス
  6
CONTINUOUS
 10
49.090585
 20
-62.898265
 11
49.090585
 21
-62.998268
  0
LINE
  8
ボルト／ビス
  6
CONTINUOUS
 10
50.190588
 20
-62.998268
 11
49.090585
 21
-62.998268
  0
LINE
  8
ボルト／ビス
  6
CONTINUOUS
 10
50.090585
 20
-62.848268
 11
50.090585
 21
-62.898265
  0
LINE
  8
ボルト／ビス
  6
CONTINUOUS
 10
50.090585
 20
-62.848268
 11
49.190585
 21
-62.848268
  0
LINE
  8
ボルト／ビス
  6
CONTINUOUS
 10
49.190585
 20
-62.848268
 11
49.190585
 21
-62.898265
  0
LINE
  8
ボルト／ビス
  6
CONTINUOUS
 62
    64
 10
49.881148
 20
-62.548268
 11
49.92926
 21
-62.56578
  0
ARC
  8
ボルト／ビス
  6
CONTINUOUS
 62
    64
 10
49.857091
 20
-62.705737
 40
0.157468
 50
90.0
 51
117.278033
  0
ARC
  8
ボルト／ビス
  6
CONTINUOUS
 62
    64
 10
49.640585
 20
-63.151873
 40
0.603603
 50
76.165015
 51
103.834998
  0
LINE
  8
ボルト／ビス
  6
CONTINUOUS
 62
    64
 10
49.400022
 20
-62.548268
 11
49.35191
 21
-62.56578
  0
ARC
  8
ボルト／ビス
  6
CONTINUOUS
 62
    64
 10
49.424078
 20
-62.705737
 40
0.157468
 50
62.721967
 51
90.0
  0
LINE
  8
ボルト／ビス
  6
CONTINUOUS
 62
    64
 10
49.881148
 20
-62.548268
 11
49.400022
 21
-62.548268
  0
LINE
  8
ボルト／ビス
  6
CONTINUOUS
 62
    64
 10
49.35191
 20
-62.56578
 11
49.35191
 21
-62.748265
  0
LINE
  8
ボルト／ビス
  6
CONTINUOUS
 62
    64
 10
49.496248
 20
-62.56578
 11
49.496248
 21
-62.748265
  0
LINE
  8
ボルト／ビス
  6
CONTINUOUS
 62
    64
 10
49.92926
 20
-62.56578
 11
49.92926
 21
-62.748265
  0
LINE
  8
ボルト／ビス
  6
CONTINUOUS
 62
    64
 10
49.784922
 20
-62.56578
 11
49.784922
 21
-62.748265
  0
LINE
  8
ボルト／ビス
  6
CONTINUOUS
 10
49.92926
 20
-62.748265
 11
49.35191
 21
-62.748265
  0
LINE
  8
ボルト／ビス
  6
CONTINUOUS
 10
49.940585
 20
-62.748265
 11
49.940585
 21
-62.848268
  0
LINE
  8
ボルト／ビス
  6
CONTINUOUS
 10
49.940585
 20
-62.748265
 11
49.340585
 21
-62.748265
  0
LINE
  8
ボルト／ビス
  6
CONTINUOUS
 10
49.340585
 20
-62.748265
 11
49.340585
 21
-62.848268
  0
ENDBLK
  0
BLOCK
  2
*GRP_0034
 70
    65
 10
0.0
 20
0.0
  0
INSERT
  2
*GRP_0037
  8
補助線
  6
CONTINUOUS
 10
0.0
 20
0.0
  0
CIRCLE
  8
別途部材
  6
CONTINUOUS
 10
16.840562
 20
-67.498323
 40
0.3
  0
CIRCLE
  8
別途部材
  6
CONTINUOUS
 10
16.840562
 20
-67.498323
 40
0.15
  0
LINE
  8
別途部材
  6
CONTINUOUS
 10
16.990562
 20
-65.398322
 11
17.140562
 21
-65.398322
  0
LINE
  8
別途部材
  6
CONTINUOUS
 10
17.140562
 20
-67.498323
 11
17.140562
 21
-65.398322
  0
LINE
  8
別途部材
  6
CONTINUOUS
 10
16.990562
 20
-65.398322
 11
16.990562
 21
-67.238515
  0
LINE
  8
別途部材
  6
CONTINUOUS
 10
16.990562
 20
-69.598322
 11
17.140562
 21
-69.598322
  0
LINE
  8
別途部材
  6
CONTINUOUS
 10
17.140562
 20
-67.498323
 11
17.140562
 21
-69.598322
  0
LINE
  8
別途部材
  6
CONTINUOUS
 10
16.990562
 20
-69.598322
 11
16.990562
 21
-67.75813
  0
LINE
  8
別途部材
  6
CONTINUOUS
 10
16.990562
 20
-65.79832
 11
17.140562
 21
-65.79832
  0
LINE
  8
別途部材
  6
CONTINUOUS
 10
16.990562
 20
-66.19832
 11
17.140562
 21
-66.19832
  0
LINE
  8
別途部材
  6
CONTINUOUS
 10
16.990562
 20
-66.598322
 11
17.140562
 21
-66.598322
  0
LINE
  8
別途部材
  6
CONTINUOUS
 10
16.990562
 20
-69.19832
 11
17.140562
 21
-69.19832
  0
LINE
  8
別途部材
  6
CONTINUOUS
 10
16.990562
 20
-68.79832
 11
17.140562
 21
-68.79832
  0
LINE
  8
別途部材
  6
CONTINUOUS
 10
16.990562
 20
-68.398322
 11
17.140562
 21
-68.398322
  0
ENDBLK
  0
BLOCK
  2
*GRP_0035
 70
    65
 10
0.0
 20
0.0
  0
LINE
  8
ボルト／ビス
  6
DOT
 10
14.22424
 20
-63.750605
 11
13.729265
 21
-63.25563
  0
LINE
  8
ボルト／ビス
  6
DOT
 10
13.83533
 20
-64.139515
 11
13.764617
 21
-64.068803
  0
LINE
  8
ボルト／ビス
  6
DOT
 10
13.764617
 20
-64.068803
 11
14.542438
 21
-63.290985
  0
LINE
  8
ボルト／ビス
  6
DOT
 10
14.542438
 20
-63.290985
 11
14.61315
 21
-63.361697
  0
LINE
  8
ボルト／ビス
  6
DOT
 10
13.83533
 20
-64.139515
 11
14.61315
 21
-63.361697
  0
LINE
  8
ボルト／ビス
  6
DOT
 10
13.799978
 20
-63.962738
 11
13.83533
 21
-63.99809
  0
LINE
  8
ボルト／ビス
  6
DOT
 10
13.799978
 20
-63.962738
 11
14.436372
 21
-63.32634
  0
LINE
  8
ボルト／ビス
  6
DOT
 10
14.436372
 20
-63.32634
 11
14.471728
 21
-63.361695
  0
LINE
  8
ボルト／ビス
  6
DOT
 62
    64
 10
13.73594
 20
-63.60251
 11
13.714302
 21
-63.648915
  0
ARC
  8
ボルト／ビス
  6
DOT
 62
    64
 10
13.864295
 20
-63.69685
 40
0.157468
 50
107.721967
 51
135.0
  0
ARC
  8
ボルト／ビス
  6
DOT
 62
    64
 10
14.332854
 20
-63.859223
 40
0.603603
 50
121.165002
 51
148.834985
  0
LINE
  8
ボルト／ビス
  6
DOT
 62
    64
 10
14.076145
 20
-63.262305
 11
14.12255
 21
-63.240668
  0
ARC
  8
ボルト／ビス
  6
DOT
 62
    64
 10
14.170481
 20
-63.390664
 40
0.157468
 50
135.0
 51
162.278033
  0
LINE
  8
ボルト／ビス
  6
DOT
 62
    64
 10
13.73594
 20
-63.60251
 11
14.076145
 21
-63.262305
  0
LINE
  8
ボルト／ビス
  6
DOT
 62
    64
 10
14.12255
 20
-63.240668
 11
14.251587
 21
-63.369703
  0
LINE
  8
ボルト／ビス
  6
DOT
 62
    64
 10
14.020487
 20
-63.342728
 11
14.149525
 21
-63.471765
  0
LINE
  8
ボルト／ビス
  6
DOT
 62
    64
 10
13.714302
 20
-63.648915
 11
13.843338
 21
-63.77795
  0
LINE
  8
ボルト／ビス
  6
DOT
 62
    64
 10
13.816365
 20
-63.546853
 11
13.9454
 21
-63.67589
  0
LINE
  8
ボルト／ビス
  6
DOT
 10
13.843338
 20
-63.77795
 11
14.251587
 21
-63.369703
  0
LINE
  8
ボルト／ビス
  6
DOT
 10
13.83533
 20
-63.78596
 11
13.906042
 21
-63.856672
  0
LINE
  8
ボルト／ビス
  6
DOT
 10
13.83533
 20
-63.78596
 11
14.259595
 21
-63.361695
  0
LINE
  8
ボルト／ビス
  6
DOT
 10
14.259595
 20
-63.361695
 11
14.330307
 21
-63.432408
  0
ENDBLK
  0
BLOCK
  2
*GRP_0036
 70
    65
 10
0.0
 20
0.0
  0
LINE
  8
ボルト／ビス
  6
DOT
 10
36.851663
 20
-41.123185
 11
36.356685
 21
-40.628208
  0
LINE
  8
ボルト／ビス
  6
DOT
 10
37.240573
 20
-40.734275
 11
37.16986
 21
-40.663562
  0
LINE
  8
ボルト／ビス
  6
DOT
 10
37.16986
 20
-40.663562
 11
36.39204
 21
-41.44138
  0
LINE
  8
ボルト／ビス
  6
DOT
 10
36.39204
 20
-41.44138
 11
36.462752
 21
-41.512093
  0
LINE
  8
ボルト／ビス
  6
DOT
 10
37.240573
 20
-40.734275
 11
36.462752
 21
-41.512093
  0
LINE
  8
ボルト／ビス
  6
DOT
 10
37.063793
 20
-40.69892
 11
37.099148
 21
-40.734275
  0
LINE
  8
ボルト／ビス
  6
DOT
 10
37.063793
 20
-40.69892
 11
36.427398
 21
-41.335318
  0
LINE
  8
ボルト／ビス
  6
DOT
 10
36.427398
 20
-41.335318
 11
36.46275
 21
-41.37067
  0
LINE
  8
ボルト／ビス
  6
DOT
 62
    64
 10
36.703567
 20
-40.634883
 11
36.74997
 21
-40.613245
  0
ARC
  8
ボルト／ビス
  6
DOT
 62
    64
 10
36.797904
 20
-40.763241
 40
0.157468
 50
135.0
 51
162.278033
  0
ARC
  8
ボルト／ビス
  6
DOT
 62
    64
 10
36.960276
 20
-41.2318
 40
0.603603
 50
121.165015
 51
148.834998
  0
LINE
  8
ボルト／ビス
  6
DOT
 62
    64
 10
36.36336
 20
-40.97509
 11
36.341722
 21
-41.021495
  0
ARC
  8
ボルト／ビス
  6
DOT
 62
    64
 10
36.491718
 20
-41.069428
 40
0.157468
 50
107.721967
 51
135.0
  0
LINE
  8
ボルト／ビス
  6
DOT
 62
    64
 10
36.703567
 20
-40.634883
 11
36.36336
 21
-40.97509
  0
LINE
  8
ボルト／ビス
  6
DOT
 62
    64
 10
36.341722
 20
-41.021495
 11
36.47076
 21
-41.15053
  0
LINE
  8
ボルト／ビス
  6
DOT
 62
    64
 10
36.443785
 20
-40.919433
 11
36.57282
 21
-41.048467
  0
LINE
  8
ボルト／ビス
  6
DOT
 62
    64
 10
36.74997
 20
-40.613245
 11
36.879008
 21
-40.742282
  0
LINE
  8
ボルト／ビス
  6
DOT
 62
    64
 10
36.647907
 20
-40.715308
 11
36.776945
 21
-40.844345
  0
LINE
  8
ボルト／ビス
  6
DOT
 10
36.879008
 20
-40.742282
 11
36.47076
 21
-41.15053
  0
LINE
  8
ボルト／ビス
  6
DOT
 10
36.887015
 20
-40.734275
 11
36.957727
 21
-40.804987
  0
LINE
  8
ボルト／ビス
  6
DOT
 10
36.887015
 20
-40.734275
 11
36.46275
 21
-41.158537
  0
LINE
  8
ボルト／ビス
  6
DOT
 10
36.46275
 20
-41.158537
 11
36.533462
 21
-41.22925
  0
ENDBLK
  0
BLOCK
  2
*GRP_0037
 70
    65
 10
0.0
 20
0.0
  0
LINE
  8
補助線
  6
BYBLOCK
 62
     0
 10
17.090562
 20
-67.498323
 11
16.590562
 21
-67.498323
  0
LINE
  8
補助線
  6
BYBLOCK
 62
     0
 10
16.840562
 20
-67.24832
 11
16.840562
 21
-67.74832
  0
ENDBLK
  0
BLOCK
  2
*DIM_0038
 70
    65
 10
0.0
 20
0.0
  0
LINE
  8
寸法
  6
CONTINUOUS
 10
170.304785
 20
75.557477
 11
179.14881
 21
75.557477
  0
LINE
  8
寸法
  6
CONTINUOUS
 10
170.304785
 20
45.557477
 11
179.14881
 21
45.557477
  0
LINE
  8
寸法
  6
CONTINUOUS
 10
179.14881
 20
75.557477
 11
179.14881
 21
45.557477
  0
POINT
  8
寸法
 10
179.14881
 20
75.557477
  0
POINT
  8
寸法
 10
179.14881
 20
45.557477
  0
TEXT
  7
TextStyle03
  8
寸法
  6
CONTINUOUS
 10
178.75
 20
58.1125
  1
600
 40
3.0
 50
90.0
 72
     5
 11
178.75
 21
62.9875
  0
ENDBLK
  0
BLOCK
  2
*DIM_0039
 70
    65
 10
0.0
 20
0.0
  0
LINE
  8
寸法
  6
CONTINUOUS
 10
167.304785
 20
78.557477
 11
167.304785
 21
86.20635
  0
LINE
  8
寸法
  6
CONTINUOUS
 10
137.304785
 20
78.557477
 11
137.304785
 21
86.20635
  0
LINE
  8
寸法
  6
CONTINUOUS
 10
167.304785
 20
86.20635
 11
137.304785
 21
86.20635
  0
POINT
  8
寸法
 10
167.304785
 20
86.20635
  0
POINT
  8
寸法
 10
137.304785
 20
86.20635
  0
TEXT
  7
TextStyle03
  8
寸法
  6
CONTINUOUS
 10
149.8625
 20
86.575
  1
600
 40
3.0
 72
     5
 11
154.7375
 21
86.575
  0
ENDBLK
  0
ENDSEC
  0
SECTION
  2
ENTITIES
  0
POLYLINE
  8
通り芯
  6
CONTINUOUS
 66
     1
 70
     1
  0
VERTEX
  8
通り芯
 10
-210.0
 20
-148.5
  0
VERTEX
  8
通り芯
 10
210.0
 20
-148.5
  0
VERTEX
  8
通り芯
 10
210.0
 20
148.5
  0
VERTEX
  8
通り芯
 10
-210.0
 20
148.5
  0
SEQEND
  0
INSERT
  2
*GRP_0001
  8
型材断面
  6
CONTINUOUS
 10
0.0
 20
0.0
  0
LINE
  8
型材断面
  6
CONTINUOUS
 10
-35.48472
 20
-6.182028
 11
-37.728165
 21
-10.067788
  0
LINE
  8
型材断面
  6
CONTINUOUS
 10
-35.48472
 20
-6.182028
 11
-33.241275
 21
-10.067788
  0
LINE
  8
型材断面
  6
CONTINUOUS
 10
-33.241275
 20
-10.067788
 11
-37.728165
 21
-10.067788
  0
LINE
  8
型材断面
  6
CONTINUOUS
 10
-35.48472
 20
-13.871575
 11
-34.590635
 21
-17.757335
  0
LINE
  8
型材断面
  6
CONTINUOUS
 10
-35.48472
 20
-13.871575
 11
-36.378805
 21
-17.757335
  0
LINE
  8
型材断面
  6
CONTINUOUS
 10
-36.378805
 20
-17.757335
 11
-34.590635
 21
-17.757335
  0
LINE
  8
型材断面
  6
CONTINUOUS
 10
-44.5186
 20
-11.47568
 11
8.13808
 21
-11.47568
  0
LINE
  8
型材断面
  6
CONTINUOUS
 10
-44.5186
 20
-22.675673
 11
8.13808
 21
-22.675673
  0
LINE
  8
型材断面
  6
CONTINUOUS
 10
-44.5186
 20
-29.515618
 11
8.13808
 21
-29.515618
  0
LINE
  8
型材断面
  6
DASHDOT
 10
-92.435405
 20
-77.76228
 11
-92.435405
 21
31.69199
  0
LINE
  8
型材断面
  6
DASHDOT
 10
-77.435405
 20
-77.76228
 11
-77.435405
 21
31.69199
  0
LINE
  8
型材断面
  6
DASHDOT
 10
-62.435405
 20
-77.76228
 11
-62.435405
 21
31.69199
  0
LINE
  8
型材断面
  6
DASHDOT
 10
-92.435405
 20
1.69199
 11
-62.435405
 21
1.69199
  0
LINE
  8
型材断面
  6
DASHDOT
 10
-92.435405
 20
16.69199
 11
-62.435405
 21
16.69199
  0
LINE
  8
型材断面
  6
DASHDOT
 10
-92.435405
 20
31.69199
 11
-62.435405
 21
31.69199
  0
LINE
  8
型材断面
  6
CONTINUOUS
 10
-100.459278
 20
16.69199
 11
-104.345038
 21
14.448545
  0
LINE
  8
型材断面
  6
CONTINUOUS
 10
-100.459278
 20
16.69199
 11
-104.345038
 21
18.935435
  0
LINE
  8
型材断面
  6
CONTINUOUS
 10
-104.345038
 20
18.935435
 11
-104.345038
 21
14.448545
  0
LINE
  8
型材断面
  6
CONTINUOUS
 10
-54.411528
 20
16.69199
 11
-50.525767
 21
14.448545
  0
LINE
  8
型材断面
  6
CONTINUOUS
 10
-54.411528
 20
16.69199
 11
-50.525767
 21
18.935435
  0
LINE
  8
型材断面
  6
CONTINUOUS
 10
-50.525767
 20
18.935435
 11
-50.525767
 21
14.448545
  0
LINE
  8
型材断面
  6
CONTINUOUS
 10
-77.435405
 20
39.715863
 11
-79.67885
 21
43.601622
  0
LINE
  8
型材断面
  6
CONTINUOUS
 10
-77.435405
 20
39.715863
 11
-75.19196
 21
43.601622
  0
LINE
  8
型材断面
  6
CONTINUOUS
 10
-75.19196
 20
43.601622
 11
-79.67885
 21
43.601622
  0
LINE
  8
型材断面
  6
CONTINUOUS
 10
-77.435405
 20
-6.331887
 11
-79.67885
 21
-10.217648
  0
LINE
  8
型材断面
  6
CONTINUOUS
 10
-77.435405
 20
-6.331887
 11
-75.19196
 21
-10.217648
  0
LINE
  8
型材断面
  6
CONTINUOUS
 10
-75.19196
 20
-10.217648
 11
-79.67885
 21
-10.217648
  0
LINE
  8
型材断面
  6
CONTINUOUS
 10
-54.411528
 20
28.69199
 11
-50.525767
 21
27.797905
  0
LINE
  8
型材断面
  6
CONTINUOUS
 10
-54.411528
 20
28.69199
 11
-50.525767
 21
29.586075
  0
LINE
  8
型材断面
  6
CONTINUOUS
 10
-50.525767
 20
29.586075
 11
-50.525767
 21
27.797905
  0
LINE
  8
型材断面
  6
CONTINUOUS
 10
-54.411528
 20
4.69199
 11
-50.525767
 21
5.586075
  0
LINE
  8
型材断面
  6
CONTINUOUS
 10
-54.411528
 20
4.69199
 11
-50.525767
 21
3.797905
  0
LINE
  8
型材断面
  6
CONTINUOUS
 10
-50.525767
 20
3.797905
 11
-50.525767
 21
5.586075
  0
LINE
  8
型材断面
  6
CONTINUOUS
 10
-95.53541
 20
34.791995
 11
-102.185427
 21
41.442013
  0
LINE
  8
型材断面
  6
CONTINUOUS
 10
-102.185427
 20
-8.058032
 11
-95.53541
 21
-1.408015
  0
LINE
  8
型材断面
  6
CONTINUOUS
 10
-102.185427
 20
-8.058032
 11
-102.185427
 21
41.442013
  0
LINE
  8
型材断面
  6
CONTINUOUS
 10
-59.3354
 20
34.791995
 11
-52.685383
 21
41.442013
  0
LINE
  8
型材断面
  6
CONTINUOUS
 10
-59.3354
 20
-1.408015
 11
-52.685383
 21
-8.058032
  0
LINE
  8
型材断面
  6
CONTINUOUS
 10
-52.685383
 20
41.442013
 11
-52.685383
 21
-8.058032
  0
LINE
  8
型材断面
  6
CONTINUOUS
 10
-52.685383
 20
41.442013
 11
-102.185427
 21
41.442013
  0
LINE
  8
型材断面
  6
CONTINUOUS
 10
-52.685383
 20
-8.058032
 11
-102.185427
 21
-8.058032
  0
POLYLINE
  8
型材断面
  6
DASHDOT
 66
     1
  0
VERTEX
  8
型材断面
 10
-62.435405
 20
31.69199
  0
VERTEX
  8
型材断面
 10
-92.435405
 20
16.69199
  0
VERTEX
  8
型材断面
 10
-62.435405
 20
1.69199
  0
SEQEND
  0
LINE
  8
型材断面
  6
CONTINUOUS
 62
    47
 10
-93.935427
 20
-64.498265
 11
-93.935427
 21
-67.348322
  0
LINE
  8
型材断面
  6
CONTINUOUS
 10
-93.935427
 20
-67.648322
 11
-93.935427
 21
-71.248265
  0
LINE
  8
型材断面
  6
CONTINUOUS
 10
-93.935427
 20
-71.248265
 11
-102.185427
 21
-72.248268
  0
LINE
  8
型材断面
  6
CONTINUOUS
 10
-102.185427
 20
-75.748265
 11
-102.185427
 21
-72.248268
  0
LINE
  8
型材断面
  6
CONTINUOUS
 62
    47
 10
-60.935383
 20
-64.498265
 11
-60.935383
 21
-67.348322
  0
LINE
  8
型材断面
  6
CONTINUOUS
 10
-60.935383
 20
-67.648322
 11
-60.935383
 21
-71.248265
  0
LINE
  8
型材断面
  6
CONTINUOUS
 10
-60.935383
 20
-71.248265
 11
-52.685383
 21
-72.248268
  0
LINE
  8
型材断面
  6
CONTINUOUS
 10
-52.685383
 20
-75.748265
 11
-52.685383
 21
-72.248268
  0
LINE
  8
型材断面
  6
CONTINUOUS
 10
-102.185427
 20
-75.748265
 11
-52.685383
 21
-75.748265
  0
LINE
  8
型材断面
  6
CONTINUOUS
 10
-102.185427
 20
-72.248268
 11
-52.685383
 21
-72.248268
  0
LINE
  8
型材断面
  6
CONTINUOUS
 10
-60.935383
 20
-67.348322
 11
-93.935427
 21
-67.348322
  0
LINE
  8
型材断面
  6
CONTINUOUS
 10
-60.935383
 20
-67.648322
 11
-93.935427
 21
-67.648322
  0
LINE
  8
型材断面
  6
CONTINUOUS
 10
-60.935383
 20
-71.248265
 11
-93.935427
 21
-71.248265
  0
POLYLINE
  8
型材断面
  6
CONTINUOUS
 66
     1
 70
     1
  0
VERTEX
  8
型材断面
 10
-109.551962
 20
-64.546893
  0
VERTEX
  8
型材断面
 10
-123.147973
 20
-64.546893
  0
VERTEX
  8
型材断面
 10
-123.147973
 20
-69.84042
  0
VERTEX
  8
型材断面
 10
-109.551962
 20
-69.84042
  0
SEQEND
  0
LINE
  8
型材断面
  6
CONTINUOUS
 62
    47
 10
17.140562
 20
-64.498265
 11
17.140562
 21
-67.348322
  0
LINE
  8
型材断面
  6
CONTINUOUS
 10
17.140562
 20
-67.648322
 11
17.140562
 21
-71.248265
  0
LINE
  8
型材断面
  6
CONTINUOUS
 10
17.140562
 20
-71.248265
 11
8.890562
 21
-72.248268
  0
LINE
  8
型材断面
  6
CONTINUOUS
 10
8.890562
 20
-75.748265
 11
8.890562
 21
-72.248268
  0
LINE
  8
型材断面
  6
CONTINUOUS
 62
    47
 10
50.140608
 20
-64.498265
 11
50.140608
 21
-67.348322
  0
LINE
  8
型材断面
  6
CONTINUOUS
 10
50.140608
 20
-67.648322
 11
50.140608
 21
-71.248265
  0
LINE
  8
型材断面
  6
CONTINUOUS
 10
50.140608
 20
-71.248265
 11
58.390608
 21
-72.248268
  0
LINE
  8
型材断面
  6
CONTINUOUS
 10
58.390608
 20
-75.748265
 11
58.390608
 21
-72.248268
  0
LINE
  8
型材断面
  6
CONTINUOUS
 10
8.890562
 20
-75.748265
 11
58.390608
 21
-75.748265
  0
LINE
  8
型材断面
  6
CONTINUOUS
 10
8.890562
 20
-72.248268
 11
58.390608
 21
-72.248268
  0
LINE
  8
型材断面
  6
CONTINUOUS
 10
50.140608
 20
-67.348322
 11
17.140562
 21
-67.348322
  0
LINE
  8
型材断面
  6
CONTINUOUS
 10
50.140608
 20
-67.648322
 11
17.140562
 21
-67.648322
  0
LINE
  8
型材断面
  6
CONTINUOUS
 10
50.140608
 20
-71.248265
 11
17.140562
 21
-71.248265
  0
INSERT
  2
*GRP_0031
  8
型材断面
  6
DASHDOT
 10
0.0
 20
0.0
  0
ARC
  8
型材断面
  6
DASHDOT
 10
16.840562
 20
-67.498323
 40
34.59396
 50
367.474341
 51
412.474341
  0
LINE
  8
ガラス
  6
CONTINUOUS
 10
167.304785
 20
75.557477
 11
167.304785
 21
45.557477
  0
LINE
  8
ガラス
  6
CONTINUOUS
 10
137.304785
 20
45.557477
 11
167.304785
 21
45.557477
  0
LINE
  8
ガラス
  6
CONTINUOUS
 10
167.304785
 20
75.557477
 11
137.304785
 21
75.557477
  0
LINE
  8
ガラス
  6
CONTINUOUS
 10
137.304785
 20
75.557477
 11
137.304785
 21
45.557477
  0
CIRCLE
  8
ボルト／ビス
  6
CONTINUOUS
 10
-84.935405
 20
0.69199
 40
0.288675
  0
CIRCLE
  8
ボルト／ビス
  6
CONTINUOUS
 10
-84.935405
 20
0.69199
 40
0.455885
  0
CIRCLE
  8
ボルト／ビス
  6
CONTINUOUS
 10
-93.435405
 20
9.19199
 40
0.288675
  0
CIRCLE
  8
ボルト／ビス
  6
CONTINUOUS
 10
-93.435405
 20
9.19199
 40
0.455885
  0
CIRCLE
  8
ボルト／ビス
  6
CONTINUOUS
 10
-69.935405
 20
0.69199
 40
0.288675
  0
CIRCLE
  8
ボルト／ビス
  6
CONTINUOUS
 10
-69.935405
 20
0.69199
 40
0.455885
  0
CIRCLE
  8
ボルト／ビス
  6
CONTINUOUS
 10
-61.435405
 20
9.19199
 40
0.288675
  0
CIRCLE
  8
ボルト／ビス
  6
CONTINUOUS
 10
-61.435405
 20
9.19199
 40
0.455885
  0
CIRCLE
  8
ボルト／ビス
  6
CONTINUOUS
 10
-69.935405
 20
32.69199
 40
0.288675
  0
CIRCLE
  8
ボルト／ビス
  6
CONTINUOUS
 10
-69.935405
 20
32.69199
 40
0.455885
  0
CIRCLE
  8
ボルト／ビス
  6
CONTINUOUS
 10
-61.435405
 20
24.19199
 40
0.288675
  0
CIRCLE
  8
ボルト／ビス
  6
CONTINUOUS
 10
-61.435405
 20
24.19199
 40
0.455885
  0
CIRCLE
  8
ボルト／ビス
  6
CONTINUOUS
 10
-84.935405
 20
32.69199
 40
0.288675
  0
CIRCLE
  8
ボルト／ビス
  6
CONTINUOUS
 10
-84.935405
 20
32.69199
 40
0.455885
  0
CIRCLE
  8
ボルト／ビス
  6
CONTINUOUS
 10
-93.435405
 20
24.19199
 40
0.288675
  0
CIRCLE
  8
ボルト／ビス
  6
CONTINUOUS
 10
-93.435405
 20
24.19199
 40
0.455885
  0
TEXT
  7
TextStyle03
  8
文字
  6
CONTINUOUS
 10
-31.2
 20
-9.725
  1
は排水穴位置を示す
 40
3.0
 72
     5
 11
-1.2
 21
-9.725
  0
TEXT
  7
TextStyle03
  8
文字
  6
CONTINUOUS
 10
-36.8
 20
-28.1
  1
アンカー数量　４ヶ所
 40
3.0
 72
     5
 11
-3.425
 21
-28.1
  0
TEXT
  7
TextStyle03
  8
文字
  6
CONTINUOUS
 10
-31.2
 20
-17.575
  1
はケーシング位置を示す
 40
3.0
 72
     5
 11
5.55
 21
-17.575
  0
TEXT
  7
TextStyle03
  8
文字
  6
CONTINUOUS
 10
-31.2
 20
-20.95
  1
２ヶ所中1ヶ所に設定
 40
3.0
 72
     5
 11
0.4875
 21
-20.95
  0
TEXT
  7
TextStyle03
  8
文字
  6
CONTINUOUS
 10
72.9
 20
96.025
  1
ＮＳコード：ＮＳＨＳ
 40
5.0
 72
     5
 11
128.525
 21
96.025
  0
TEXT
  7
TextStyle03
  8
文字
  6
CONTINUOUS
 10
146.1
 20
53.8
  1
網入り6.8t
 40
3.0
 72
     5
 11
162.7875
 21
53.8
  0
TEXT
  7
TextStyle03
  8
文字
  6
CONTINUOUS
 10
152.725
 20
48.55
  1
×１枚
 40
3.0
 72
     5
 11
162.475
 21
48.55
  0
TEXT
  7
TextStyle03
  8
文字
  6
CONTINUOUS
 10
-98.825
 20
58.1
  1
アンカーピッチ
 40
3.0
 72
     5
 11
-75.575
 21
58.1
  0
TEXT
  7
TextStyle03
  8
文字
  6
CONTINUOUS
 10
72.975
 20
118.55
  1
シリーズ：ＳＴＤＨ
 40
5.0
 72
     5
 11
122.975
 21
118.55
  0
TEXT
  7
TextStyle03
  8
文字
  6
CONTINUOUS
 10
72.975
 20
112.925
  1
　　　　　（片側開閉）600×600タイプ
 40
5.0
 72
     5
 11
173.6
 21
112.925
  0
TEXT
  7
TextStyle03
  8
文字
  6
CONTINUOUS
 10
72.975
 20
107.3
  1
図面名　：外観姿図
 40
5.0
 72
     5
 11
122.975
 21
107.3
  0
TEXT
  7
TextStyle03
  8
文字
  6
CONTINUOUS
 10
72.975
 20
101.675
  1
　　　　　　
 40
5.0
 72
     5
 11
106.1
 21
101.675
  0
INSERT
  2
*GRP_0007
  8
文字
  6
CONTINUOUS
 10
0.0
 20
0.0
  0
INSERT
  2
*GRP_0008
  8
文字
  6
CONTINUOUS
 10
0.0
 20
0.0
  0
INSERT
  2
*GRP_0009
  8
文字
  6
CONTINUOUS
 10
0.0
 20
0.0
  0
INSERT
  2
*GRP_0010
  8
文字
  6
CONTINUOUS
 10
0.0
 20
0.0
  0
INSERT
  2
*GRP_0011
  8
文字
  6
CONTINUOUS
 10
0.0
 20
0.0
  0
INSERT
  2
*GRP_0012
  8
文字
  6
CONTINUOUS
 10
0.0
 20
0.0
  0
INSERT
  2
*GRP_0013
  8
文字
  6
CONTINUOUS
 10
0.0
 20
0.0
  0
INSERT
  2
*GRP_0014
  8
文字
  6
CONTINUOUS
 10
0.0
 20
0.0
  0
TEXT
  7
TextStyle03
  8
文字
  6
CONTINUOUS
 10
-121.525
 20
-68.55
  1
丁番側
 40
3.0
 72
     5
 11
-111.775
 21
-68.55
  0
TEXT
  7
TextStyle03
  8
文字
  6
CONTINUOUS
 10
-110.5
 20
-87.35
  1
※は物件対応寸法
 40
3.0
 72
     5
 11
-83.875
 21
-87.35
  0
TEXT
  7
TextStyle03
  8
文字
  6
CONTINUOUS
 10
49.65
 20
-50.975
  1
45°
 40
3.0
 72
     5
 11
56.025
 21
-50.975
  0
INSERT
  2
*DIM_0002
  8
寸法
  6
CONTINUOUS
 10
0.0
 20
0.0
  0
INSERT
  2
*DIM_0003
  8
寸法
  6
CONTINUOUS
 10
0.0
 20
0.0
  0
INSERT
  2
*DIM_0004
  8
寸法
  6
CONTINUOUS
 10
0.0
 20
0.0
  0
INSERT
  2
*DIM_0005
  8
寸法
  6
CONTINUOUS
 10
0.0
 20
0.0
  0
INSERT
  2
*DIM_0006
  8
寸法
  6
CONTINUOUS
 10
0.0
 20
0.0
  0
INSERT
  2
*DIM_0027
  8
寸法
  6
CONTINUOUS
 10
0.0
 20
0.0
  0
INSERT
  2
*DIM_0028
  8
寸法
  6
CONTINUOUS
 10
0.0
 20
0.0
  0
INSERT
  2
*DIM_0029
  8
寸法
  6
CONTINUOUS
 10
0.0
 20
0.0
  0
INSERT
  2
*DIM_0030
  8
寸法
  6
CONTINUOUS
 10
0.0
 20
0.0
  0
INSERT
  2
*DIM_0038
  8
寸法
  6
CONTINUOUS
 10
0.0
 20
0.0
  0
INSERT
  2
*DIM_0039
  8
寸法
  6
CONTINUOUS
 10
0.0
 20
0.0
  0
LINE
  8
別途部材
  6
CONTINUOUS
 10
-95.53541
 20
34.791995
 11
-92.435405
 21
31.69199
  0
LINE
  8
別途部材
  6
CONTINUOUS
 10
-95.53541
 20
-1.408015
 11
-92.435405
 21
1.69199
  0
LINE
  8
別途部材
  6
CONTINUOUS
 10
-92.435405
 20
31.69199
 11
-92.435405
 21
1.69199
  0
LINE
  8
別途部材
  6
CONTINUOUS
 10
-94.93541
 20
34.191995
 11
-94.93541
 21
-0.808015
  0
LINE
  8
別途部材
  6
CONTINUOUS
 10
-95.53541
 20
34.791995
 11
-95.53541
 21
-1.408015
  0
LINE
  8
別途部材
  6
CONTINUOUS
 10
-62.435405
 20
31.69199
 11
-59.3354
 21
34.791995
  0
LINE
  8
別途部材
  6
CONTINUOUS
 10
-62.435405
 20
1.69199
 11
-59.3354
 21
-1.408015
  0
LINE
  8
別途部材
  6
CONTINUOUS
 10
-62.435405
 20
31.69199
 11
-62.435405
 21
1.69199
  0
LINE
  8
別途部材
  6
CONTINUOUS
 10
-59.9354
 20
34.191995
 11
-59.9354
 21
-0.808015
  0
LINE
  8
別途部材
  6
CONTINUOUS
 10
-59.3354
 20
34.791995
 11
-59.3354
 21
-1.408015
  0
LINE
  8
別途部材
  6
CONTINUOUS
 10
-92.435405
 20
31.69199
 11
-62.435405
 21
31.69199
  0
LINE
  8
別途部材
  6
CONTINUOUS
 10
-94.93541
 20
34.191995
 11
-59.9354
 21
34.191995
  0
LINE
  8
別途部材
  6
CONTINUOUS
 10
-95.53541
 20
34.791995
 11
-59.3354
 21
34.791995
  0
LINE
  8
別途部材
  6
CONTINUOUS
 10
-62.435405
 20
1.69199
 11
-92.435405
 21
1.69199
  0
LINE
  8
別途部材
  6
CONTINUOUS
 10
-59.9354
 20
-0.808015
 11
-94.93541
 21
-0.808015
  0
LINE
  8
別途部材
  6
CONTINUOUS
 10
-59.3354
 20
-1.408015
 11
-95.53541
 21
-1.408015
  0
LINE
  8
別途部材
  6
CONTINUOUS
 10
-92.435405
 20
1.69199
 11
-86.574013
 21
7.553383
  0
LINE
  8
別途部材
  6
CONTINUOUS
 10
-62.435405
 20
1.69199
 11
-68.296797
 21
7.553383
  0
LINE
  8
別途部材
  6
CONTINUOUS
 10
-92.435405
 20
31.69199
 11
-86.574013
 21
25.830597
  0
LINE
  8
別途部材
  6
CONTINUOUS
 10
-62.435405
 20
31.69199
 11
-68.296797
 21
25.830597
  0
LINE
  8
別途部材
  6
CONTINUOUS
 62
    96
 10
-94.93541
 20
-62.998265
 11
-95.53541
 21
-64.498265
  0
INSERT
  2
*GRP_0023
  8
別途部材
  6
DOT
 10
0.0
 20
0.0
  0
LINE
  8
別途部材
  6
CONTINUOUS
 62
    96
 10
-59.935405
 20
-62.998265
 11
-59.335405
 21
-64.498265
  0
INSERT
  2
*GRP_0024
  8
別途部材
  6
DOT
 10
0.0
 20
0.0
  0
LINE
  8
別途部材
  6
CONTINUOUS
 10
-59.335405
 20
-64.498265
 11
-95.53541
 21
-64.498265
  0
LINE
  8
別途部材
  6
CONTINUOUS
 62
    96
 10
-59.935405
 20
-62.998265
 11
-94.93541
 21
-62.998265
  0
ARC
  8
別途部材
  6
CONTINUOUS
 10
-77.435404
 20
-73.060762
 40
18.0625
 50
33.855026
 51
146.144974
  0
INSERT
  2
*GRP_0025
  8
別途部材
  6
CONTINUOUS
 10
0.0
 20
0.0
  0
LINE
  8
別途部材
  6
CONTINUOUS
 62
    96
 10
16.14058
 20
-62.998265
 11
15.54058
 21
-64.498265
  0
INSERT
  2
*GRP_0032
  8
別途部材
  6
DOT
 10
0.0
 20
0.0
  0
LINE
  8
別途部材
  6
CONTINUOUS
 62
    96
 10
51.140585
 20
-62.998265
 11
51.740585
 21
-64.498265
  0
INSERT
  2
*GRP_0033
  8
別途部材
  6
DOT
 10
0.0
 20
0.0
  0
LINE
  8
別途部材
  6
CONTINUOUS
 10
51.740585
 20
-64.498265
 11
15.54058
 21
-64.498265
  0
LINE
  8
別途部材
  6
CONTINUOUS
 62
    96
 10
51.140585
 20
-62.998265
 11
16.14058
 21
-62.998265
  0
ARC
  8
別途部材
  6
CONTINUOUS
 10
33.640584
 20
-73.060764
 40
18.0625
 50
33.855026
 51
146.144974
  0
INSERT
  2
*GRP_0034
  8
別途部材
  6
CONTINUOUS
 10
0.0
 20
0.0
  0
ENDSEC
  0
EOF
