  0
SECTION
  2
HEADER
  9
$EXTMIN
 10
-210.0
 20
-148.5
  9
$EXTMAX
 10
210.0
 20
148.5
  9
$PDMODE
 70
    32
  9
$PDSIZE
 40
0.3
  9
$LTSCALE
 40
10.0
  0
ENDSEC
  0
SECTION
  2
TABLES
  0
TABLE
  2
LTYPE
 70
    15
  0
LTYPE
  2
CONTINUOUS
 70
    64
  3
実線
 72
    65
 73
     0
 40
0.0
  0
LTYPE
  2
DASHED
 70
    64
  3
破線A
 72
    65
 73
     2
 40
0.6
 49
0.4
 49
-0.2
  0
LTYPE
  2
DASHEDX2
 70
    64
  3
破線B
 72
    65
 73
     2
 40
1.3
 49
0.9
 49
-0.4
  0
LTYPE
  2
DASHDOT
 70
    64
  3
１点鎖線A
 72
    65
 73
     4
 40
0.5375
 49
0.375
 49
-0.05
 49
0.0625
 49
-0.05
  0
LTYPE
  2
DASHDOTX2
 70
    64
  3
１点鎖線B
 72
    65
 73
     4
 40
1.075
 49
0.75
 49
-0.1
 49
0.125
 49
-0.1
  0
LTYPE
  2
DIVIDE2
 70
    64
  3
２点鎖線A
 72
    65
 73
     6
 40
0.5125
 49
0.3
 49
-0.0375
 49
0.05
 49
-0.0375
 49
0.05
 49
-0.0375
  0
LTYPE
  2
DIVIDE
 70
    64
  3
２点鎖線B
 72
    65
 73
     6
 40
1.05
 49
0.55
 49
-0.1
 49
0.1
 49
-0.1
 49
0.1
 49
-0.1
  0
LTYPE
  2
DOT
 70
    64
  3
点線A
 72
    65
 73
     2
 40
0.1125
 49
0.0625
 49
-0.05
  0
LTYPE
  2
DOTX2
 70
    64
  3
点線B
 72
    65
 73
     2
 40
0.275
 49
0.15
 49
-0.125
  0
LTYPE
  2
CONTINUOUS
 70
    64
  3
実線
 72
    65
 73
     0
 40
0.0
  0
LTYPE
  2
CONTINUOUS
 70
    64
  3
実線
 72
    65
 73
     0
 40
0.0
  0
LTYPE
  2
CONTINUOUS
 70
    64
  3
実線
 72
    65
 73
     0
 40
0.0
  0
LTYPE
  2
CONTINUOUS
 70
    64
  3
実線
 72
    65
 73
     0
 40
0.0
  0
LTYPE
  2
CONTINUOUS
 70
    64
  3
実線
 72
    65
 73
     0
 40
0.0
  0
LTYPE
  2
CONTINUOUS
 70
    64
  3
実線
 72
    65
 73
     0
 40
0.0
  0
ENDTAB
  0
TABLE
  2
LAYER
 70
    34
  0
LAYER
  2
通り芯
 70
     0
 62
    15
  6
CONTINUOUS
  0
LAYER
  2
補助線
 70
     0
 62
    16
  6
DOT
  0
LAYER
  2
躯体
 70
     0
 62
    31
  6
CONTINUOUS
  0
LAYER
  2
型材
 70
     0
 62
    32
  6
CONTINUOUS
  0
LAYER
  2
型材断面
 70
     0
 62
    47
  6
CONTINUOUS
  0
LAYER
  2
ガラス
 70
     0
 62
    48
  6
CONTINUOUS
  0
LAYER
  2
ゴム等
 70
     0
 62
    63
  6
CONTINUOUS
  0
LAYER
  2
ボルト／ビス
 70
     0
 62
    64
  6
CONTINUOUS
  0
LAYER
  2
文字
 70
     0
 62
    79
  6
CONTINUOUS
  0
LAYER
  2
寸法
 70
     0
 62
    80
  6
CONTINUOUS
  0
LAYER
  2
ﾊｯﾁﾝｸﾞ
 70
     0
 62
    95
  6
CONTINUOUS
  0
LAYER
  2
別途部材
 70
     0
 62
    96
  6
CONTINUOUS
  0
LAYER
  2
曲げ物
 70
     0
 62
   111
  6
CONTINUOUS
  0
LAYER
  2
鉄骨等
 70
     0
 62
   112
  6
CONTINUOUS
  0
LAYER
  2
St
 70
     0
 62
   127
  6
CONTINUOUS
  0
LAYER
  2
その他部品等
 70
     0
 62
   128
  6
CONTINUOUS
  0
LAYER
  2
ｶﾞｽｹｯﾄ
 70
     0
 62
   143
  6
CONTINUOUS
  0
LAYER
  2
ｽｹｯﾁ
 70
     0
 62
    14
  6
CONTINUOUS
  0
LAYER
  2
0
 70
     0
 62
    17
  6
CONTINUOUS
  0
LAYER
  2
1
 70
     0
 62
    30
  6
CONTINUOUS
  0
LAYER
  2
4
 70
     0
 62
    33
  6
CONTINUOUS
  0
LAYER
  2
ﾚｲﾔ3
 70
     0
 62
    46
  6
CONTINUOUS
  0
LAYER
  2
外形線
 70
     0
 62
    49
  6
CONTINUOUS
  0
LAYER
  2
部品
 70
     0
 62
    14
  6
CONTINUOUS
  0
LAYER
  2
サッシ芯
 70
     0
 62
    17
  6
DASHDOTX2
  0
LAYER
  2
寸法線
 70
     0
 62
    62
  6
CONTINUOUS
  0
LAYER
  2
姿図外形線
 70
     0
 62
    65
  6
CONTINUOUS
  0
LAYER
  2
姿補助線
 70
     0
 62
    30
  6
CONTINUOUS
  0
LAYER
  2
透視線
 70
     0
 62
    78
  6
DOT
  0
LAYER
  2
用紙
 70
     0
 62
    81
  6
CONTINUOUS
  0
LAYER
  2
実線図枠
 70
     0
 62
    94
  6
CONTINUOUS
  0
LAYER
  2
補助図枠
 70
     0
 62
    97
  6
CONTINUOUS
  0
LAYER
  2
建具記号
 70
     0
 62
   110
  6
CONTINUOUS
  0
LAYER
  2
補助文字
 70
     0
 62
   113
  6
CONTINUOUS
  0
ENDTAB
  0
TABLE
  2
STYLE
 70
    10
  0
STYLE
  2
STANDARD
 70
     0
 40
1.0
 41
1.0
 42
1.0
 50
0.0
 71
     0
  3
TXT
  4
BIGFONT
  0
STYLE
  2
TATE
 70
     4
 40
1.0
 41
1.0
 42
1.0
 50
0.0
 71
     0
  3
TXT
  4
BIGFONT
  0
STYLE
  2
TextStyle03
 70
     0
 40
1.0
 41
1.0
 42
1.0
 50
0.0
 71
     0
  3
MONOTXT
  4
BIGFONT
  0
STYLE
  2
TextStyle04
 70
     0
 40
1.0
 41
1.0
 42
1.0
 50
0.0
 71
     0
  3
MONOTXT
  4
BIGFONT
  0
STYLE
  2
TextStyle05
 70
     0
 40
1.0
 41
1.0
 42
1.0
 50
0.0
 71
     0
  3
MONOTXT
  4
BIGFONT
  0
STYLE
  2
TextStyle06
 70
     0
 40
1.0
 41
1.0
 42
1.0
 50
0.0
 71
     0
  3
MONOTXT
  4
BIGFONT
  0
STYLE
  2
TextStyle07
 70
     0
 40
1.0
 41
1.0
 42
1.0
 50
0.0
 71
     0
  3
MONOTXT
  4
BIGFONT
  0
STYLE
  2
TextStyle08
 70
     0
 40
1.0
 41
1.0
 42
1.0
 50
0.0
 71
     0
  3
MONOTXT
  4
BIGFONT
  0
STYLE
  2
TextStyle09
 70
     0
 40
1.0
 41
1.0
 42
1.0
 50
0.0
 71
     0
  3
MONOTXT
  4
BIGFONT
  0
STYLE
  2
TextStyle10
 70
     0
 40
1.0
 41
1.0
 42
1.0
 50
0.0
 71
     0
  3
MONOTXT
  4
BIGFONT
  0
ENDTAB
  0
ENDSEC
  0
SECTION
  2
BLOCKS
  0
BLOCK
  2
*GRP_0001
 70
    65
 10
0.0
 20
0.0
  0
LINE
  8
型材断面
  6
CONTINUOUS
 10
195.0
 20
133.5
 11
195.0
 21
-133.5
  0
LINE
  8
型材断面
  6
CONTINUOUS
 10
195.0
 20
-133.5
 11
-185.0
 21
-133.5
  0
LINE
  8
型材断面
  6
CONTINUOUS
 10
-185.0
 20
-133.5
 11
-185.0
 21
133.5
  0
LINE
  8
型材断面
  6
CONTINUOUS
 10
195.0
 20
133.5
 11
-185.0
 21
133.5
  0
LINE
  8
型材断面
  6
CONTINUOUS
 10
145.0
 20
-133.5
 11
145.0
 21
-118.5
  0
LINE
  8
型材断面
  6
CONTINUOUS
 10
195.0
 20
-118.5
 11
145.0
 21
-118.5
  0
ENDBLK
  0
BLOCK
  2
*GRP_0002
 70
    65
 10
0.0
 20
0.0
  0
LINE
  8
ゴム等
  6
CONTINUOUS
 10
-53.201865
 20
72.479045
 11
-51.701865
 21
72.479045
  0
LINE
  8
ゴム等
  6
CONTINUOUS
 10
-51.701865
 20
66.978995
 11
-51.701865
 21
72.479045
  0
LINE
  8
ゴム等
  6
CONTINUOUS
 10
-43.20189
 20
65.97902
 11
-50.70189
 21
65.97902
  0
LINE
  8
ゴム等
  6
CONTINUOUS
 10
-51.701865
 20
66.978995
 11
-50.70189
 21
65.97902
  0
LINE
  8
ゴム等
  6
CONTINUOUS
 10
-53.201865
 20
72.479045
 11
-53.201865
 21
73.979045
  0
LINE
  8
ゴム等
  6
CONTINUOUS
 10
-53.201865
 20
73.979045
 11
-43.20189
 21
73.979045
  0
LINE
  8
ゴム等
  6
CONTINUOUS
 10
-43.20189
 20
65.97902
 11
-43.20189
 21
73.979045
  0
LINE
  8
ゴム等
  6
CONTINUOUS
 10
-52.221615
 20
73.979045
 11
-53.201865
 21
72.998795
  0
LINE
  8
ゴム等
  6
CONTINUOUS
 10
-50.807415
 20
73.979045
 11
-52.307415
 21
72.479045
  0
LINE
  8
ゴム等
  6
CONTINUOUS
 10
-49.393215
 20
73.979045
 11
-51.701865
 21
71.67032
  0
LINE
  8
ゴム等
  6
CONTINUOUS
 10
-47.979015
 20
73.979045
 11
-51.701865
 21
70.25612
  0
LINE
  8
ゴム等
  6
CONTINUOUS
 10
-46.564815
 20
73.979045
 11
-51.701865
 21
68.84192
  0
LINE
  8
ゴム等
  6
CONTINUOUS
 10
-45.15054
 20
73.979045
 11
-51.701865
 21
67.42772
  0
LINE
  8
ゴム等
  6
CONTINUOUS
 10
-43.73634
 20
73.979045
 11
-51.21909
 21
66.49622
  0
LINE
  8
ゴム等
  6
CONTINUOUS
 10
-43.20189
 20
73.099295
 11
-50.32209
 21
65.97902
  0
LINE
  8
ゴム等
  6
CONTINUOUS
 10
-43.20189
 20
71.685095
 11
-48.90789
 21
65.97902
  0
LINE
  8
ゴム等
  6
CONTINUOUS
 10
-43.20189
 20
70.27082
 11
-47.49369
 21
65.97902
  0
LINE
  8
ゴム等
  6
CONTINUOUS
 10
-43.20189
 20
68.85662
 11
-46.07949
 21
65.97902
  0
LINE
  8
ゴム等
  6
CONTINUOUS
 10
-43.20189
 20
67.44242
 11
-44.66529
 21
65.97902
  0
ENDBLK
  0
BLOCK
  2
*GRP_0003
 70
    65
 10
0.0
 20
0.0
  0
LINE
  8
ゴム等
  6
CONTINUOUS
 62
    63
 10
-28.201462
 20
86.976568
 11
-28.201462
 21
89.976568
  0
LINE
  8
ゴム等
  6
CONTINUOUS
 62
    63
 10
-8.20146
 20
86.976568
 11
-8.20146
 21
89.976568
  0
LINE
  8
ゴム等
  6
CONTINUOUS
 62
    63
 10
-28.201462
 20
86.976568
 11
-8.20146
 21
86.976568
  0
LINE
  8
ゴム等
  6
CONTINUOUS
 62
    63
 10
-8.96526
 20
86.976568
 11
-8.20146
 21
87.740367
  0
LINE
  8
ゴム等
  6
CONTINUOUS
 62
    63
 10
-10.37946
 20
86.976568
 11
-8.20146
 21
89.154567
  0
LINE
  8
ゴム等
  6
CONTINUOUS
 62
    63
 10
-11.793682
 20
86.976568
 11
-8.793682
 21
89.976568
  0
LINE
  8
ゴム等
  6
CONTINUOUS
 62
    63
 10
-13.207882
 20
86.976568
 11
-10.207882
 21
89.976568
  0
LINE
  8
ゴム等
  6
CONTINUOUS
 62
    63
 10
-14.622113
 20
86.976568
 11
-11.622113
 21
89.976568
  0
LINE
  8
ゴム等
  6
CONTINUOUS
 62
    63
 10
-16.036312
 20
86.976568
 11
-13.036312
 21
89.976568
  0
LINE
  8
ゴム等
  6
CONTINUOUS
 62
    63
 10
-17.450535
 20
86.976568
 11
-14.450535
 21
89.976568
  0
LINE
  8
ゴム等
  6
CONTINUOUS
 62
    63
 10
-18.864757
 20
86.976568
 11
-15.864757
 21
89.976568
  0
LINE
  8
ゴム等
  6
CONTINUOUS
 62
    63
 10
-20.278957
 20
86.976568
 11
-17.278957
 21
89.976568
  0
LINE
  8
ゴム等
  6
CONTINUOUS
 62
    63
 10
-21.693188
 20
86.976568
 11
-18.693188
 21
89.976568
  0
LINE
  8
ゴム等
  6
CONTINUOUS
 62
    63
 10
-23.107388
 20
86.976568
 11
-20.107388
 21
89.976568
  0
LINE
  8
ゴム等
  6
CONTINUOUS
 62
    63
 10
-24.52161
 20
86.976568
 11
-21.52161
 21
89.976568
  0
LINE
  8
ゴム等
  6
CONTINUOUS
 62
    63
 10
-25.93581
 20
86.976568
 11
-22.93581
 21
89.976568
  0
LINE
  8
ゴム等
  6
CONTINUOUS
 62
    63
 10
-27.350032
 20
86.976568
 11
-24.350032
 21
89.976568
  0
LINE
  8
ゴム等
  6
CONTINUOUS
 62
    63
 10
-28.201462
 20
87.539367
 11
-25.764232
 21
89.976568
  0
LINE
  8
ゴム等
  6
CONTINUOUS
 62
    63
 10
-28.201462
 20
88.953567
 11
-27.178463
 21
89.976568
  0
LINE
  8
ゴム等
  6
CONTINUOUS
 10
-28.201462
 20
89.976568
 11
-8.20146
 21
89.976568
  0
ENDBLK
  0
BLOCK
  2
*GRP_0004
 70
    65
 10
0.0
 20
0.0
  0
POLYLINE
  8
ゴム等
  6
DOT
 66
     1
 70
     1
  0
VERTEX
  8
ゴム等
 10
-9.701468
 20
17.479018
  0
VERTEX
  8
ゴム等
 10
-19.701465
 20
17.479018
  0
VERTEX
  8
ゴム等
 10
-19.701465
 20
7.47902
  0
VERTEX
  8
ゴム等
 10
-9.701468
 20
7.47902
  0
SEQEND
  0
LINE
  8
ゴム等
  6
DOT
 10
-11.316683
 20
7.47902
 11
-9.701468
 21
9.094235
  0
LINE
  8
ゴム等
  6
DOT
 10
-12.730897
 20
7.47902
 11
-9.701468
 21
10.50845
  0
LINE
  8
ゴム等
  6
DOT
 10
-14.145112
 20
7.47902
 11
-9.701468
 21
11.922665
  0
LINE
  8
ゴム等
  6
DOT
 10
-15.559328
 20
7.47902
 11
-9.701468
 21
13.33688
  0
LINE
  8
ゴム等
  6
DOT
 10
-16.973542
 20
7.47902
 11
-9.701468
 21
14.751095
  0
LINE
  8
ゴム等
  6
DOT
 10
-18.387758
 20
7.47902
 11
-9.701468
 21
16.16531
  0
LINE
  8
ゴム等
  6
DOT
 10
-19.701465
 20
7.579528
 11
-9.801975
 21
17.479018
  0
LINE
  8
ゴム等
  6
DOT
 10
-19.701465
 20
8.993743
 11
-11.21619
 21
17.479018
  0
LINE
  8
ゴム等
  6
DOT
 10
-19.701465
 20
16.064803
 11
-18.28725
 21
17.479018
  0
LINE
  8
ゴム等
  6
DOT
 10
-19.701465
 20
14.650588
 11
-16.873035
 21
17.479018
  0
LINE
  8
ゴム等
  6
DOT
 10
-19.701465
 20
13.236372
 11
-15.45882
 21
17.479018
  0
LINE
  8
ゴム等
  6
DOT
 10
-19.701465
 20
11.822157
 11
-14.044605
 21
17.479018
  0
LINE
  8
ゴム等
  6
DOT
 10
-19.701465
 20
10.407942
 11
-12.63039
 21
17.479018
  0
ENDBLK
  0
BLOCK
  2
*GRP_0005
 70
    65
 10
0.0
 20
0.0
  0
POLYLINE
  8
ゴム等
  6
DOT
 66
     1
 70
     1
  0
VERTEX
  8
ゴム等
 10
-9.701468
 20
-60.519865
  0
VERTEX
  8
ゴム等
 10
-19.701465
 20
-60.519865
  0
VERTEX
  8
ゴム等
 10
-19.701465
 20
-70.519863
  0
VERTEX
  8
ゴム等
 10
-9.701468
 20
-70.519863
  0
SEQEND
  0
LINE
  8
ゴム等
  6
DOT
 10
-11.316683
 20
-70.519863
 11
-9.701468
 21
-68.904648
  0
LINE
  8
ゴム等
  6
DOT
 10
-12.730897
 20
-70.519863
 11
-9.701468
 21
-67.490433
  0
LINE
  8
ゴム等
  6
DOT
 10
-14.145112
 20
-70.519863
 11
-9.701468
 21
-66.076217
  0
LINE
  8
ゴム等
  6
DOT
 10
-15.559328
 20
-70.519863
 11
-9.701468
 21
-64.662003
  0
LINE
  8
ゴム等
  6
DOT
 10
-16.973542
 20
-70.519863
 11
-9.701468
 21
-63.247787
  0
LINE
  8
ゴム等
  6
DOT
 10
-18.387758
 20
-70.519863
 11
-9.701468
 21
-61.833572
  0
LINE
  8
ゴム等
  6
DOT
 10
-19.701465
 20
-70.419355
 11
-9.801975
 21
-60.519865
  0
LINE
  8
ゴム等
  6
DOT
 10
-19.701465
 20
-69.00514
 11
-11.21619
 21
-60.519865
  0
LINE
  8
ゴム等
  6
DOT
 10
-19.701465
 20
-61.93408
 11
-18.28725
 21
-60.519865
  0
LINE
  8
ゴム等
  6
DOT
 10
-19.701465
 20
-63.348295
 11
-16.873035
 21
-60.519865
  0
LINE
  8
ゴム等
  6
DOT
 10
-19.701465
 20
-64.76251
 11
-15.45882
 21
-60.519865
  0
LINE
  8
ゴム等
  6
DOT
 10
-19.701465
 20
-66.176725
 11
-14.044605
 21
-60.519865
  0
LINE
  8
ゴム等
  6
DOT
 10
-19.701465
 20
-67.59094
 11
-12.63039
 21
-60.519865
  0
ENDBLK
  0
BLOCK
  2
*GRP_0006
 70
    65
 10
0.0
 20
0.0
  0
ARC
  8
ボルト／ビス
  6
CONTINUOUS
 62
    64
 10
-14.70185
 20
77.976559
 40
1.0
 50
270.0
 51
360.0
  0
LINE
  8
ボルト／ビス
  6
CONTINUOUS
 62
    64
 10
-21.701865
 20
76.976473
 11
-14.701853
 21
76.976473
  0
ARC
  8
ボルト／ビス
  6
CONTINUOUS
 62
    64
 10
-21.70185
 20
77.976559
 40
1.0
 50
180.0
 51
270.0
  0
LINE
  8
ボルト／ビス
  6
CONTINUOUS
 62
    64
 10
-23.201865
 20
87.476473
 11
-23.201865
 21
86.976477
  0
LINE
  8
ボルト／ビス
  6
CONTINUOUS
 62
    64
 10
-13.201853
 20
87.476473
 11
-13.201853
 21
86.976477
  0
LINE
  8
ボルト／ビス
  6
CONTINUOUS
 62
    64
 10
-23.201865
 20
87.476473
 11
-13.201853
 21
87.476473
  0
LINE
  8
ボルト／ビス
  6
CONTINUOUS
 62
    64
 10
-23.201865
 20
86.976477
 11
-13.201853
 21
86.976477
  0
LINE
  8
ボルト／ビス
  6
CONTINUOUS
 62
    64
 10
-22.70184
 20
77.976477
 11
-22.70184
 21
83.976477
  0
LINE
  8
ボルト／ビス
  6
CONTINUOUS
 62
    64
 10
-22.70184
 20
85.476477
 11
-22.70184
 21
86.976477
  0
LINE
  8
ボルト／ビス
  6
CONTINUOUS
 62
    64
 10
-13.70184
 20
86.976477
 11
-13.70184
 21
85.476477
  0
LINE
  8
ボルト／ビス
  6
CONTINUOUS
 62
    64
 10
-13.70184
 20
83.976477
 11
-13.70184
 21
77.976477
  0
LINE
  8
ボルト／ビス
  6
CONTINUOUS
 62
    64
 10
-23.951865
 20
85.476477
 11
-18.20184
 21
85.476477
  0
ARC
  8
ボルト／ビス
  6
CONTINUOUS
 62
    64
 10
-23.95185
 20
84.726559
 40
0.75
 50
90.0
 51
180.0
  0
LINE
  8
ボルト／ビス
  6
CONTINUOUS
 62
    64
 10
-24.701865
 20
84.726477
 11
-24.701865
 21
84.726477
  0
LINE
  8
ボルト／ビス
  6
CONTINUOUS
 62
    64
 10
-23.951865
 20
83.976477
 11
-18.20184
 21
83.976477
  0
ARC
  8
ボルト／ビス
  6
CONTINUOUS
 62
    64
 10
-23.95185
 20
84.726559
 40
0.75
 50
180.0
 51
270.0
  0
LINE
  8
ボルト／ビス
  6
CONTINUOUS
 62
    64
 10
-11.701853
 20
84.726477
 11
-11.701853
 21
84.726477
  0
LINE
  8
ボルト／ビス
  6
CONTINUOUS
 62
    64
 10
-18.20184
 20
85.476477
 11
-12.701865
 21
85.476477
  0
LINE
  8
ボルト／ビス
  6
CONTINUOUS
 62
    64
 10
-18.20184
 20
83.976477
 11
-12.701865
 21
83.976477
  0
LINE
  8
ボルト／ビス
  6
CONTINUOUS
 62
    64
 10
-12.701865
 20
85.476477
 11
-12.701865
 21
83.976477
  0
ENDBLK
  0
BLOCK
  2
*GRP_0007
 70
    65
 10
0.0
 20
0.0
  0
LINE
  8
ボルト／ビス
  6
CONTINUOUS
 10
-7.201853
 20
92.980077
 11
-7.201853
 21
94.980103
  0
LINE
  8
ボルト／ビス
  6
CONTINUOUS
 10
-7.201853
 20
94.980103
 11
-29.201865
 21
94.980103
  0
LINE
  8
ボルト／ビス
  6
CONTINUOUS
 10
-29.201865
 20
94.980103
 11
-29.201865
 21
92.980077
  0
LINE
  8
ボルト／ビス
  6
CONTINUOUS
 10
-7.201853
 20
92.980077
 11
-29.201865
 21
92.980077
  0
LINE
  8
ボルト／ビス
  6
CONTINUOUS
 10
-9.20184
 20
95.980077
 11
-9.20184
 21
94.980103
  0
LINE
  8
ボルト／ビス
  6
CONTINUOUS
 10
-9.20184
 20
95.980077
 11
-27.20184
 21
95.980077
  0
LINE
  8
ボルト／ビス
  6
CONTINUOUS
 10
-27.20184
 20
95.980077
 11
-27.20184
 21
94.980103
  0
LINE
  8
ボルト／ビス
  6
CONTINUOUS
 62
    64
 10
-13.39059
 20
101.980077
 11
-12.42834
 21
101.629873
  0
ARC
  8
ボルト／ビス
  6
CONTINUOUS
 62
    64
 10
-13.871726
 20
98.830835
 40
3.149352
 50
90.0
 51
117.278033
  0
ARC
  8
ボルト／ビス
  6
CONTINUOUS
 62
    64
 10
-18.201853
 20
89.90812
 40
12.072067
 50
76.165015
 51
103.834998
  0
LINE
  8
ボルト／ビス
  6
CONTINUOUS
 62
    64
 10
-23.01309
 20
101.980077
 11
-23.97534
 21
101.629873
  0
ARC
  8
ボルト／ビス
  6
CONTINUOUS
 62
    64
 10
-22.531981
 20
98.830835
 40
3.149352
 50
62.721967
 51
90.0
  0
LINE
  8
ボルト／ビス
  6
CONTINUOUS
 62
    64
 10
-13.39059
 20
101.980077
 11
-23.01309
 21
101.980077
  0
LINE
  8
ボルト／ビス
  6
CONTINUOUS
 62
    64
 10
-23.97534
 20
101.629873
 11
-23.97534
 21
97.980103
  0
LINE
  8
ボルト／ビス
  6
CONTINUOUS
 62
    64
 10
-21.08859
 20
101.629873
 11
-21.08859
 21
97.980103
  0
LINE
  8
ボルト／ビス
  6
CONTINUOUS
 62
    64
 10
-12.42834
 20
101.629873
 11
-12.42834
 21
97.980103
  0
LINE
  8
ボルト／ビス
  6
CONTINUOUS
 62
    64
 10
-15.31509
 20
101.629873
 11
-15.31509
 21
97.980103
  0
LINE
  8
ボルト／ビス
  6
CONTINUOUS
 10
-12.42834
 20
97.980103
 11
-23.97534
 21
97.980103
  0
LINE
  8
ボルト／ビス
  6
CONTINUOUS
 10
-12.20184
 20
97.980103
 11
-12.20184
 21
95.980077
  0
LINE
  8
ボルト／ビス
  6
CONTINUOUS
 10
-12.20184
 20
97.980103
 11
-24.20184
 21
97.980103
  0
LINE
  8
ボルト／ビス
  6
CONTINUOUS
 10
-24.20184
 20
97.980103
 11
-24.20184
 21
95.980077
  0
LINE
  8
ボルト／ビス
  6
CONTINUOUS
 62
    64
 10
-20.501865
 20
92.980077
 11
-20.501865
 21
72.980127
  0
LINE
  8
ボルト／ビス
  6
CONTINUOUS
 62
    64
 10
-15.901853
 20
92.980077
 11
-15.901853
 21
72.980127
  0
LINE
  8
ボルト／ビス
  6
CONTINUOUS
 62
    64
 10
-15.901853
 20
72.980127
 11
-20.501865
 21
72.980127
  0
LINE
  8
ボルト／ビス
  6
CONTINUOUS
 62
    64
 10
-21.20184
 20
73.980103
 11
-20.501865
 21
72.980127
  0
LINE
  8
ボルト／ビス
  6
CONTINUOUS
 62
    64
 10
-15.20184
 20
73.980103
 11
-15.901853
 21
72.980127
  0
LINE
  8
ボルト／ビス
  6
CONTINUOUS
 62
    64
 10
-15.20184
 20
73.980103
 11
-21.20184
 21
73.980103
  0
LINE
  8
ボルト／ビス
  6
CONTINUOUS
 62
    64
 10
-15.901853
 20
72.980127
 11
-20.501865
 21
72.980127
  0
LINE
  8
ボルト／ビス
  6
CONTINUOUS
 62
    64
 10
-15.20184
 20
92.980077
 11
-15.20184
 21
73.980103
  0
LINE
  8
ボルト／ビス
  6
CONTINUOUS
 62
    64
 10
-21.20184
 20
92.980077
 11
-21.20184
 21
73.980103
  0
ENDBLK
  0
BLOCK
  2
*GRP_0008
 70
    65
 10
0.0
 20
0.0
  0
LINE
  8
ボルト／ビス
  6
CONTINUOUS
 62
    64
 10
-20.201468
 20
7.77902
 11
-16.201462
 21
7.77902
  0
LINE
  8
ボルト／ビス
  6
CONTINUOUS
 62
    64
 10
-20.201468
 20
15.479023
 11
-19.701465
 21
15.979018
  0
LINE
  8
ボルト／ビス
  6
CONTINUOUS
 62
    64
 10
-16.201462
 20
15.479023
 11
-16.701465
 21
15.979018
  0
LINE
  8
ボルト／ビス
  6
CONTINUOUS
 62
    64
 10
-19.701465
 20
15.979018
 11
-16.701465
 21
15.979018
  0
LINE
  8
ボルト／ビス
  6
CONTINUOUS
 62
    64
 10
-20.201468
 20
15.479023
 11
-16.201462
 21
15.479023
  0
LINE
  8
ボルト／ビス
  6
CONTINUOUS
 62
    64
 10
-16.701465
 20
7.77902
 11
-16.701465
 21
15.979018
  0
LINE
  8
ボルト／ビス
  6
CONTINUOUS
 62
    64
 10
-19.701465
 20
7.77902
 11
-19.701465
 21
15.979018
  0
LINE
  8
ボルト／ビス
  6
CONTINUOUS
 62
    64
 10
-20.201468
 20
7.77902
 11
-20.201468
 21
15.479023
  0
LINE
  8
ボルト／ビス
  6
CONTINUOUS
 62
    64
 10
-16.201462
 20
7.77902
 11
-16.201462
 21
15.479023
  0
LINE
  8
ボルト／ビス
  6
DASHDOT
 62
    64
 10
-18.201465
 20
2.97902
 11
-18.201465
 21
18.979018
  0
LINE
  8
ボルト／ビス
  6
DOT
 62
    64
 10
-21.201465
 20
5.97902
 11
-20.201468
 21
7.77902
  0
LINE
  8
ボルト／ビス
  6
DOT
 62
    64
 10
-21.201465
 20
5.97902
 11
-15.201465
 21
5.97902
  0
LINE
  8
ボルト／ビス
  6
DOT
 62
    64
 10
-15.201465
 20
5.97902
 11
-16.201462
 21
7.77902
  0
ENDBLK
  0
BLOCK
  2
*GRP_0009
 70
    65
 10
0.0
 20
0.0
  0
LINE
  8
ボルト／ビス
  6
CONTINUOUS
 62
    64
 10
-20.201468
 20
-70.219863
 11
-16.201462
 21
-70.219863
  0
LINE
  8
ボルト／ビス
  6
CONTINUOUS
 62
    64
 10
-20.201468
 20
-62.51986
 11
-19.701465
 21
-62.019865
  0
LINE
  8
ボルト／ビス
  6
CONTINUOUS
 62
    64
 10
-16.201462
 20
-62.51986
 11
-16.701465
 21
-62.019865
  0
LINE
  8
ボルト／ビス
  6
CONTINUOUS
 62
    64
 10
-19.701465
 20
-62.019865
 11
-16.701465
 21
-62.019865
  0
LINE
  8
ボルト／ビス
  6
CONTINUOUS
 62
    64
 10
-20.201468
 20
-62.51986
 11
-16.201462
 21
-62.51986
  0
LINE
  8
ボルト／ビス
  6
CONTINUOUS
 62
    64
 10
-16.701465
 20
-70.219863
 11
-16.701465
 21
-62.019865
  0
LINE
  8
ボルト／ビス
  6
CONTINUOUS
 62
    64
 10
-19.701465
 20
-70.219863
 11
-19.701465
 21
-62.019865
  0
LINE
  8
ボルト／ビス
  6
CONTINUOUS
 62
    64
 10
-20.201468
 20
-70.219863
 11
-20.201468
 21
-62.51986
  0
LINE
  8
ボルト／ビス
  6
CONTINUOUS
 62
    64
 10
-16.201462
 20
-70.219863
 11
-16.201462
 21
-62.51986
  0
LINE
  8
ボルト／ビス
  6
DASHDOT
 62
    64
 10
-18.201465
 20
-75.019863
 11
-18.201465
 21
-59.019865
  0
LINE
  8
ボルト／ビス
  6
DOT
 62
    64
 10
-21.201465
 20
-72.019863
 11
-20.201468
 21
-70.219863
  0
LINE
  8
ボルト／ビス
  6
DOT
 62
    64
 10
-21.201465
 20
-72.019863
 11
-15.201465
 21
-72.019863
  0
LINE
  8
ボルト／ビス
  6
DOT
 62
    64
 10
-15.201465
 20
-72.019863
 11
-16.201462
 21
-70.219863
  0
ENDBLK
  0
BLOCK
  2
*GRP_0010
 70
    65
 10
0.0
 20
0.0
  0
LINE
  8
ボルト／ビス
  6
CONTINUOUS
 62
    64
 10
-10.001468
 20
74.976575
 11
-10.001468
 21
78.976572
  0
LINE
  8
ボルト／ビス
  6
CONTINUOUS
 62
    64
 10
-17.70147
 20
74.976575
 11
-18.201465
 21
75.47657
  0
LINE
  8
ボルト／ビス
  6
CONTINUOUS
 62
    64
 10
-17.70147
 20
78.976572
 11
-18.201465
 21
78.47657
  0
LINE
  8
ボルト／ビス
  6
CONTINUOUS
 62
    64
 10
-18.201465
 20
75.47657
 11
-18.201465
 21
78.47657
  0
LINE
  8
ボルト／ビス
  6
CONTINUOUS
 62
    64
 10
-17.70147
 20
74.976575
 11
-17.70147
 21
78.976572
  0
LINE
  8
ボルト／ビス
  6
CONTINUOUS
 62
    64
 10
-10.001468
 20
78.47657
 11
-18.201465
 21
78.47657
  0
LINE
  8
ボルト／ビス
  6
CONTINUOUS
 62
    64
 10
-10.001468
 20
75.47657
 11
-18.201465
 21
75.47657
  0
LINE
  8
ボルト／ビス
  6
CONTINUOUS
 62
    64
 10
-10.001468
 20
74.976575
 11
-17.70147
 21
74.976575
  0
LINE
  8
ボルト／ビス
  6
CONTINUOUS
 62
    64
 10
-10.001468
 20
78.976572
 11
-17.70147
 21
78.976572
  0
LINE
  8
ボルト／ビス
  6
DASHDOT
 62
    64
 10
-5.201468
 20
76.97657
 11
-21.201465
 21
76.97657
  0
LINE
  8
ボルト／ビス
  6
DOT
 62
    64
 10
-8.201468
 20
73.97657
 11
-10.001468
 21
74.976575
  0
LINE
  8
ボルト／ビス
  6
DOT
 62
    64
 10
-8.201468
 20
73.97657
 11
-8.201468
 21
79.97657
  0
LINE
  8
ボルト／ビス
  6
DOT
 62
    64
 10
-8.201468
 20
79.97657
 11
-10.001468
 21
78.976572
  0
ENDBLK
  0
BLOCK
  2
*GRP_0011
 70
    65
 10
0.0
 20
0.0
  0
LINE
  8
ボルト／ビス
  6
CONTINUOUS
 62
    64
 10
-10.001468
 20
74.976575
 11
-10.001468
 21
78.976572
  0
LINE
  8
ボルト／ビス
  6
CONTINUOUS
 62
    64
 10
-17.70147
 20
74.976575
 11
-18.201465
 21
75.47657
  0
LINE
  8
ボルト／ビス
  6
CONTINUOUS
 62
    64
 10
-17.70147
 20
78.976572
 11
-18.201465
 21
78.47657
  0
LINE
  8
ボルト／ビス
  6
CONTINUOUS
 62
    64
 10
-18.201465
 20
75.47657
 11
-18.201465
 21
78.47657
  0
LINE
  8
ボルト／ビス
  6
CONTINUOUS
 62
    64
 10
-17.70147
 20
74.976575
 11
-17.70147
 21
78.976572
  0
LINE
  8
ボルト／ビス
  6
CONTINUOUS
 62
    64
 10
-10.001468
 20
78.47657
 11
-18.201465
 21
78.47657
  0
LINE
  8
ボルト／ビス
  6
CONTINUOUS
 62
    64
 10
-10.001468
 20
75.47657
 11
-18.201465
 21
75.47657
  0
LINE
  8
ボルト／ビス
  6
CONTINUOUS
 62
    64
 10
-10.001468
 20
74.976575
 11
-17.70147
 21
74.976575
  0
LINE
  8
ボルト／ビス
  6
CONTINUOUS
 62
    64
 10
-10.001468
 20
78.976572
 11
-17.70147
 21
78.976572
  0
LINE
  8
ボルト／ビス
  6
DASHDOT
 62
    64
 10
-5.201468
 20
76.97657
 11
-21.201465
 21
76.97657
  0
LINE
  8
ボルト／ビス
  6
DOT
 62
    64
 10
-8.201468
 20
73.97657
 11
-10.001468
 21
74.976575
  0
LINE
  8
ボルト／ビス
  6
DOT
 62
    64
 10
-8.201468
 20
73.97657
 11
-8.201468
 21
79.97657
  0
LINE
  8
ボルト／ビス
  6
DOT
 62
    64
 10
-8.201468
 20
79.97657
 11
-10.001468
 21
78.976572
  0
ENDBLK
  0
BLOCK
  2
*GRP_0012
 70
    65
 10
0.0
 20
0.0
  0
LINE
  8
ボルト／ビス
  6
CONTINUOUS
 62
    64
 10
-20.201468
 20
7.77902
 11
-16.201462
 21
7.77902
  0
LINE
  8
ボルト／ビス
  6
CONTINUOUS
 62
    64
 10
-20.201468
 20
15.479023
 11
-19.701465
 21
15.979018
  0
LINE
  8
ボルト／ビス
  6
CONTINUOUS
 62
    64
 10
-16.201462
 20
15.479023
 11
-16.701465
 21
15.979018
  0
LINE
  8
ボルト／ビス
  6
CONTINUOUS
 62
    64
 10
-19.701465
 20
15.979018
 11
-16.701465
 21
15.979018
  0
LINE
  8
ボルト／ビス
  6
CONTINUOUS
 62
    64
 10
-20.201468
 20
15.479023
 11
-16.201462
 21
15.479023
  0
LINE
  8
ボルト／ビス
  6
CONTINUOUS
 62
    64
 10
-16.701465
 20
7.77902
 11
-16.701465
 21
15.979018
  0
LINE
  8
ボルト／ビス
  6
CONTINUOUS
 62
    64
 10
-19.701465
 20
7.77902
 11
-19.701465
 21
15.979018
  0
LINE
  8
ボルト／ビス
  6
CONTINUOUS
 62
    64
 10
-20.201468
 20
7.77902
 11
-20.201468
 21
15.479023
  0
LINE
  8
ボルト／ビス
  6
CONTINUOUS
 62
    64
 10
-16.201462
 20
7.77902
 11
-16.201462
 21
15.479023
  0
LINE
  8
ボルト／ビス
  6
DASHDOT
 62
    64
 10
-18.201465
 20
2.97902
 11
-18.201465
 21
18.979018
  0
LINE
  8
ボルト／ビス
  6
DOT
 62
    64
 10
-21.201465
 20
5.97902
 11
-20.201468
 21
7.77902
  0
LINE
  8
ボルト／ビス
  6
DOT
 62
    64
 10
-21.201465
 20
5.97902
 11
-15.201465
 21
5.97902
  0
LINE
  8
ボルト／ビス
  6
DOT
 62
    64
 10
-15.201465
 20
5.97902
 11
-16.201462
 21
7.77902
  0
ENDBLK
  0
BLOCK
  2
*GRP_0013
 70
    65
 10
0.0
 20
0.0
  0
LINE
  8
ボルト／ビス
  6
CONTINUOUS
 62
    64
 10
-20.201468
 20
-70.219863
 11
-16.201462
 21
-70.219863
  0
LINE
  8
ボルト／ビス
  6
CONTINUOUS
 62
    64
 10
-20.201468
 20
-62.51986
 11
-19.701465
 21
-62.019865
  0
LINE
  8
ボルト／ビス
  6
CONTINUOUS
 62
    64
 10
-16.201462
 20
-62.51986
 11
-16.701465
 21
-62.019865
  0
LINE
  8
ボルト／ビス
  6
CONTINUOUS
 62
    64
 10
-19.701465
 20
-62.019865
 11
-16.701465
 21
-62.019865
  0
LINE
  8
ボルト／ビス
  6
CONTINUOUS
 62
    64
 10
-20.201468
 20
-62.51986
 11
-16.201462
 21
-62.51986
  0
LINE
  8
ボルト／ビス
  6
CONTINUOUS
 62
    64
 10
-16.701465
 20
-70.219863
 11
-16.701465
 21
-62.019865
  0
LINE
  8
ボルト／ビス
  6
CONTINUOUS
 62
    64
 10
-19.701465
 20
-70.219863
 11
-19.701465
 21
-62.019865
  0
LINE
  8
ボルト／ビス
  6
CONTINUOUS
 62
    64
 10
-20.201468
 20
-70.219863
 11
-20.201468
 21
-62.51986
  0
LINE
  8
ボルト／ビス
  6
CONTINUOUS
 62
    64
 10
-16.201462
 20
-70.219863
 11
-16.201462
 21
-62.51986
  0
LINE
  8
ボルト／ビス
  6
DASHDOT
 62
    64
 10
-18.201465
 20
-75.019863
 11
-18.201465
 21
-59.019865
  0
LINE
  8
ボルト／ビス
  6
DOT
 62
    64
 10
-21.201465
 20
-72.019863
 11
-20.201468
 21
-70.219863
  0
LINE
  8
ボルト／ビス
  6
DOT
 62
    64
 10
-21.201465
 20
-72.019863
 11
-15.201465
 21
-72.019863
  0
LINE
  8
ボルト／ビス
  6
DOT
 62
    64
 10
-15.201465
 20
-72.019863
 11
-16.201462
 21
-70.219863
  0
ENDBLK
  0
BLOCK
  2
*DIM_0014
 70
    65
 10
0.0
 20
0.0
  0
LINE
  8
寸法
  6
CONTINUOUS
 10
11.798213
 20
93.980137
 11
11.798213
 21
126.090603
  0
LINE
  8
寸法
  6
CONTINUOUS
 10
-38.201812
 20
126.090603
 11
11.798213
 21
126.090603
  0
POINT
  8
寸法
 10
-38.201812
 20
126.090603
  0
POINT
  8
寸法
 10
11.798213
 20
126.090603
  0
TEXT
  7
TextStyle03
  8
寸法
  6
CONTINUOUS
 10
-14.79375
 20
126.475
  1
50
 40
3.0
 72
     5
 11
-11.60625
 21
126.475
  0
ENDBLK
  0
BLOCK
  2
*DIM_0015
 70
    65
 10
0.0
 20
0.0
  0
LINE
  8
寸法
  6
CONTINUOUS
 10
11.798213
 20
93.980137
 11
11.798213
 21
119.0135
  0
LINE
  8
寸法
  6
CONTINUOUS
 10
-18.20184
 20
96.980077
 11
-18.20184
 21
119.0135
  0
LINE
  8
寸法
  6
CONTINUOUS
 10
11.798213
 20
119.0135
 11
-18.20184
 21
119.0135
  0
POINT
  8
寸法
 10
11.798213
 20
119.0135
  0
POINT
  8
寸法
 10
-18.20184
 20
119.0135
  0
TEXT
  7
TextStyle03
  8
寸法
  6
CONTINUOUS
 10
-4.79375
 20
119.4
  1
30
 40
3.0
 72
     5
 11
-1.60625
 21
119.4
  0
ENDBLK
  0
BLOCK
  2
*DIM_0016
 70
    65
 10
0.0
 20
0.0
  0
LINE
  8
寸法
  6
CONTINUOUS
 10
-18.20184
 20
96.980077
 11
-18.20184
 21
119.0135
  0
LINE
  8
寸法
  6
CONTINUOUS
 10
-38.201812
 20
93.980137
 11
-38.201812
 21
119.0135
  0
LINE
  8
寸法
  6
CONTINUOUS
 10
-18.20184
 20
119.0135
 11
-38.201812
 21
119.0135
  0
POINT
  8
寸法
 10
-38.201812
 20
119.0135
  0
TEXT
  7
TextStyle03
  8
寸法
  6
CONTINUOUS
 10
-29.79375
 20
119.4
  1
20
 40
3.0
 72
     5
 11
-26.60625
 21
119.4
  0
ENDBLK
  0
BLOCK
  2
*DIM_0017
 70
    65
 10
0.0
 20
0.0
  0
LINE
  8
寸法
  6
CONTINUOUS
 10
-68.201468
 20
-58.019858
 11
-68.201468
 21
119.0135
  0
LINE
  8
寸法
  6
CONTINUOUS
 10
-38.201812
 20
119.0135
 11
-68.201468
 21
119.0135
  0
POINT
  8
寸法
 10
-38.201812
 20
119.0135
  0
POINT
  8
寸法
 10
-68.201468
 20
119.0135
  0
TEXT
  7
TextStyle03
  8
寸法
  6
CONTINUOUS
 10
-54.79375
 20
119.4
  1
30
 40
3.0
 72
     5
 11
-51.60625
 21
119.4
  0
ENDBLK
  0
BLOCK
  2
*DIM_0018
 70
    65
 10
0.0
 20
0.0
  0
LINE
  8
寸法
  6
CONTINUOUS
 10
-69.201468
 20
-73.519863
 11
-149.33907
 21
-73.519863
  0
LINE
  8
寸法
  6
CONTINUOUS
 10
-54.201865
 20
86.976568
 11
-149.33907
 21
86.976568
  0
LINE
  8
寸法
  6
CONTINUOUS
 10
-149.33907
 20
-73.519863
 11
-149.33907
 21
86.976568
  0
POINT
  8
寸法
 10
-149.33907
 20
-73.519863
  0
POINT
  8
寸法
 10
-149.33907
 20
86.976568
  0
TEXT
  7
TextStyle03
  8
寸法
  6
CONTINUOUS
 10
-149.7
 20
2.6
  1
160.5
 40
3.0
 50
90.0
 72
     5
 11
-149.7
 21
10.85
  0
ENDBLK
  0
BLOCK
  2
*DIM_0019
 70
    65
 10
0.0
 20
0.0
  0
LINE
  8
寸法
  6
CONTINUOUS
 10
-70.201468
 20
-73.519863
 11
-143.693703
 21
-73.519863
  0
LINE
  8
寸法
  6
CONTINUOUS
 10
-69.201468
 20
-59.019858
 11
-143.693703
 21
-59.019858
  0
LINE
  8
寸法
  6
CONTINUOUS
 10
-143.693703
 20
-73.519863
 11
-143.693703
 21
-59.019858
  0
POINT
  8
寸法
 10
-143.693703
 20
-73.519863
  0
POINT
  8
寸法
 10
-143.693703
 20
-59.019858
  0
TEXT
  7
TextStyle03
  8
寸法
  6
CONTINUOUS
 10
-144.05
 20
-69.55625
  1
14.5
 40
3.0
 50
90.0
 72
     5
 11
-144.05
 21
-62.99375
  0
ENDBLK
  0
BLOCK
  2
*DIM_0020
 70
    65
 10
0.0
 20
0.0
  0
LINE
  8
寸法
  6
CONTINUOUS
 10
-54.201865
 20
64.47902
 11
-143.693703
 21
64.47902
  0
LINE
  8
寸法
  6
CONTINUOUS
 10
-116.734008
 20
73.979045
 11
-143.693703
 21
73.979045
  0
LINE
  8
寸法
  6
CONTINUOUS
 10
-143.693703
 20
64.47902
 11
-143.693703
 21
73.979045
  0
POINT
  8
寸法
 10
-143.693703
 20
73.979045
  0
TEXT
  7
TextStyle03
  8
寸法
  6
CONTINUOUS
 10
-144.05
 20
66.7875
  1
9.5
 40
3.0
 50
90.0
 72
     5
 11
-144.05
 21
71.6625
  0
ENDBLK
  0
BLOCK
  2
*DIM_0021
 70
    65
 10
0.0
 20
0.0
  0
LINE
  8
寸法
  6
CONTINUOUS
 10
-116.734008
 20
73.979045
 11
-143.693703
 21
73.979045
  0
LINE
  8
寸法
  6
CONTINUOUS
 10
-116.734008
 20
80.779047
 11
-143.693703
 21
80.779047
  0
LINE
  8
寸法
  6
CONTINUOUS
 10
-143.693703
 20
73.979045
 11
-143.693703
 21
80.779047
  0
POINT
  8
寸法
 10
-143.693703
 20
80.779047
  0
TEXT
  7
TextStyle03
  8
寸法
  6
CONTINUOUS
 10
-144.05
 20
74.9375
  1
6.8
 40
3.0
 50
90.0
 72
     5
 11
-144.05
 21
79.8125
  0
ENDBLK
  0
BLOCK
  2
*DIM_0022
 70
    65
 10
0.0
 20
0.0
  0
LINE
  8
寸法
  6
CONTINUOUS
 10
-116.734008
 20
80.779047
 11
-143.693703
 21
80.779047
  0
LINE
  8
寸法
  6
CONTINUOUS
 10
-55.201865
 20
86.976568
 11
-143.693703
 21
86.976568
  0
LINE
  8
寸法
  6
CONTINUOUS
 10
-143.693703
 20
80.779047
 11
-143.693703
 21
86.976568
  0
POINT
  8
寸法
 10
-143.693703
 20
86.976568
  0
TEXT
  7
TextStyle03
  8
寸法
  6
CONTINUOUS
 10
-144.05
 20
81.4375
  1
6.2
 40
3.0
 50
90.0
 72
     5
 11
-144.05
 21
86.3125
  0
ENDBLK
  0
BLOCK
  2
*DIM_0023
 70
    65
 10
0.0
 20
0.0
  0
LINE
  8
寸法
  6
CONTINUOUS
 10
-7.201468
 20
-72.019863
 11
64.29462
 21
-72.019863
  0
LINE
  8
寸法
  6
CONTINUOUS
 10
12.798213
 20
92.980137
 11
64.29462
 21
92.980137
  0
LINE
  8
寸法
  6
CONTINUOUS
 10
64.29462
 20
-72.019863
 11
64.29462
 21
92.980137
  0
POINT
  8
寸法
 10
64.29462
 20
-72.019863
  0
POINT
  8
寸法
 10
64.29462
 20
92.980137
  0
TEXT
  7
TextStyle03
  8
寸法
  6
CONTINUOUS
 10
63.925
 20
8.0375
  1
165
 40
3.0
 50
90.0
 72
     5
 11
63.925
 21
12.9125
  0
ENDBLK
  0
BLOCK
  2
*DIM_0024
 70
    65
 10
0.0
 20
0.0
  0
LINE
  8
寸法
  6
CONTINUOUS
 10
12.798213
 20
92.980137
 11
56.637268
 21
92.980137
  0
LINE
  8
寸法
  6
CONTINUOUS
 10
24.798137
 20
62.980137
 11
56.637268
 21
62.980137
  0
LINE
  8
寸法
  6
CONTINUOUS
 10
56.637268
 20
92.980137
 11
56.637268
 21
62.980137
  0
POINT
  8
寸法
 10
56.637268
 20
92.980137
  0
POINT
  8
寸法
 10
56.637268
 20
62.980137
  0
TEXT
  7
TextStyle03
  8
寸法
  6
CONTINUOUS
 10
56.275
 20
76.38125
  1
30
 40
3.0
 50
90.0
 72
     5
 11
56.275
 21
79.56875
  0
ENDBLK
  0
BLOCK
  2
*DIM_0025
 70
    65
 10
0.0
 20
0.0
  0
LINE
  8
寸法
  6
CONTINUOUS
 10
24.798137
 20
62.980137
 11
56.637268
 21
62.980137
  0
LINE
  8
寸法
  6
CONTINUOUS
 10
-7.201468
 20
5.97902
 11
56.637268
 21
5.97902
  0
LINE
  8
寸法
  6
CONTINUOUS
 10
56.637268
 20
62.980137
 11
56.637268
 21
5.97902
  0
POINT
  8
寸法
 10
56.637268
 20
5.97902
  0
TEXT
  7
TextStyle03
  8
寸法
  6
CONTINUOUS
 10
56.275
 20
32.88125
  1
57
 40
3.0
 50
90.0
 72
     5
 11
56.275
 21
36.06875
  0
ENDBLK
  0
BLOCK
  2
*DIM_0026
 70
    65
 10
0.0
 20
0.0
  0
LINE
  8
寸法
  6
CONTINUOUS
 10
-7.201468
 20
5.97902
 11
56.637268
 21
5.97902
  0
LINE
  8
寸法
  6
CONTINUOUS
 10
-7.201468
 20
-0.02098
 11
56.637268
 21
-0.02098
  0
LINE
  8
寸法
  6
CONTINUOUS
 10
56.637268
 20
5.97902
 11
56.637268
 21
-0.02098
  0
POINT
  8
寸法
 10
56.637268
 20
-0.02098
  0
TEXT
  7
TextStyle03
  8
寸法
  6
CONTINUOUS
 10
56.275
 20
2.225
  1
6
 40
3.0
 50
90.0
 72
     5
 11
56.275
 21
3.725
  0
ENDBLK
  0
BLOCK
  2
*DIM_0027
 70
    65
 10
0.0
 20
0.0
  0
LINE
  8
寸法
  6
CONTINUOUS
 10
-7.201468
 20
-0.02098
 11
56.637268
 21
-0.02098
  0
LINE
  8
寸法
  6
CONTINUOUS
 10
-6.201468
 20
-72.019863
 11
56.637268
 21
-72.019863
  0
LINE
  8
寸法
  6
CONTINUOUS
 10
56.637268
 20
-0.02098
 11
56.637268
 21
-72.019863
  0
POINT
  8
寸法
 10
56.637268
 20
-72.019863
  0
TEXT
  7
TextStyle03
  8
寸法
  6
CONTINUOUS
 10
56.275
 20
-37.61875
  1
72
 40
3.0
 50
90.0
 72
     5
 11
56.275
 21
-34.43125
  0
ENDBLK
  0
BLOCK
  2
*GRP_0028
 70
    65
 10
0.0
 20
0.0
  0
POLYLINE
  8
寸法
  6
CONTINUOUS
 66
     1
  0
VERTEX
  8
寸法
 10
-8.576468
 20
-65.50136
  0
VERTEX
  8
寸法
 10
-1.701242
 20
-58.626135
  0
VERTEX
  8
寸法
 10
3.017323
 20
-58.626135
  0
SEQEND
  0
ENDBLK
  0
BLOCK
  2
*GRP_0029
 70
    65
 10
0.0
 20
0.0
  0
POLYLINE
  8
寸法
  6
BYBLOCK
 62
     0
 66
     1
  0
VERTEX
  8
寸法
 10
-9.493837
 20
-94.75718
  0
VERTEX
  8
寸法
 10
-6.150587
 20
-98.100428
  0
VERTEX
  8
寸法
 10
4.38078
 20
-98.100428
  0
SEQEND
  0
ENDBLK
  0
BLOCK
  2
*GRP_0030
 70
    65
 10
0.0
 20
0.0
  0
POLYLINE
  8
寸法
  6
CONTINUOUS
 66
     1
  0
VERTEX
  8
寸法
 10
-49.713052
 20
109.159973
  0
VERTEX
  8
寸法
 10
-44.589983
 20
114.283043
  0
VERTEX
  8
寸法
 10
-14.370702
 20
114.283043
  0
VERTEX
  8
寸法
 10
-15.536473
 20
114.283043
  0
SEQEND
  0
ENDBLK
  0
BLOCK
  2
*GRP_0031
 70
    65
 10
0.0
 20
0.0
  0
LINE
  8
St
  6
CONTINUOUS
 10
-8.251365
 20
-73.519863
 11
-48.251362
 21
-73.519863
  0
LINE
  8
St
  6
CONTINUOUS
 10
-8.251365
 20
-73.519863
 11
-8.251365
 21
-103.519863
  0
LINE
  8
St
  6
CONTINUOUS
 10
-8.29206
 20
-76.719865
 11
-48.251362
 21
-76.719865
  0
LINE
  8
St
  6
CONTINUOUS
 10
-41.893312
 20
-73.519863
 11
-38.69331
 21
-76.719865
  0
LINE
  8
St
  6
CONTINUOUS
 10
-41.186212
 20
-73.519863
 11
-37.98621
 21
-76.719865
  0
LINE
  8
St
  6
CONTINUOUS
 10
-15.647617
 20
-73.519863
 11
-12.4476
 21
-76.719865
  0
LINE
  8
St
  6
CONTINUOUS
 10
-14.940517
 20
-73.519863
 11
-11.7405
 21
-76.719865
  0
LINE
  8
St
  6
CONTINUOUS
 10
-48.251362
 20
-73.519863
 11
-48.251362
 21
-103.519863
  0
LINE
  8
St
  6
CONTINUOUS
 10
-8.251365
 20
-103.519863
 11
-48.251362
 21
-103.519863
  0
ENDBLK
  0
BLOCK
  2
*GRP_0032
 70
    65
 10
0.0
 20
0.0
  0
LINE
  8
St
  6
CONTINUOUS
 62
    47
 10
21.798532
 20
-0.02098
 11
-8.201468
 21
-0.02098
  0
LINE
  8
St
  6
CONTINUOUS
 62
    47
 10
-8.201468
 20
-0.02098
 11
-8.201468
 21
-30.02098
  0
ARC
  8
St
  6
CONTINUOUS
 62
    47
 10
-0.201467
 20
-8.020892
 40
5.0
 50
90.0
 51
180.0
  0
LINE
  8
St
  6
CONTINUOUS
 62
    47
 10
-7.201458
 20
-30.02098
 11
-8.201468
 21
-30.02098
  0
LINE
  8
St
  6
CONTINUOUS
 62
    47
 10
-5.201468
 20
-28.020955
 11
-5.201468
 21
-8.02097
  0
ARC
  8
St
  6
CONTINUOUS
 62
    47
 10
-7.201467
 20
-28.020892
 40
2.0
 50
-90.0
 51
0.0
  0
LINE
  8
St
  6
CONTINUOUS
 62
    47
 10
21.798532
 20
-1.020955
 11
21.798532
 21
-0.02098
  0
LINE
  8
St
  6
CONTINUOUS
 62
    47
 10
19.798543
 20
-3.02098
 11
-0.201443
 21
-3.02098
  0
ARC
  8
St
  6
CONTINUOUS
 62
    47
 10
19.798533
 20
-1.020892
 40
2.0
 50
270.0
 51
360.0
  0
LINE
  8
St
  6
CONTINUOUS
 62
    47
 10
17.800393
 20
-0.02098
 11
14.800393
 21
-3.02098
  0
LINE
  8
St
  6
CONTINUOUS
 62
    47
 10
-5.201468
 20
-23.022805
 11
-8.201468
 21
-26.022805
  0
ENDBLK
  0
BLOCK
  2
*GRP_0033
 70
    65
 10
0.0
 20
0.0
  0
LINE
  8
St
  6
CONTINUOUS
 62
    47
 10
21.798532
 20
5.97902
 11
-8.201468
 21
5.97902
  0
LINE
  8
St
  6
CONTINUOUS
 62
    47
 10
-8.201468
 20
5.97902
 11
-8.201468
 21
35.97902
  0
ARC
  8
St
  6
CONTINUOUS
 62
    47
 10
-0.201467
 20
13.979106
 40
5.0
 50
180.0
 51
270.0
  0
LINE
  8
St
  6
CONTINUOUS
 62
    47
 10
-7.201458
 20
35.97902
 11
-8.201468
 21
35.97902
  0
LINE
  8
St
  6
CONTINUOUS
 62
    47
 10
-5.201468
 20
33.97903
 11
-5.201468
 21
13.979045
  0
ARC
  8
St
  6
CONTINUOUS
 62
    47
 10
-7.201467
 20
33.979106
 40
2.0
 50
0.0
 51
90.0
  0
LINE
  8
St
  6
CONTINUOUS
 62
    47
 10
21.798532
 20
6.97903
 11
21.798532
 21
5.97902
  0
LINE
  8
St
  6
CONTINUOUS
 62
    47
 10
19.798543
 20
8.97902
 11
-0.201443
 21
8.97902
  0
ARC
  8
St
  6
CONTINUOUS
 62
    47
 10
19.798533
 20
6.979106
 40
2.0
 50
0.0
 51
90.0
  0
LINE
  8
St
  6
CONTINUOUS
 62
    47
 10
17.800393
 20
5.97902
 11
14.800393
 21
8.97902
  0
LINE
  8
St
  6
CONTINUOUS
 62
    47
 10
-5.201468
 20
28.98088
 11
-8.201468
 21
31.98088
  0
ENDBLK
  0
BLOCK
  2
*GRP_0034
 70
    65
 10
0.0
 20
0.0
  0
LINE
  8
ボルト／ビス
  6
CONTINUOUS
 62
    64
 10
1.500568
 20
-12.97097
 11
-0.039033
 21
-12.410605
  0
ARC
  8
ボルト／ビス
  6
CONTINUOUS
 62
    64
 10
2.270356
 20
-7.931927
 40
5.038967
 50
270.0
 51
297.277991
  0
LINE
  8
ボルト／ビス
  6
CONTINUOUS
 62
    64
 10
16.896567
 20
-12.97097
 11
18.436168
 21
-12.410605
  0
ARC
  8
ボルト／ビス
  6
CONTINUOUS
 62
    64
 10
16.126761
 20
-7.931927
 40
5.038967
 50
242.722009
 51
270.0
  0
ARC
  8
ボルト／ビス
  6
CONTINUOUS
 62
    64
 10
9.198558
 20
6.344421
 40
19.315315
 50
256.165012
 51
283.834988
  0
LINE
  8
ボルト／ビス
  6
CONTINUOUS
 62
    64
 10
13.817368
 20
-6.720955
 11
13.817368
 21
-12.410605
  0
LINE
  8
ボルト／ビス
  6
CONTINUOUS
 62
    64
 10
4.579767
 20
-6.720955
 11
4.579767
 21
-12.410605
  0
LINE
  8
ボルト／ビス
  6
CONTINUOUS
 62
    64
 10
-0.039033
 20
-6.720955
 11
-0.039033
 21
-12.410605
  0
LINE
  8
ボルト／ビス
  6
CONTINUOUS
 62
    64
 10
18.436168
 20
-6.720955
 11
18.436168
 21
-12.410605
  0
LINE
  8
ボルト／ビス
  6
CONTINUOUS
 62
    64
 10
16.896567
 20
-12.97097
 11
1.500568
 21
-12.97097
  0
LINE
  8
ボルト／ビス
  6
CONTINUOUS
 62
    64
 10
-1.801418
 20
-4.22098
 11
-1.801418
 21
-3.02098
  0
LINE
  8
ボルト／ビス
  6
CONTINUOUS
 62
    64
 10
-1.801418
 20
-4.22098
 11
20.198558
 21
-4.22098
  0
LINE
  8
ボルト／ビス
  6
CONTINUOUS
 62
    64
 10
20.198558
 20
-4.22098
 11
20.198558
 21
-3.02098
  0
LINE
  8
ボルト／ビス
  6
CONTINUOUS
 62
    64
 10
-1.801418
 20
-3.02098
 11
20.198558
 21
-3.02098
  0
LINE
  8
ボルト／ビス
  6
CONTINUOUS
 62
    64
 10
9.198567
 20
-6.720955
 11
9.198567
 21
-4.22098
  0
LINE
  8
ボルト／ビス
  6
CONTINUOUS
 62
    64
 10
18.898582
 20
-6.720955
 11
18.898582
 21
-4.22098
  0
LINE
  8
ボルト／ビス
  6
CONTINUOUS
 62
    64
 10
-0.501443
 20
-6.720955
 11
-0.501443
 21
-4.22098
  0
LINE
  8
ボルト／ビス
  6
CONTINUOUS
 62
    64
 10
18.898582
 20
-6.720955
 11
-0.501443
 21
-6.720955
  0
ENDBLK
  0
BLOCK
  2
*GRP_0035
 70
    65
 10
0.0
 20
0.0
  0
LINE
  8
ボルト／ビス
  6
CONTINUOUS
 62
    64
 10
1.500568
 20
18.929045
 11
-0.039033
 21
18.36868
  0
ARC
  8
ボルト／ビス
  6
CONTINUOUS
 62
    64
 10
2.270355
 20
13.89014
 40
5.038967
 50
62.722009
 51
90.0
  0
LINE
  8
ボルト／ビス
  6
CONTINUOUS
 62
    64
 10
16.896567
 20
18.929045
 11
18.436168
 21
18.36868
  0
ARC
  8
ボルト／ビス
  6
CONTINUOUS
 62
    64
 10
16.12676
 20
13.89014
 40
5.038967
 50
90.0
 51
117.277991
  0
ARC
  8
ボルト／ビス
  6
CONTINUOUS
 62
    64
 10
9.198557
 20
-0.386207
 40
19.315315
 50
76.165012
 51
103.834988
  0
LINE
  8
ボルト／ビス
  6
CONTINUOUS
 62
    64
 10
13.817368
 20
12.67903
 11
13.817368
 21
18.36868
  0
LINE
  8
ボルト／ビス
  6
CONTINUOUS
 62
    64
 10
4.579767
 20
12.67903
 11
4.579767
 21
18.36868
  0
LINE
  8
ボルト／ビス
  6
CONTINUOUS
 62
    64
 10
-0.039033
 20
12.67903
 11
-0.039033
 21
18.36868
  0
LINE
  8
ボルト／ビス
  6
CONTINUOUS
 62
    64
 10
18.436168
 20
12.67903
 11
18.436168
 21
18.36868
  0
LINE
  8
ボルト／ビス
  6
CONTINUOUS
 62
    64
 10
16.896567
 20
18.929045
 11
1.500568
 21
18.929045
  0
LINE
  8
ボルト／ビス
  6
CONTINUOUS
 62
    64
 10
-1.801418
 20
10.17902
 11
-1.801418
 21
8.97902
  0
LINE
  8
ボルト／ビス
  6
CONTINUOUS
 62
    64
 10
-1.801418
 20
10.17902
 11
20.198558
 21
10.17902
  0
LINE
  8
ボルト／ビス
  6
CONTINUOUS
 62
    64
 10
20.198558
 20
10.17902
 11
20.198558
 21
8.97902
  0
LINE
  8
ボルト／ビス
  6
CONTINUOUS
 62
    64
 10
-1.801418
 20
8.97902
 11
20.198558
 21
8.97902
  0
LINE
  8
ボルト／ビス
  6
CONTINUOUS
 62
    64
 10
9.198567
 20
12.67903
 11
9.198567
 21
10.17902
  0
LINE
  8
ボルト／ビス
  6
CONTINUOUS
 62
    64
 10
18.898582
 20
12.67903
 11
18.898582
 21
10.17902
  0
LINE
  8
ボルト／ビス
  6
CONTINUOUS
 62
    64
 10
-0.501443
 20
12.67903
 11
-0.501443
 21
10.17902
  0
LINE
  8
ボルト／ビス
  6
CONTINUOUS
 62
    64
 10
18.898582
 20
12.67903
 11
-0.501443
 21
12.67903
  0
LINE
  8
ボルト／ビス
  6
CONTINUOUS
 62
    64
 10
5.398582
 20
-17.32097
 11
12.998558
 21
-17.32097
  0
LINE
  8
ボルト／ビス
  6
CONTINUOUS
 62
    64
 10
9.198567
 20
23.92903
 11
9.198567
 21
-22.320955
  0
LINE
  8
ボルト／ビス
  6
CONTINUOUS
 62
    64
 10
14.198558
 20
-15.82097
 11
12.998558
 21
-17.32097
  0
LINE
  8
ボルト／ビス
  6
CONTINUOUS
 62
    64
 10
4.198582
 20
-15.82097
 11
5.398582
 21
-17.32097
  0
LINE
  8
ボルト／ビス
  6
CONTINUOUS
 62
    64
 10
14.198558
 20
-15.82097
 11
4.198582
 21
-15.82097
  0
LINE
  8
ボルト／ビス
  6
CONTINUOUS
 62
    64
 10
5.398582
 20
-17.32097
 11
12.998558
 21
-17.32097
  0
LINE
  8
ボルト／ビス
  6
CONTINUOUS
 62
    64
 10
12.998558
 20
8.97902
 11
12.998558
 21
-17.32097
  0
LINE
  8
ボルト／ビス
  6
CONTINUOUS
 62
    64
 10
5.398582
 20
8.97902
 11
5.398582
 21
-17.32097
  0
LINE
  8
ボルト／ビス
  6
CONTINUOUS
 62
    64
 10
14.198558
 20
8.97902
 11
14.198558
 21
-15.82097
  0
LINE
  8
ボルト／ビス
  6
CONTINUOUS
 62
    64
 10
4.198582
 20
8.97902
 11
4.198582
 21
-15.82097
  0
ENDBLK
  0
BLOCK
  2
*GRP_0036
 70
    65
 10
0.0
 20
0.0
  0
POLYLINE
  8
寸法
  6
CONTINUOUS
 66
     1
  0
VERTEX
  8
寸法
 10
-5.201468
 20
23.979038
  0
VERTEX
  8
寸法
 10
0.29522
 20
29.475725
  0
VERTEX
  8
寸法
 10
74.546428
 20
29.475725
  0
SEQEND
  0
ENDBLK
  0
BLOCK
  2
*GRP_0037
 70
    65
 10
0.0
 20
0.0
  0
POLYLINE
  8
寸法
  6
CONTINUOUS
 66
     1
  0
VERTEX
  8
寸法
 10
13.817368
 20
-12.41053
  0
VERTEX
  8
寸法
 10
22.531202
 20
-21.124365
  0
VERTEX
  8
寸法
 10
72.4704
 20
-21.124365
  0
SEQEND
  0
ENDBLK
  0
BLOCK
  2
*GRP_0038
 70
    65
 10
0.0
 20
0.0
  0
LINE
  8
型材断面
  6
DOT
 10
-28.201462
 20
86.976568
 11
-28.201462
 21
85.476568
  0
LINE
  8
型材断面
  6
DOT
 10
-53.201865
 20
86.976568
 11
-53.201865
 21
85.476568
  0
LINE
  8
型材断面
  6
DOT
 10
-53.201865
 20
86.976568
 11
-28.201462
 21
86.976568
  0
LINE
  8
型材断面
  6
DOT
 10
-53.201865
 20
85.476568
 11
-28.201462
 21
85.476568
  0
ENDBLK
  0
BLOCK
  2
*GRP_0039
 70
    65
 10
0.0
 20
0.0
  0
INSERT
  2
*GRP_0041
  8
ゴム等
  6
DOT
 10
0.0
 20
0.0
  0
LINE
  8
ゴム等
  6
DOT
 10
-43.20189
 20
85.476568
 11
-47.899568
 21
80.779047
  0
LINE
  8
ゴム等
  6
DOT
 10
-43.656967
 20
80.779047
 11
-43.20189
 21
81.234095
  0
LINE
  8
ゴム等
  6
DOT
 10
-45.071167
 20
80.779047
 11
-43.20189
 21
82.648243
  0
LINE
  8
ゴム等
  6
DOT
 10
-46.485368
 20
80.779047
 11
-43.20189
 21
84.06242
  0
LINE
  8
ゴム等
  6
DOT
 10
-49.313767
 20
80.779047
 11
-44.61609
 21
85.476568
  0
LINE
  8
ゴム等
  6
DOT
 10
-50.727967
 20
80.779047
 11
-46.030313
 21
85.476568
  0
LINE
  8
ゴム等
  6
DOT
 10
-52.142167
 20
80.779047
 11
-47.444513
 21
85.476568
  0
LINE
  8
ゴム等
  6
DOT
 10
-53.201865
 20
81.133648
 11
-48.858817
 21
85.476568
  0
LINE
  8
ゴム等
  6
DOT
 10
-53.201865
 20
82.547818
 11
-50.273017
 21
85.476568
  0
LINE
  8
ゴム等
  6
DOT
 10
-53.201865
 20
83.961973
 11
-51.687218
 21
85.476568
  0
ENDBLK
  0
BLOCK
  2
*GRP_0040
 70
    65
 10
0.0
 20
0.0
  0
LINE
  8
ボルト／ビス
  6
DOT
 62
    64
 10
-31.20147
 20
85.176568
 11
-35.201468
 21
85.176568
  0
LINE
  8
ボルト／ビス
  6
DOT
 62
    64
 10
-31.20147
 20
79.476568
 11
-31.701465
 21
78.976557
  0
LINE
  8
ボルト／ビス
  6
DOT
 62
    64
 10
-35.201468
 20
79.476568
 11
-34.701465
 21
78.976557
  0
LINE
  8
ボルト／ビス
  6
DOT
 62
    64
 10
-31.701465
 20
78.976557
 11
-34.701465
 21
78.976557
  0
LINE
  8
ボルト／ビス
  6
DOT
 62
    64
 10
-31.20147
 20
79.476568
 11
-35.201468
 21
79.476568
  0
LINE
  8
ボルト／ビス
  6
DOT
 62
    64
 10
-31.701465
 20
85.176568
 11
-31.701465
 21
78.976557
  0
LINE
  8
ボルト／ビス
  6
DOT
 62
    64
 10
-34.701465
 20
85.176568
 11
-34.701465
 21
78.976557
  0
LINE
  8
ボルト／ビス
  6
DOT
 62
    64
 10
-35.201468
 20
85.176568
 11
-35.201468
 21
79.476568
  0
LINE
  8
ボルト／ビス
  6
DOT
 62
    64
 10
-31.20147
 20
85.176568
 11
-31.20147
 21
79.476568
  0
LINE
  8
ボルト／ビス
  6
DOT
 62
    64
 10
-33.201465
 20
89.976568
 11
-33.201465
 21
75.976557
  0
LINE
  8
ボルト／ビス
  6
DOT
 62
    64
 10
-30.201465
 20
86.976568
 11
-31.20147
 21
85.176568
  0
LINE
  8
ボルト／ビス
  6
DOT
 62
    64
 10
-30.201465
 20
86.976568
 11
-36.201465
 21
86.976568
  0
LINE
  8
ボルト／ビス
  6
DOT
 62
    64
 10
-36.201465
 20
86.976568
 11
-35.201468
 21
85.176568
  0
ENDBLK
  0
BLOCK
  2
*GRP_0041
 70
    65
 10
0.0
 20
0.0
  0
LINE
  8
ゴム等
  6
DOT
 10
-43.20189
 20
85.476568
 11
-43.20189
 21
80.779047
  0
LINE
  8
ゴム等
  6
DOT
 10
-53.201865
 20
85.476568
 11
-53.201865
 21
80.779047
  0
LINE
  8
ゴム等
  6
DOT
 10
-53.201865
 20
85.476568
 11
-43.20189
 21
85.476568
  0
LINE
  8
ゴム等
  6
DOT
 10
-53.201865
 20
80.779047
 11
-43.20189
 21
80.779047
  0
ENDBLK
  0
BLOCK
  2
*GRP_0042
 70
    65
 10
0.0
 20
0.0
  0
LINE
  8
型材断面
  6
CONTINUOUS
 10
-53.201865
 20
72.479045
 11
-51.701865
 21
72.479045
  0
LINE
  8
型材断面
  6
CONTINUOUS
 10
-51.701865
 20
72.479045
 11
-51.701865
 21
65.97902
  0
LINE
  8
型材断面
  6
CONTINUOUS
 10
-53.201865
 20
72.479045
 11
-53.201865
 21
65.97902
  0
ARC
  8
型材断面
  6
CONTINUOUS
 10
-51.701869
 20
65.979023
 40
1.5
 50
180.0
 51
270.0
  0
LINE
  8
型材断面
  6
CONTINUOUS
 10
-51.701865
 20
65.97902
 11
-28.201462
 21
65.97902
  0
LINE
  8
型材断面
  6
CONTINUOUS
 62
    47
 10
-51.701865
 20
64.47902
 11
-28.201462
 21
64.47902
  0
ARC
  8
型材断面
  6
CONTINUOUS
 10
-28.201462
 20
65.979023
 40
1.5
 50
270.0
 51
360.0
  0
LINE
  8
型材断面
  6
CONTINUOUS
 10
-26.701462
 20
65.97902
 11
-26.701462
 21
80.476565
  0
LINE
  8
型材断面
  6
CONTINUOUS
 10
-28.201462
 20
65.97902
 11
-28.201462
 21
80.476565
  0
LINE
  8
型材断面
  6
CONTINUOUS
 10
-28.201462
 20
80.476565
 11
-26.701462
 21
80.476565
  0
ENDBLK
  0
BLOCK
  2
*GRP_0043
 70
    65
 10
0.0
 20
0.0
  0
LINE
  8
ボルト／ビス
  6
CONTINUOUS
 62
    64
 10
-27.901462
 20
73.476568
 11
-27.901462
 21
77.476565
  0
LINE
  8
ボルト／ビス
  6
CONTINUOUS
 62
    64
 10
-20.20146
 20
73.476568
 11
-19.701465
 21
73.976563
  0
LINE
  8
ボルト／ビス
  6
CONTINUOUS
 62
    64
 10
-20.20146
 20
77.476565
 11
-19.701465
 21
76.976563
  0
LINE
  8
ボルト／ビス
  6
CONTINUOUS
 62
    64
 10
-19.701465
 20
73.976563
 11
-19.701465
 21
76.976563
  0
LINE
  8
ボルト／ビス
  6
CONTINUOUS
 62
    64
 10
-20.20146
 20
73.476568
 11
-20.20146
 21
77.476565
  0
LINE
  8
ボルト／ビス
  6
CONTINUOUS
 62
    64
 10
-27.901462
 20
76.976563
 11
-19.701465
 21
76.976563
  0
LINE
  8
ボルト／ビス
  6
CONTINUOUS
 62
    64
 10
-27.901462
 20
73.976563
 11
-19.701465
 21
73.976563
  0
LINE
  8
ボルト／ビス
  6
CONTINUOUS
 62
    64
 10
-27.901462
 20
73.476568
 11
-20.20146
 21
73.476568
  0
LINE
  8
ボルト／ビス
  6
CONTINUOUS
 62
    64
 10
-27.901462
 20
77.476565
 11
-20.20146
 21
77.476565
  0
LINE
  8
ボルト／ビス
  6
DASHDOT
 62
    64
 10
-32.701462
 20
75.476563
 11
-16.701465
 21
75.476563
  0
LINE
  8
ボルト／ビス
  6
DOT
 62
    64
 10
-29.701462
 20
72.476563
 11
-27.901462
 21
73.476568
  0
LINE
  8
ボルト／ビス
  6
DOT
 62
    64
 10
-29.701462
 20
72.476563
 11
-29.701462
 21
78.476563
  0
LINE
  8
ボルト／ビス
  6
DOT
 62
    64
 10
-29.701462
 20
78.476563
 11
-27.901462
 21
77.476565
  0
ENDBLK
  0
BLOCK
  2
*GRP_0044
 70
    65
 10
0.0
 20
0.0
  0
LINE
  8
型材断面
  6
DOT
 10
-29.701462
 20
83.976568
 11
-29.701462
 21
70.476568
  0
LINE
  8
型材断面
  6
DOT
 10
-29.701462
 20
70.476568
 11
-28.201462
 21
70.476568
  0
LINE
  8
型材断面
  6
DOT
 10
-29.701462
 20
83.976568
 11
-38.20146
 21
83.976568
  0
LINE
  8
型材断面
  6
DOT
 10
-38.20146
 20
83.976568
 11
-38.20146
 21
85.476568
  0
LINE
  8
型材断面
  6
DOT
 10
-29.701462
 20
85.476568
 11
-38.20146
 21
85.476568
  0
LINE
  8
型材断面
  6
DOT
 10
-28.201462
 20
83.976568
 11
-28.201462
 21
70.476568
  0
ARC
  8
型材断面
  6
DOT
 10
-29.701463
 20
83.976562
 40
1.5
 50
0.0
 51
90.0
  0
ENDBLK
  0
BLOCK
  2
*GRP_0045
 70
    65
 10
0.0
 20
0.0
  0
LINE
  8
St
  6
CONTINUOUS
 10
-10.20147
 20
84.47657
 11
-13.401465
 21
84.47657
  0
LINE
  8
St
  6
CONTINUOUS
 10
-13.401465
 20
84.47657
 11
-13.401465
 21
63.479023
  0
LINE
  8
St
  6
CONTINUOUS
 10
-23.501462
 20
60.27902
 11
-23.501462
 21
10.679023
  0
LINE
  8
St
  6
CONTINUOUS
 10
-23.501462
 20
10.679023
 11
-10.20147
 21
10.679023
  0
LINE
  8
St
  6
CONTINUOUS
 10
-10.20147
 20
10.679023
 11
-10.20147
 21
7.47902
  0
LINE
  8
St
  6
CONTINUOUS
 10
-10.20147
 20
84.47657
 11
-10.20147
 21
63.479023
  0
LINE
  8
St
  6
CONTINUOUS
 10
-13.401473
 20
60.27902
 11
-23.501462
 21
60.27902
  0
ARC
  8
St
  6
CONTINUOUS
 10
-13.401468
 20
63.479017
 40
3.2
 50
-90.0
 51
0.0
  0
LINE
  8
St
  6
CONTINUOUS
 10
-13.401465
 20
63.479023
 11
-23.501462
 21
63.479023
  0
ARC
  8
St
  6
CONTINUOUS
 10
-23.501466
 20
60.27902
 40
3.2
 50
90.0
 51
180.0
  0
LINE
  8
St
  6
CONTINUOUS
 10
-26.701465
 20
10.679023
 11
-26.701465
 21
60.27902
  0
LINE
  8
St
  6
CONTINUOUS
 10
-23.501462
 20
7.47902
 11
-10.20147
 21
7.47902
  0
ARC
  8
St
  6
CONTINUOUS
 10
-23.501466
 20
10.679017
 40
3.2
 50
180.0
 51
270.0
  0
LINE
  8
St
  6
CONTINUOUS
 10
-13.401465
 20
77.152873
 11
-10.20147
 21
80.352867
  0
LINE
  8
St
  6
CONTINUOUS
 10
-13.401465
 20
76.445773
 11
-10.20147
 21
79.645767
  0
LINE
  8
St
  6
CONTINUOUS
 10
-26.701465
 20
49.35287
 11
-23.501462
 21
52.552873
  0
LINE
  8
St
  6
CONTINUOUS
 10
-22.275315
 20
60.27902
 11
-19.075313
 21
63.479023
  0
LINE
  8
St
  6
CONTINUOUS
 10
-26.701465
 20
48.64577
 11
-23.501462
 21
51.845773
  0
LINE
  8
St
  6
CONTINUOUS
 10
-21.568215
 20
60.27902
 11
-18.368213
 21
63.479023
  0
LINE
  8
St
  6
CONTINUOUS
 10
-26.701465
 20
18.854915
 11
-23.501462
 21
22.054918
  0
LINE
  8
St
  6
CONTINUOUS
 10
-26.701465
 20
18.147815
 11
-23.501462
 21
21.347818
  0
LINE
  8
St
  6
CONTINUOUS
 10
-22.275315
 20
7.47902
 11
-19.075313
 21
10.679023
  0
LINE
  8
St
  6
CONTINUOUS
 10
-21.568215
 20
7.47902
 11
-18.368213
 21
10.679023
  0
ENDBLK
  0
BLOCK
  2
*GRP_0046
 70
    65
 10
0.0
 20
0.0
  0
LINE
  8
St
  6
CONTINUOUS
 10
-10.20147
 20
-2.520978
 11
-10.20147
 21
-5.72098
  0
LINE
  8
St
  6
CONTINUOUS
 10
-10.20147
 20
-5.72098
 11
-23.501462
 21
-5.72098
  0
LINE
  8
St
  6
CONTINUOUS
 10
-23.501462
 20
-5.72098
 11
-23.501462
 21
-67.31986
  0
LINE
  8
St
  6
CONTINUOUS
 10
-23.501462
 20
-67.31986
 11
-10.20147
 21
-67.31986
  0
LINE
  8
St
  6
CONTINUOUS
 10
-10.20147
 20
-67.31986
 11
-10.20147
 21
-70.519863
  0
LINE
  8
St
  6
CONTINUOUS
 10
-10.20147
 20
-2.520978
 11
-23.501462
 21
-2.520978
  0
ARC
  8
St
  6
CONTINUOUS
 10
-23.501466
 20
-5.72098
 40
3.2
 50
90.0
 51
180.0
  0
LINE
  8
St
  6
CONTINUOUS
 10
-26.701465
 20
-5.72098
 11
-26.701465
 21
-67.31986
  0
LINE
  8
St
  6
CONTINUOUS
 10
-23.501462
 20
-70.519863
 11
-10.20147
 21
-70.519863
  0
ARC
  8
St
  6
CONTINUOUS
 10
-23.501466
 20
-67.319865
 40
3.2
 50
180.0
 51
270.0
  0
LINE
  8
St
  6
CONTINUOUS
 10
-22.275315
 20
-70.519863
 11
-19.075313
 21
-67.31986
  0
LINE
  8
St
  6
CONTINUOUS
 10
-21.568215
 20
-70.519863
 11
-18.368213
 21
-67.31986
  0
LINE
  8
St
  6
CONTINUOUS
 10
-22.275315
 20
-5.72098
 11
-19.075313
 21
-2.520978
  0
LINE
  8
St
  6
CONTINUOUS
 10
-21.568215
 20
-5.72098
 11
-18.368213
 21
-2.520978
  0
LINE
  8
St
  6
CONTINUOUS
 10
-26.701465
 20
-23.032442
 11
-23.501462
 21
-19.83244
  0
LINE
  8
St
  6
CONTINUOUS
 10
-26.701465
 20
-23.739542
 11
-23.501462
 21
-20.53954
  0
LINE
  8
St
  6
CONTINUOUS
 10
-26.701465
 20
-58.02928
 11
-23.501462
 21
-54.829277
  0
LINE
  8
St
  6
CONTINUOUS
 10
-26.701465
 20
-58.73638
 11
-23.501462
 21
-55.536377
  0
ENDBLK
  0
BLOCK
  2
*GRP_0047
 70
    65
 10
0.0
 20
0.0
  0
LINE
  8
ボルト／ビス
  6
CONTINUOUS
 62
    64
 10
-15.20149
 20
24.979018
 11
-14.701487
 21
24.479023
  0
LINE
  8
ボルト／ビス
  6
CONTINUOUS
 62
    64
 10
-15.20149
 20
19.979023
 11
-14.701487
 21
20.479018
  0
LINE
  8
ボルト／ビス
  6
CONTINUOUS
 62
    64
 10
-32.401487
 20
19.979023
 11
-15.20149
 21
19.979023
  0
LINE
  8
ボルト／ビス
  6
CONTINUOUS
 62
    64
 10
-32.401487
 20
20.479018
 11
-14.701487
 21
20.479018
  0
LINE
  8
ボルト／ビス
  6
CONTINUOUS
 62
    64
 10
-14.701487
 20
20.479018
 11
-14.701487
 21
24.479023
  0
LINE
  8
ボルト／ビス
  6
CONTINUOUS
 62
    64
 10
-32.401487
 20
24.479023
 11
-14.701487
 21
24.479023
  0
LINE
  8
ボルト／ビス
  6
CONTINUOUS
 62
    64
 10
-32.401487
 20
24.979018
 11
-15.20149
 21
24.979018
  0
LINE
  8
ボルト／ビス
  6
CONTINUOUS
 62
    64
 10
-15.20149
 20
19.979023
 11
-15.20149
 21
24.979018
  0
LINE
  8
ボルト／ビス
  6
DOT
 62
    64
 10
-34.70149
 20
26.479018
 11
-32.401487
 21
24.979018
  0
LINE
  8
ボルト／ビス
  6
DOT
 62
    64
 10
-34.70149
 20
18.479023
 11
-32.401487
 21
19.979023
  0
LINE
  8
ボルト／ビス
  6
DOT
 62
    64
 10
-34.70149
 20
26.479018
 11
-34.70149
 21
18.479023
  0
LINE
  8
ボルト／ビス
  6
DASHDOT
 62
    64
 10
-37.086693
 20
22.47902
 11
-12.822025
 21
22.47902
  0
LINE
  8
ボルト／ビス
  6
CONTINUOUS
 62
    64
 10
-32.401487
 20
24.979018
 11
-32.401487
 21
19.979023
  0
ENDBLK
  0
BLOCK
  2
*GRP_0048
 70
    65
 10
0.0
 20
0.0
  0
LINE
  8
ボルト／ビス
  6
CONTINUOUS
 62
    64
 10
-15.20149
 20
44.97902
 11
-14.701487
 21
44.479025
  0
LINE
  8
ボルト／ビス
  6
CONTINUOUS
 62
    64
 10
-15.20149
 20
39.979025
 11
-14.701487
 21
40.47902
  0
LINE
  8
ボルト／ビス
  6
CONTINUOUS
 62
    64
 10
-32.401487
 20
39.979025
 11
-15.20149
 21
39.979025
  0
LINE
  8
ボルト／ビス
  6
CONTINUOUS
 62
    64
 10
-32.401487
 20
40.47902
 11
-14.701487
 21
40.47902
  0
LINE
  8
ボルト／ビス
  6
CONTINUOUS
 62
    64
 10
-14.701487
 20
40.47902
 11
-14.701487
 21
44.479025
  0
LINE
  8
ボルト／ビス
  6
CONTINUOUS
 62
    64
 10
-32.401487
 20
44.479025
 11
-14.701487
 21
44.479025
  0
LINE
  8
ボルト／ビス
  6
CONTINUOUS
 62
    64
 10
-32.401487
 20
44.97902
 11
-15.20149
 21
44.97902
  0
LINE
  8
ボルト／ビス
  6
CONTINUOUS
 62
    64
 10
-15.20149
 20
39.979025
 11
-15.20149
 21
44.97902
  0
LINE
  8
ボルト／ビス
  6
DOT
 62
    64
 10
-34.70149
 20
46.47902
 11
-32.401487
 21
44.97902
  0
LINE
  8
ボルト／ビス
  6
DOT
 62
    64
 10
-34.70149
 20
38.479025
 11
-32.401487
 21
39.979025
  0
LINE
  8
ボルト／ビス
  6
DOT
 62
    64
 10
-34.70149
 20
46.47902
 11
-34.70149
 21
38.479025
  0
LINE
  8
ボルト／ビス
  6
DASHDOT
 62
    64
 10
-37.086693
 20
42.479023
 11
-12.822025
 21
42.479023
  0
LINE
  8
ボルト／ビス
  6
CONTINUOUS
 62
    64
 10
-32.401487
 20
44.97902
 11
-32.401487
 21
39.979025
  0
ENDBLK
  0
BLOCK
  2
*GRP_0049
 70
    65
 10
0.0
 20
0.0
  0
LINE
  8
ボルト／ビス
  6
CONTINUOUS
 62
    64
 10
-15.20149
 20
-35.019835
 11
-14.701487
 21
-35.51983
  0
LINE
  8
ボルト／ビス
  6
CONTINUOUS
 62
    64
 10
-15.20149
 20
-40.01983
 11
-14.701487
 21
-39.519835
  0
LINE
  8
ボルト／ビス
  6
CONTINUOUS
 62
    64
 10
-32.401487
 20
-40.01983
 11
-15.20149
 21
-40.01983
  0
LINE
  8
ボルト／ビス
  6
CONTINUOUS
 62
    64
 10
-32.401487
 20
-39.519835
 11
-14.701487
 21
-39.519835
  0
LINE
  8
ボルト／ビス
  6
CONTINUOUS
 62
    64
 10
-14.701487
 20
-39.519835
 11
-14.701487
 21
-35.51983
  0
LINE
  8
ボルト／ビス
  6
CONTINUOUS
 62
    64
 10
-32.401487
 20
-35.51983
 11
-14.701487
 21
-35.51983
  0
LINE
  8
ボルト／ビス
  6
CONTINUOUS
 62
    64
 10
-32.401487
 20
-35.019835
 11
-15.20149
 21
-35.019835
  0
LINE
  8
ボルト／ビス
  6
CONTINUOUS
 62
    64
 10
-15.20149
 20
-40.01983
 11
-15.20149
 21
-35.019835
  0
LINE
  8
ボルト／ビス
  6
DOT
 62
    64
 10
-34.70149
 20
-33.519835
 11
-32.401487
 21
-35.019835
  0
LINE
  8
ボルト／ビス
  6
DOT
 62
    64
 10
-34.70149
 20
-41.51983
 11
-32.401487
 21
-40.01983
  0
LINE
  8
ボルト／ビス
  6
DOT
 62
    64
 10
-34.70149
 20
-33.519835
 11
-34.70149
 21
-41.51983
  0
LINE
  8
ボルト／ビス
  6
DASHDOT
 62
    64
 10
-37.086693
 20
-37.519833
 11
-12.822025
 21
-37.519833
  0
LINE
  8
ボルト／ビス
  6
CONTINUOUS
 62
    64
 10
-32.401487
 20
-35.019835
 11
-32.401487
 21
-40.01983
  0
ENDBLK
  0
BLOCK
  2
*GRP_0050
 70
    65
 10
0.0
 20
0.0
  0
LINE
  8
ボルト／ビス
  6
CONTINUOUS
 62
    64
 10
-15.20149
 20
-15.019833
 11
-14.701487
 21
-15.519827
  0
LINE
  8
ボルト／ビス
  6
CONTINUOUS
 62
    64
 10
-15.20149
 20
-20.019827
 11
-14.701487
 21
-19.519833
  0
LINE
  8
ボルト／ビス
  6
CONTINUOUS
 62
    64
 10
-32.401487
 20
-20.019827
 11
-15.20149
 21
-20.019827
  0
LINE
  8
ボルト／ビス
  6
CONTINUOUS
 62
    64
 10
-32.401487
 20
-19.519833
 11
-14.701487
 21
-19.519833
  0
LINE
  8
ボルト／ビス
  6
CONTINUOUS
 62
    64
 10
-14.701487
 20
-19.519833
 11
-14.701487
 21
-15.519827
  0
LINE
  8
ボルト／ビス
  6
CONTINUOUS
 62
    64
 10
-32.401487
 20
-15.519827
 11
-14.701487
 21
-15.519827
  0
LINE
  8
ボルト／ビス
  6
CONTINUOUS
 62
    64
 10
-32.401487
 20
-15.019833
 11
-15.20149
 21
-15.019833
  0
LINE
  8
ボルト／ビス
  6
CONTINUOUS
 62
    64
 10
-15.20149
 20
-20.019827
 11
-15.20149
 21
-15.019833
  0
LINE
  8
ボルト／ビス
  6
DOT
 62
    64
 10
-34.70149
 20
-13.519833
 11
-32.401487
 21
-15.019833
  0
LINE
  8
ボルト／ビス
  6
DOT
 62
    64
 10
-34.70149
 20
-21.519827
 11
-32.401487
 21
-20.019827
  0
LINE
  8
ボルト／ビス
  6
DOT
 62
    64
 10
-34.70149
 20
-13.519833
 11
-34.70149
 21
-21.519827
  0
LINE
  8
ボルト／ビス
  6
DASHDOT
 62
    64
 10
-37.086693
 20
-17.51983
 11
-12.822025
 21
-17.51983
  0
LINE
  8
ボルト／ビス
  6
CONTINUOUS
 62
    64
 10
-32.401487
 20
-15.019833
 11
-32.401487
 21
-20.019827
  0
ENDBLK
  0
BLOCK
  2
*GRP_0051
 70
    65
 10
0.0
 20
0.0
  0
POLYLINE
  8
寸法
  6
CONTINUOUS
 66
     1
  0
VERTEX
  8
寸法
 10
-43.616093
 20
34.323053
  0
VERTEX
  8
寸法
 10
-51.85061
 20
42.55757
  0
VERTEX
  8
寸法
 10
-74.005385
 20
42.55757
  0
SEQEND
  0
ENDBLK
  0
BLOCK
  2
*GRP_0052
 70
    65
 10
0.0
 20
0.0
  0
LINE
  8
別途部材
  6
CONTINUOUS
 10
-37.201465
 20
57.979047
 11
-37.201465
 21
13.979023
  0
ARC
  8
別途部材
  6
CONTINUOUS
 10
-43.201456
 20
57.979002
 40
6.0
 50
0.0
 51
90.0
  0
LINE
  8
別途部材
  6
CONTINUOUS
 10
-49.201465
 20
57.979047
 11
-49.201465
 21
13.979023
  0
ARC
  8
別途部材
  6
CONTINUOUS
 10
-43.201456
 20
57.979002
 40
6.0
 50
90.0
 51
180.0
  0
CIRCLE
  8
別途部材
  6
CONTINUOUS
 10
-43.201465
 20
57.979047
 40
3.0
  0
LINE
  8
別途部材
  6
CONTINUOUS
 10
-40.201465
 20
57.979047
 11
-46.201465
 21
57.979047
  0
LINE
  8
別途部材
  6
CONTINUOUS
 10
-43.201465
 20
60.979047
 11
-43.201465
 21
54.979047
  0
LINE
  8
別途部材
  6
CONTINUOUS
 10
-37.201465
 20
13.979023
 11
-39.20149
 21
13.979023
  0
LINE
  8
別途部材
  6
CONTINUOUS
 10
-47.201485
 20
13.979023
 11
-49.201465
 21
13.979023
  0
LINE
  8
別途部材
  6
CONTINUOUS
 10
-39.20149
 20
13.979023
 11
-39.20149
 21
51.979047
  0
LINE
  8
別途部材
  6
CONTINUOUS
 10
-39.20149
 20
51.979047
 11
-47.201485
 21
51.979047
  0
LINE
  8
別途部材
  6
CONTINUOUS
 10
-47.201485
 20
13.979023
 11
-47.201485
 21
51.979047
  0
ARC
  8
別途部材
  6
CONTINUOUS
 10
-43.201456
 20
14.437335
 40
2.541667
 50
10.38896
 51
169.61104
  0
LINE
  8
別途部材
  6
CONTINUOUS
 10
-46.70149
 20
13.979023
 11
-45.701485
 21
13.979023
  0
LINE
  8
別途部材
  6
CONTINUOUS
 10
-39.701485
 20
13.979023
 11
-40.70149
 21
13.979023
  0
CIRCLE
  8
別途部材
  6
CONTINUOUS
 10
-43.201465
 20
47.97902
 40
1.000028
  0
LINE
  8
別途部材
  6
CONTINUOUS
 10
-44.201485
 20
47.97902
 11
-42.20149
 21
47.97902
  0
LINE
  8
別途部材
  6
CONTINUOUS
 10
-43.201465
 20
48.979047
 11
-43.201465
 21
46.979023
  0
ARC
  8
別途部材
  6
CONTINUOUS
 10
-43.201456
 20
49.520675
 40
2.541667
 50
190.38896
 51
349.61104
  0
LINE
  8
別途部材
  6
CONTINUOUS
 10
-46.70149
 20
49.979023
 11
-45.701485
 21
49.979023
  0
LINE
  8
別途部材
  6
CONTINUOUS
 10
-40.70149
 20
49.979023
 11
-39.701485
 21
49.979023
  0
LINE
  8
別途部材
  6
CONTINUOUS
 10
-45.701485
 20
13.979023
 11
-45.701485
 21
49.979023
  0
LINE
  8
別途部材
  6
CONTINUOUS
 10
-46.70149
 20
13.979023
 11
-46.70149
 21
49.979023
  0
LINE
  8
別途部材
  6
CONTINUOUS
 10
-40.70149
 20
13.979023
 11
-40.70149
 21
49.979023
  0
LINE
  8
別途部材
  6
CONTINUOUS
 10
-39.701485
 20
13.979023
 11
-39.701485
 21
49.979023
  0
ENDBLK
  0
BLOCK
  2
*GRP_0053
 70
    65
 10
0.0
 20
0.0
  0
LINE
  8
別途部材
  6
CONTINUOUS
 10
-43.201465
 20
63.979047
 11
-43.201465
 21
63.979047
  0
LINE
  8
別途部材
  6
CONTINUOUS
 10
-37.201465
 20
50.97902
 11
-34.70149
 21
50.97902
  0
LINE
  8
別途部材
  6
CONTINUOUS
 10
-43.201465
 20
64.47902
 11
-43.201465
 21
63.978995
  0
LINE
  8
別途部材
  6
CONTINUOUS
 10
-26.701465
 20
51.979047
 11
-34.70149
 21
51.979047
  0
ARC
  8
別途部材
  6
CONTINUOUS
 10
-27.70145
 20
14.979004
 40
1.0
 50
270.0
 51
360.0
  0
LINE
  8
別途部材
  6
CONTINUOUS
 10
-33.701485
 20
13.979023
 11
-27.701485
 21
13.979023
  0
ARC
  8
別途部材
  6
CONTINUOUS
 10
-33.70145
 20
14.979004
 40
1.0
 50
180.0
 51
270.0
  0
LINE
  8
別途部材
  6
CONTINUOUS
 10
-26.701465
 20
14.97902
 11
-26.701465
 21
63.479023
  0
ARC
  8
別途部材
  6
CONTINUOUS
 10
-27.70145
 20
63.479004
 40
1.0
 50
0.0
 51
90.0
  0
LINE
  8
別途部材
  6
CONTINUOUS
 10
-34.70149
 20
14.97902
 11
-34.70149
 21
63.479023
  0
ARC
  8
別途部材
  6
CONTINUOUS
 10
-33.70145
 20
63.479004
 40
1.0
 50
90.0
 51
180.0
  0
LINE
  8
別途部材
  6
CONTINUOUS
 10
-27.701485
 20
64.47902
 11
-43.201465
 21
64.47902
  0
LINE
  8
別途部材
  6
CONTINUOUS
 10
-32.401465
 20
44.97902
 11
-32.401465
 21
39.979047
  0
LINE
  8
別途部材
  6
CONTINUOUS
 10
-32.401465
 20
24.979047
 11
-32.401465
 21
19.979023
  0
POLYLINE
  8
別途部材
  6
CONTINUOUS
 66
     1
  0
VERTEX
  8
別途部材
 10
-34.70149
 20
46.47902
  0
VERTEX
  8
別途部材
 10
-32.401465
 20
44.97902
  0
VERTEX
  8
別途部材
 10
-26.701465
 20
44.97902
  0
SEQEND
  0
LINE
  8
別途部材
  6
CONTINUOUS
 10
-34.70149
 20
42.479023
 11
-26.701465
 21
42.479023
  0
POLYLINE
  8
別途部材
  6
CONTINUOUS
 66
     1
  0
VERTEX
  8
別途部材
 10
-34.70149
 20
38.479047
  0
VERTEX
  8
別途部材
 10
-32.401465
 20
39.979047
  0
VERTEX
  8
別途部材
 10
-26.701465
 20
39.979047
  0
SEQEND
  0
POLYLINE
  8
別途部材
  6
CONTINUOUS
 66
     1
  0
VERTEX
  8
別途部材
 10
-34.70149
 20
26.479047
  0
VERTEX
  8
別途部材
 10
-32.401465
 20
24.979047
  0
VERTEX
  8
別途部材
 10
-26.701465
 20
24.979047
  0
SEQEND
  0
LINE
  8
別途部材
  6
CONTINUOUS
 10
-34.70149
 20
22.47902
 11
-26.701465
 21
22.47902
  0
POLYLINE
  8
別途部材
  6
CONTINUOUS
 66
     1
  0
VERTEX
  8
別途部材
 10
-34.70149
 20
18.479023
  0
VERTEX
  8
別途部材
 10
-32.401465
 20
19.979023
  0
VERTEX
  8
別途部材
 10
-26.701465
 20
19.979023
  0
SEQEND
  0
ENDBLK
  0
BLOCK
  2
*GRP_0054
 70
    65
 10
0.0
 20
0.0
  0
LINE
  8
別途部材
  6
CONTINUOUS
 10
-43.201465
 20
-59.019858
 11
-43.201465
 21
-59.019858
  0
LINE
  8
別途部材
  6
CONTINUOUS
 10
-37.201465
 20
-46.01983
 11
-34.70149
 21
-46.01983
  0
LINE
  8
別途部材
  6
CONTINUOUS
 10
-43.201465
 20
-59.51983
 11
-43.201465
 21
-59.019805
  0
LINE
  8
別途部材
  6
CONTINUOUS
 10
-26.701465
 20
-47.019858
 11
-34.70149
 21
-47.019858
  0
ARC
  8
別途部材
  6
CONTINUOUS
 10
-27.70145
 20
-10.019819
 40
1.0
 50
0.0
 51
90.0
  0
LINE
  8
別途部材
  6
CONTINUOUS
 10
-33.701485
 20
-9.019833
 11
-27.701485
 21
-9.019833
  0
ARC
  8
別途部材
  6
CONTINUOUS
 10
-33.70145
 20
-10.019819
 40
1.0
 50
90.0
 51
180.0
  0
LINE
  8
別途部材
  6
CONTINUOUS
 10
-26.701465
 20
-10.01983
 11
-26.701465
 21
-58.519833
  0
ARC
  8
別途部材
  6
CONTINUOUS
 10
-27.70145
 20
-58.519819
 40
1.0
 50
270.0
 51
360.0
  0
LINE
  8
別途部材
  6
CONTINUOUS
 10
-34.70149
 20
-10.01983
 11
-34.70149
 21
-58.519833
  0
ARC
  8
別途部材
  6
CONTINUOUS
 10
-33.70145
 20
-58.519819
 40
1.0
 50
180.0
 51
270.0
  0
LINE
  8
別途部材
  6
CONTINUOUS
 10
-27.701485
 20
-59.51983
 11
-43.201465
 21
-59.51983
  0
LINE
  8
別途部材
  6
CONTINUOUS
 10
-32.401465
 20
-40.01983
 11
-32.401465
 21
-35.019858
  0
LINE
  8
別途部材
  6
CONTINUOUS
 10
-32.401465
 20
-20.019858
 11
-32.401465
 21
-15.019833
  0
POLYLINE
  8
別途部材
  6
CONTINUOUS
 66
     1
  0
VERTEX
  8
別途部材
 10
-34.70149
 20
-41.51983
  0
VERTEX
  8
別途部材
 10
-32.401465
 20
-40.01983
  0
VERTEX
  8
別途部材
 10
-26.701465
 20
-40.01983
  0
SEQEND
  0
LINE
  8
別途部材
  6
CONTINUOUS
 10
-34.70149
 20
-37.519833
 11
-26.701465
 21
-37.519833
  0
POLYLINE
  8
別途部材
  6
CONTINUOUS
 66
     1
  0
VERTEX
  8
別途部材
 10
-34.70149
 20
-33.519858
  0
VERTEX
  8
別途部材
 10
-32.401465
 20
-35.019858
  0
VERTEX
  8
別途部材
 10
-26.701465
 20
-35.019858
  0
SEQEND
  0
POLYLINE
  8
別途部材
  6
CONTINUOUS
 66
     1
  0
VERTEX
  8
別途部材
 10
-34.70149
 20
-21.519858
  0
VERTEX
  8
別途部材
 10
-32.401465
 20
-20.019858
  0
VERTEX
  8
別途部材
 10
-26.701465
 20
-20.019858
  0
SEQEND
  0
LINE
  8
別途部材
  6
CONTINUOUS
 10
-34.70149
 20
-17.51983
 11
-26.701465
 21
-17.51983
  0
POLYLINE
  8
別途部材
  6
CONTINUOUS
 66
     1
  0
VERTEX
  8
別途部材
 10
-34.70149
 20
-13.519833
  0
VERTEX
  8
別途部材
 10
-32.401465
 20
-15.019833
  0
VERTEX
  8
別途部材
 10
-26.701465
 20
-15.019833
  0
SEQEND
  0
ENDBLK
  0
BLOCK
  2
*GRP_0055
 70
    65
 10
0.0
 20
0.0
  0
LINE
  8
別途部材
  6
CONTINUOUS
 10
-37.201465
 20
-53.019858
 11
-37.201465
 21
-9.019833
  0
ARC
  8
別途部材
  6
CONTINUOUS
 10
-43.201453
 20
-53.01982
 40
6.0
 50
270.0
 51
360.0
  0
LINE
  8
別途部材
  6
CONTINUOUS
 10
-49.201465
 20
-53.019858
 11
-49.201465
 21
-9.019833
  0
ARC
  8
別途部材
  6
CONTINUOUS
 10
-43.201453
 20
-53.01982
 40
6.0
 50
180.0
 51
270.0
  0
CIRCLE
  8
別途部材
  6
CONTINUOUS
 10
-43.201465
 20
-53.019858
 40
3.0
  0
LINE
  8
別途部材
  6
CONTINUOUS
 10
-40.201465
 20
-53.019858
 11
-46.201465
 21
-53.019858
  0
LINE
  8
別途部材
  6
CONTINUOUS
 10
-43.201465
 20
-56.019858
 11
-43.201465
 21
-50.019858
  0
LINE
  8
別途部材
  6
CONTINUOUS
 10
-37.201465
 20
-9.019833
 11
-39.20149
 21
-9.019833
  0
LINE
  8
別途部材
  6
CONTINUOUS
 10
-47.201485
 20
-9.019833
 11
-49.201465
 21
-9.019833
  0
LINE
  8
別途部材
  6
CONTINUOUS
 10
-39.20149
 20
-9.019833
 11
-39.20149
 21
-47.019858
  0
LINE
  8
別途部材
  6
CONTINUOUS
 10
-39.20149
 20
-47.019858
 11
-47.201485
 21
-47.019858
  0
LINE
  8
別途部材
  6
CONTINUOUS
 10
-47.201485
 20
-9.019833
 11
-47.201485
 21
-47.019858
  0
ARC
  8
別途部材
  6
CONTINUOUS
 10
-43.201453
 20
-9.478153
 40
2.541667
 50
190.38896
 51
349.61104
  0
LINE
  8
別途部材
  6
CONTINUOUS
 10
-46.70149
 20
-9.019833
 11
-45.701485
 21
-9.019833
  0
LINE
  8
別途部材
  6
CONTINUOUS
 10
-39.701485
 20
-9.019833
 11
-40.70149
 21
-9.019833
  0
CIRCLE
  8
別途部材
  6
CONTINUOUS
 10
-43.201465
 20
-43.01983
 40
1.000028
  0
LINE
  8
別途部材
  6
CONTINUOUS
 10
-44.201485
 20
-43.01983
 11
-42.20149
 21
-43.01983
  0
LINE
  8
別途部材
  6
CONTINUOUS
 10
-43.201465
 20
-44.019858
 11
-43.201465
 21
-42.019833
  0
ARC
  8
別途部材
  6
CONTINUOUS
 10
-43.201453
 20
-44.561493
 40
2.541667
 50
10.38896
 51
169.61104
  0
LINE
  8
別途部材
  6
CONTINUOUS
 10
-46.70149
 20
-45.019833
 11
-45.701485
 21
-45.019833
  0
LINE
  8
別途部材
  6
CONTINUOUS
 10
-40.70149
 20
-45.019833
 11
-39.701485
 21
-45.019833
  0
LINE
  8
別途部材
  6
CONTINUOUS
 10
-45.701485
 20
-9.019833
 11
-45.701485
 21
-45.019833
  0
LINE
  8
別途部材
  6
CONTINUOUS
 10
-46.70149
 20
-9.019833
 11
-46.70149
 21
-45.019833
  0
LINE
  8
別途部材
  6
CONTINUOUS
 10
-40.70149
 20
-9.019833
 11
-40.70149
 21
-45.019833
  0
LINE
  8
別途部材
  6
CONTINUOUS
 10
-39.701485
 20
-9.019833
 11
-39.701485
 21
-45.019833
  0
ENDBLK
  0
BLOCK
  2
*GRP_0056
 70
    65
 10
0.0
 20
0.0
  0
LINE
  8
型材断面
  6
DOT
 10
-9.701468
 20
-70.519863
 11
-8.201468
 21
-70.519863
  0
LINE
  8
型材断面
  6
DOT
 10
-9.701468
 20
-62.51986
 11
-8.201468
 21
-62.51986
  0
LINE
  8
型材断面
  6
DOT
 10
-9.326468
 20
-70.519863
 11
-9.326468
 21
-62.51986
  0
LINE
  8
型材断面
  6
DOT
 10
-8.951468
 20
-70.519863
 11
-8.951468
 21
-62.51986
  0
LINE
  8
型材断面
  6
DOT
 10
-8.576468
 20
-70.519863
 11
-8.576468
 21
-62.51986
  0
LINE
  8
型材断面
  6
CONTINUOUS
 10
-34.201468
 20
-0.02098
 11
-34.201468
 21
6.479023
  0
LINE
  8
型材断面
  6
CONTINUOUS
 10
-34.201468
 20
6.479023
 11
-35.701468
 21
6.479023
  0
LINE
  8
型材断面
  6
CONTINUOUS
 10
-9.701468
 20
-1.52098
 11
-9.701468
 21
-70.519863
  0
LINE
  8
型材断面
  6
CONTINUOUS
 10
-9.701468
 20
-70.519863
 11
-64.701465
 21
-70.519863
  0
LINE
  8
型材断面
  6
CONTINUOUS
 10
-66.201465
 20
-62.019858
 11
-64.701465
 21
-62.019858
  0
LINE
  8
型材断面
  6
CONTINUOUS
 10
-64.701465
 20
-62.019858
 11
-64.701465
 21
-70.519863
  0
LINE
  8
型材断面
  6
CONTINUOUS
 10
-35.701468
 20
6.479023
 11
-35.701468
 21
-0.02098
  0
LINE
  8
型材断面
  6
CONTINUOUS
 10
-34.201468
 20
-1.52098
 11
-9.701468
 21
-1.52098
  0
ARC
  8
型材断面
  6
CONTINUOUS
 10
-34.201471
 20
-0.020984
 40
1.5
 50
180.0
 51
270.0
  0
LINE
  8
型材断面
  6
CONTINUOUS
 10
-9.701468
 20
-0.02098
 11
-34.201468
 21
-0.02098
  0
ARC
  8
型材断面
  6
CONTINUOUS
 10
-9.701469
 20
-1.520984
 40
1.5
 50
0.0
 51
90.0
  0
LINE
  8
型材断面
  6
CONTINUOUS
 10
-8.201468
 20
-1.52098
 11
-8.201468
 21
-70.519863
  0
ARC
  8
型材断面
  6
CONTINUOUS
 10
-9.701469
 20
-70.519866
 40
1.5
 50
-90.0
 51
0.0
  0
LINE
  8
型材断面
  6
CONTINUOUS
 10
-9.701468
 20
-72.019863
 11
-64.701465
 21
-72.019863
  0
LINE
  8
型材断面
  6
CONTINUOUS
 10
-66.201465
 20
-62.019858
 11
-66.201465
 21
-70.519863
  0
ARC
  8
型材断面
  6
CONTINUOUS
 10
-64.701469
 20
-70.519866
 40
1.5
 50
180.0
 51
270.0
  0
ENDBLK
  0
BLOCK
  2
*GRP_0057
 70
    65
 10
0.0
 20
0.0
  0
ARC
  8
型材断面
  6
CONTINUOUS
 10
-25.201463
 20
85.476568
 40
1.5
 50
90.0
 51
180.0
  0
LINE
  8
型材断面
  6
CONTINUOUS
 62
    47
 10
-9.701468
 20
86.976568
 11
-25.201462
 21
86.976568
  0
ARC
  8
型材断面
  6
CONTINUOUS
 10
-9.701468
 20
85.476568
 40
1.5
 50
0.0
 51
90.0
  0
LINE
  8
型材断面
  6
CONTINUOUS
 62
    47
 10
-9.701468
 20
85.476568
 11
-25.201462
 21
85.476568
  0
LINE
  8
型材断面
  6
CONTINUOUS
 62
    47
 10
-9.701468
 20
85.476568
 11
-9.701468
 21
7.47902
  0
LINE
  8
型材断面
  6
CONTINUOUS
 62
    47
 10
-8.201468
 20
85.476568
 11
-8.201468
 21
7.47902
  0
ARC
  8
型材断面
  6
CONTINUOUS
 10
-9.701468
 20
7.479023
 40
1.5
 50
270.0
 51
360.0
  0
LINE
  8
型材断面
  6
CONTINUOUS
 62
    47
 10
-31.201468
 20
7.47902
 11
-9.701468
 21
7.47902
  0
ARC
  8
型材断面
  6
CONTINUOUS
 10
-31.201468
 20
7.479023
 40
1.5
 50
180.0
 51
270.0
  0
LINE
  8
型材断面
  6
CONTINUOUS
 62
    47
 10
-31.201468
 20
5.97902
 11
-9.701468
 21
5.97902
  0
LINE
  8
型材断面
  6
CONTINUOUS
 62
    47
 10
-31.201468
 20
7.47902
 11
-31.201468
 21
13.979023
  0
LINE
  8
型材断面
  6
CONTINUOUS
 10
-31.201468
 20
13.979023
 11
-32.701468
 21
13.979023
  0
LINE
  8
型材断面
  6
CONTINUOUS
 62
    47
 10
-32.701468
 20
7.47902
 11
-32.701468
 21
13.979023
  0
LINE
  8
型材断面
  6
DOT
 10
-9.701468
 20
7.47902
 11
-8.201468
 21
7.47902
  0
LINE
  8
型材断面
  6
DOT
 10
-9.701468
 20
15.479023
 11
-8.201468
 21
15.479023
  0
LINE
  8
型材断面
  6
DOT
 10
-9.326468
 20
7.47902
 11
-9.326468
 21
15.479023
  0
LINE
  8
型材断面
  6
DOT
 10
-8.951468
 20
7.47902
 11
-8.951468
 21
15.479023
  0
LINE
  8
型材断面
  6
DOT
 10
-8.576468
 20
7.47902
 11
-8.576468
 21
15.479023
  0
LINE
  8
型材断面
  6
CONTINUOUS
 10
-26.701462
 20
85.476568
 11
-26.701462
 21
71.976568
  0
LINE
  8
型材断面
  6
CONTINUOUS
 62
    47
 10
-25.201462
 20
85.476568
 11
-25.201462
 21
71.976568
  0
LINE
  8
型材断面
  6
CONTINUOUS
 10
-26.701462
 20
71.976568
 11
-25.201462
 21
71.976568
  0
ENDBLK
  0
BLOCK
  2
*GRP_0058
 70
    65
 10
0.0
 20
0.0
  0
LINE
  8
ゴム等
  6
CONTINUOUS
 10
-30.20147
 20
4.979023
 11
-30.20147
 21
5.97902
  0
LINE
  8
ゴム等
  6
CONTINUOUS
 10
-30.20147
 20
5.97902
 11
-34.201468
 21
5.97902
  0
LINE
  8
ゴム等
  6
CONTINUOUS
 10
-34.201468
 20
5.97902
 11
-34.201468
 21
-0.02098
  0
LINE
  8
ゴム等
  6
CONTINUOUS
 10
-34.201468
 20
-0.02098
 11
-21.20147
 21
-0.02098
  0
LINE
  8
ゴム等
  6
CONTINUOUS
 10
-26.201465
 20
5.97902
 11
-22.201565
 21
5.951637
  0
LINE
  8
ゴム等
  6
CONTINUOUS
 10
-22.201565
 20
5.951637
 11
-22.203448
 21
5.67545
  0
ARC
  8
ゴム等
  6
CONTINUOUS
 10
-18.033837
 20
5.585251
 40
0.4
 50
272.661288
 51
455.530692
  0
LINE
  8
ゴム等
  6
CONTINUOUS
 10
-18.072395
 20
5.983393
 11
-21.396185
 21
5.69702
  0
LINE
  8
ゴム等
  6
CONTINUOUS
 10
-22.203448
 20
5.67545
 11
-21.396192
 21
5.69702
  0
LINE
  8
ゴム等
  6
CONTINUOUS
 10
-18.015268
 20
5.185693
 11
-21.20147
 21
4.706157
  0
LINE
  8
ゴム等
  6
CONTINUOUS
 10
-21.20147
 20
-0.02098
 11
-21.20147
 21
4.706157
  0
LINE
  8
ゴム等
  6
CONTINUOUS
 10
-26.201465
 20
5.97902
 11
-26.113123
 21
4.979023
  0
LINE
  8
ゴム等
  6
CONTINUOUS
 10
-30.20147
 20
4.979023
 11
-26.113123
 21
4.979023
  0
LINE
  8
ゴム等
  6
CONTINUOUS
 10
-25.608972
 20
5.974963
 11
-31.604915
 21
-0.02098
  0
LINE
  8
ゴム等
  6
CONTINUOUS
 10
-24.204388
 20
5.965347
 11
-30.190715
 21
-0.02098
  0
LINE
  8
ゴム等
  6
CONTINUOUS
 10
-22.799788
 20
5.955732
 11
-28.7765
 21
-0.02098
  0
LINE
  8
ゴム等
  6
CONTINUOUS
 10
-21.667677
 20
5.673627
 11
-27.362285
 21
-0.02098
  0
LINE
  8
ゴム等
  6
CONTINUOUS
 10
-20.120128
 20
5.806963
 11
-25.94807
 21
-0.02098
  0
LINE
  8
ゴム等
  6
CONTINUOUS
 10
-28.019128
 20
4.979023
 11
-33.01913
 21
-0.02098
  0
LINE
  8
ゴム等
  6
CONTINUOUS
 10
-29.433342
 20
4.979023
 11
-34.201468
 21
0.210897
  0
LINE
  8
ゴム等
  6
CONTINUOUS
 10
-30.20147
 20
5.62511
 11
-34.201468
 21
1.625113
  0
LINE
  8
ゴム等
  6
CONTINUOUS
 10
-31.261775
 20
5.97902
 11
-34.201468
 21
3.039328
  0
LINE
  8
ゴム等
  6
CONTINUOUS
 10
-32.67599
 20
5.97902
 11
-34.201468
 21
4.453543
  0
LINE
  8
ゴム等
  6
CONTINUOUS
 10
-21.705425
 20
-0.02098
 11
-21.20147
 21
0.482975
  0
LINE
  8
ゴム等
  6
CONTINUOUS
 10
-23.11964
 20
-0.02098
 11
-21.20147
 21
1.89719
  0
LINE
  8
ゴム等
  6
CONTINUOUS
 10
-18.572577
 20
5.940298
 11
-19.559615
 21
4.95326
  0
LINE
  8
ゴム等
  6
CONTINUOUS
 10
-21.20147
 20
3.311405
 11
-24.533855
 21
-0.02098
  0
ENDBLK
  0
BLOCK
  2
*DIM_0059
 70
    65
 10
0.0
 20
0.0
  0
LINE
  8
寸法
  6
CONTINUOUS
 10
-69.201468
 20
-59.019858
 11
-143.693703
 21
-59.019858
  0
LINE
  8
寸法
  6
CONTINUOUS
 10
-36.701468
 20
6.479023
 11
-143.693703
 21
6.479023
  0
LINE
  8
寸法
  6
CONTINUOUS
 10
-143.693703
 20
-59.019858
 11
-143.693703
 21
6.479023
  0
POINT
  8
寸法
 10
-143.693703
 20
6.479023
  0
TEXT
  7
TextStyle03
  8
寸法
  6
CONTINUOUS
 10
-144.075
 20
-29.55625
  1
65.5
 40
3.0
 50
90.0
 72
     5
 11
-144.075
 21
-22.99375
  0
ENDBLK
  0
BLOCK
  2
*DIM_0060
 70
    65
 10
0.0
 20
0.0
  0
LINE
  8
寸法
  6
CONTINUOUS
 10
-36.701468
 20
6.479023
 11
-143.693703
 21
6.479023
  0
LINE
  8
寸法
  6
CONTINUOUS
 10
-33.701468
 20
13.979023
 11
-143.693703
 21
13.979023
  0
LINE
  8
寸法
  6
CONTINUOUS
 10
-143.693703
 20
6.479023
 11
-143.693703
 21
13.979023
  0
POINT
  8
寸法
 10
-143.693703
 20
13.979023
  0
TEXT
  7
TextStyle03
  8
寸法
  6
CONTINUOUS
 10
-144.075
 20
7.7875
  1
7.5
 40
3.0
 50
90.0
 72
     5
 11
-144.075
 21
12.6625
  0
ENDBLK
  0
BLOCK
  2
*DIM_0061
 70
    65
 10
0.0
 20
0.0
  0
LINE
  8
寸法
  6
CONTINUOUS
 10
-33.701468
 20
13.979023
 11
-143.693703
 21
13.979023
  0
LINE
  8
寸法
  6
CONTINUOUS
 10
-54.201865
 20
64.47902
 11
-143.693703
 21
64.47902
  0
LINE
  8
寸法
  6
CONTINUOUS
 10
-143.693703
 20
13.979023
 11
-143.693703
 21
64.47902
  0
POINT
  8
寸法
 10
-143.693703
 20
64.47902
  0
TEXT
  7
TextStyle03
  8
寸法
  6
CONTINUOUS
 10
-144.075
 20
35.94375
  1
50.5
 40
3.0
 50
90.0
 72
     5
 11
-144.075
 21
42.50625
  0
ENDBLK
  0
ENDSEC
  0
SECTION
  2
ENTITIES
  0
POLYLINE
  8
通り芯
  6
CONTINUOUS
 66
     1
 70
     1
  0
VERTEX
  8
通り芯
 10
-210.0
 20
-148.5
  0
VERTEX
  8
通り芯
 10
210.0
 20
-148.5
  0
VERTEX
  8
通り芯
 10
210.0
 20
148.5
  0
VERTEX
  8
通り芯
 10
-210.0
 20
148.5
  0
SEQEND
  0
INSERT
  2
*GRP_0001
  8
型材断面
  6
CONTINUOUS
 10
0.0
 20
0.0
  0
ARC
  8
型材断面
  6
CONTINUOUS
 10
-9.701471
 20
-72.019869
 40
1.675118
 50
359.274797
 51
393.943268
  0
ARC
  8
型材断面
  6
CONTINUOUS
 10
-9.701471
 20
-72.019869
 40
2.12133
 50
357.970011
 51
405.000162
  0
LINE
  8
型材断面
  6
CONTINUOUS
 10
-68.201468
 20
-59.019858
 11
-66.701468
 21
-59.019858
  0
LINE
  8
型材断面
  6
CONTINUOUS
 10
-66.701468
 20
-59.019858
 11
-66.701468
 21
-72.019863
  0
LINE
  8
型材断面
  6
CONTINUOUS
 10
-68.201468
 20
-59.019858
 11
-68.201468
 21
-72.019863
  0
ARC
  8
型材断面
  6
CONTINUOUS
 10
-66.701462
 20
-72.019864
 40
1.5
 50
180.0
 51
270.0
  0
LINE
  8
型材断面
  6
CONTINUOUS
 10
-66.701468
 20
-72.019863
 11
-8.201468
 21
-72.019863
  0
LINE
  8
型材断面
  6
CONTINUOUS
 10
-66.701468
 20
-73.519863
 11
-8.29206
 21
-73.519863
  0
LINE
  8
型材断面
  6
CONTINUOUS
 10
-8.201468
 20
-72.019863
 11
64.29462
 21
-80.80727
  0
LINE
  8
型材断面
  6
CONTINUOUS
 10
-8.29206
 20
-73.519863
 11
64.29462
 21
-82.318253
  0
LINE
  8
型材断面
  6
CONTINUOUS
 10
-145.40696
 20
126.090603
 11
-134.717137
 21
129.610782
  0
LINE
  8
型材断面
  6
CONTINUOUS
 10
-134.717137
 20
129.610782
 11
-134.717137
 21
126.090603
  0
LINE
  8
型材断面
  6
CONTINUOUS
 10
-141.453445
 20
126.090603
 11
-130.763623
 21
129.610782
  0
LINE
  8
型材断面
  6
CONTINUOUS
 10
-130.763623
 20
129.610782
 11
-130.763623
 21
126.090603
  0
LINE
  8
型材断面
  6
CONTINUOUS
 10
-145.40696
 20
119.0135
 11
-134.717137
 21
122.53368
  0
LINE
  8
型材断面
  6
CONTINUOUS
 10
-134.717137
 20
122.53368
 11
-134.717137
 21
119.0135
  0
LINE
  8
型材断面
  6
CONTINUOUS
 10
-141.453445
 20
119.0135
 11
-130.763623
 21
122.53368
  0
LINE
  8
型材断面
  6
CONTINUOUS
 10
-130.763623
 20
122.53368
 11
-130.763623
 21
119.0135
  0
LINE
  8
型材断面
  6
CONTINUOUS
 10
61.732922
 20
126.090603
 11
51.0431
 21
129.610782
  0
LINE
  8
型材断面
  6
CONTINUOUS
 10
51.0431
 20
129.610782
 11
51.0431
 21
126.090603
  0
LINE
  8
型材断面
  6
CONTINUOUS
 10
57.779407
 20
126.090603
 11
47.089585
 21
129.610782
  0
LINE
  8
型材断面
  6
CONTINUOUS
 10
47.089585
 20
129.610782
 11
47.089585
 21
126.090603
  0
LINE
  8
型材断面
  6
CONTINUOUS
 62
    47
 10
15.198567
 20
8.97902
 11
15.198567
 21
5.97902
  0
LINE
  8
型材断面
  6
CONTINUOUS
 62
    47
 10
3.198567
 20
8.97902
 11
3.198567
 21
5.97902
  0
LINE
  8
型材断面
  6
CONTINUOUS
 62
    47
 10
15.198567
 20
8.22902
 11
3.198567
 21
8.22902
  0
LINE
  8
型材断面
  6
CONTINUOUS
 62
    47
 10
15.198567
 20
7.47902
 11
3.198567
 21
7.47902
  0
LINE
  8
型材断面
  6
CONTINUOUS
 62
    47
 10
15.198567
 20
6.72902
 11
3.198567
 21
6.72902
  0
ARC
  8
型材断面
  6
CONTINUOUS
 62
    47
 10
-8.201467
 20
-9.015721
 40
1.560197
 50
270.0
 51
450.0
  0
ARC
  8
型材断面
  6
CONTINUOUS
 62
    47
 10
-8.201467
 20
-10.575918
 40
1.560197
 50
270.0
 51
390.0
  0
ARC
  8
型材断面
  6
CONTINUOUS
 62
    47
 10
-8.201467
 20
-12.136116
 40
1.560197
 50
270.0
 51
390.0
  0
ARC
  8
型材断面
  6
CONTINUOUS
 62
    47
 10
-8.201467
 20
-24.275424
 40
1.560197
 50
270.0
 51
450.0
  0
ARC
  8
型材断面
  6
CONTINUOUS
 62
    47
 10
-8.201467
 20
-25.835621
 40
1.560197
 50
270.0
 51
390.0
  0
ARC
  8
型材断面
  6
CONTINUOUS
 62
    47
 10
-8.201467
 20
-27.395819
 40
1.560197
 50
270.0
 51
390.0
  0
INSERT
  2
*GRP_0032
  8
型材断面
  6
CONTINUOUS
 62
    47
 10
0.0
 20
0.0
  0
LINE
  8
型材断面
  6
CONTINUOUS
 62
    47
 10
15.198567
 20
-0.02098
 11
15.198567
 21
-3.02098
  0
LINE
  8
型材断面
  6
CONTINUOUS
 62
    47
 10
3.198567
 20
-0.02098
 11
3.198567
 21
-3.02098
  0
LINE
  8
型材断面
  6
CONTINUOUS
 62
    47
 10
15.198567
 20
-0.77098
 11
3.198567
 21
-0.77098
  0
LINE
  8
型材断面
  6
CONTINUOUS
 62
    47
 10
15.198567
 20
-1.52098
 11
3.198567
 21
-1.52098
  0
LINE
  8
型材断面
  6
CONTINUOUS
 62
    47
 10
15.198567
 20
-2.27098
 11
3.198567
 21
-2.27098
  0
INSERT
  2
*GRP_0033
  8
型材断面
  6
CONTINUOUS
 62
    47
 10
0.0
 20
0.0
  0
ARC
  8
型材断面
  6
CONTINUOUS
 62
    47
 10
-8.201467
 20
13.632623
 40
1.560197
 50
270.0
 51
450.0
  0
ARC
  8
型材断面
  6
CONTINUOUS
 62
    47
 10
-8.201467
 20
12.072426
 40
1.560197
 50
270.0
 51
390.0
  0
ARC
  8
型材断面
  6
CONTINUOUS
 62
    47
 10
-8.201467
 20
10.512228
 40
1.560197
 50
270.0
 51
390.0
  0
ARC
  8
型材断面
  6
CONTINUOUS
 62
    47
 10
-8.201467
 20
32.654501
 40
1.560197
 50
270.0
 51
450.0
  0
ARC
  8
型材断面
  6
CONTINUOUS
 62
    47
 10
-8.201467
 20
31.094303
 40
1.560197
 50
270.0
 51
390.0
  0
ARC
  8
型材断面
  6
CONTINUOUS
 62
    47
 10
-8.201467
 20
29.534106
 40
1.560197
 50
270.0
 51
390.0
  0
LINE
  8
型材断面
  6
CONTINUOUS
 62
    47
 10
15.198567
 20
8.97902
 11
15.198567
 21
5.97902
  0
LINE
  8
型材断面
  6
CONTINUOUS
 62
    47
 10
3.198567
 20
8.97902
 11
3.198567
 21
5.97902
  0
LINE
  8
型材断面
  6
CONTINUOUS
 62
    47
 10
15.198567
 20
8.22902
 11
3.198567
 21
8.22902
  0
LINE
  8
型材断面
  6
CONTINUOUS
 62
    47
 10
15.198567
 20
7.47902
 11
3.198567
 21
7.47902
  0
LINE
  8
型材断面
  6
CONTINUOUS
 62
    47
 10
15.198567
 20
6.72902
 11
3.198567
 21
6.72902
  0
INSERT
  2
*GRP_0038
  8
型材断面
  6
DOT
 10
0.0
 20
0.0
  0
INSERT
  2
*GRP_0042
  8
型材断面
  6
CONTINUOUS
 10
0.0
 20
0.0
  0
LINE
  8
型材断面
  6
DOT
 10
-28.201462
 20
65.97902
 11
-28.201462
 21
64.47902
  0
LINE
  8
型材断面
  6
DOT
 10
-36.201465
 20
65.97902
 11
-36.201465
 21
64.47902
  0
LINE
  8
型材断面
  6
DOT
 10
-28.201462
 20
65.60402
 11
-36.201465
 21
65.60402
  0
LINE
  8
型材断面
  6
DOT
 10
-28.201462
 20
65.22902
 11
-36.201465
 21
65.22902
  0
LINE
  8
型材断面
  6
DOT
 10
-28.201462
 20
64.85402
 11
-36.201465
 21
64.85402
  0
INSERT
  2
*GRP_0044
  8
型材断面
  6
DOT
 10
0.0
 20
0.0
  0
INSERT
  2
*GRP_0056
  8
型材断面
  6
CONTINUOUS
 10
0.0
 20
0.0
  0
INSERT
  2
*GRP_0057
  8
型材断面
  6
CONTINUOUS
 10
0.0
 20
0.0
  0
LINE
  8
ガラス
  6
CONTINUOUS
 10
-38.201288
 20
73.979045
 11
-38.201288
 21
80.779047
  0
LINE
  8
ガラス
  6
CONTINUOUS
 10
-38.201288
 20
80.779047
 11
-115.734008
 21
80.779047
  0
LINE
  8
ガラス
  6
CONTINUOUS
 10
-38.201288
 20
73.979045
 11
-115.734008
 21
73.979045
  0
LINE
  8
ガラス
  6
CONTINUOUS
 10
-38.201288
 20
80.279045
 11
-115.734008
 21
80.279045
  0
LINE
  8
ガラス
  6
CONTINUOUS
 10
-38.201288
 20
74.479047
 11
-115.734008
 21
74.479047
  0
INSERT
  2
*GRP_0002
  8
ゴム等
  6
CONTINUOUS
 10
0.0
 20
0.0
  0
INSERT
  2
*GRP_0003
  8
ゴム等
  6
CONTINUOUS
 10
0.0
 20
0.0
  0
INSERT
  2
*GRP_0004
  8
ゴム等
  6
DOT
 10
0.0
 20
0.0
  0
INSERT
  2
*GRP_0005
  8
ゴム等
  6
DOT
 10
0.0
 20
0.0
  0
INSERT
  2
*GRP_0039
  8
ゴム等
  6
DOT
 10
0.0
 20
0.0
  0
INSERT
  2
*GRP_0058
  8
ゴム等
  6
CONTINUOUS
 10
0.0
 20
0.0
  0
INSERT
  2
*GRP_0006
  8
ボルト／ビス
  6
CONTINUOUS
 10
0.0
 20
0.0
  0
INSERT
  2
*GRP_0007
  8
ボルト／ビス
  6
CONTINUOUS
 10
0.0
 20
0.0
  0
INSERT
  2
*GRP_0008
  8
ボルト／ビス
  6
CONTINUOUS
 10
0.0
 20
0.0
  0
INSERT
  2
*GRP_0009
  8
ボルト／ビス
  6
CONTINUOUS
 10
0.0
 20
0.0
  0
INSERT
  2
*GRP_0010
  8
ボルト／ビス
  6
CONTINUOUS
 10
0.0
 20
0.0
  0
INSERT
  2
*GRP_0011
  8
ボルト／ビス
  6
CONTINUOUS
 10
0.0
 20
0.0
  0
INSERT
  2
*GRP_0012
  8
ボルト／ビス
  6
CONTINUOUS
 10
0.0
 20
0.0
  0
INSERT
  2
*GRP_0013
  8
ボルト／ビス
  6
CONTINUOUS
 10
0.0
 20
0.0
  0
INSERT
  2
*GRP_0034
  8
ボルト／ビス
  6
CONTINUOUS
 62
    64
 10
0.0
 20
0.0
  0
INSERT
  2
*GRP_0035
  8
ボルト／ビス
  6
CONTINUOUS
 62
    64
 10
0.0
 20
0.0
  0
INSERT
  2
*GRP_0040
  8
ボルト／ビス
  6
DOT
 10
0.0
 20
0.0
  0
INSERT
  2
*GRP_0043
  8
ボルト／ビス
  6
CONTINUOUS
 10
0.0
 20
0.0
  0
INSERT
  2
*GRP_0047
  8
ボルト／ビス
  6
CONTINUOUS
 10
0.0
 20
0.0
  0
INSERT
  2
*GRP_0048
  8
ボルト／ビス
  6
CONTINUOUS
 10
0.0
 20
0.0
  0
INSERT
  2
*GRP_0049
  8
ボルト／ビス
  6
CONTINUOUS
 10
0.0
 20
0.0
  0
INSERT
  2
*GRP_0050
  8
ボルト／ビス
  6
CONTINUOUS
 10
0.0
 20
0.0
  0
TEXT
  7
TextStyle03
  8
文字
  6
CONTINUOUS
 10
90.425
 20
102.575
  1
ＮＳコード：ＮＳＨＳ
 40
5.0
 72
     5
 11
146.05
 21
102.575
  0
TEXT
  7
TextStyle03
  8
文字
  6
CONTINUOUS
 10
91.85
 20
124.7
  1
シリーズ：ＳＴＤＨ
 40
5.0
 72
     5
 11
141.85
 21
124.7
  0
TEXT
  7
TextStyle03
  8
文字
  6
CONTINUOUS
 10
91.85
 20
119.075
  1
　　　　　（片側開閉）　
 40
5.0
 72
     5
 11
158.725
 21
119.075
  0
TEXT
  7
TextStyle03
  8
文字
  6
CONTINUOUS
 10
91.85
 20
113.45
  1
図面名　：下枠断面詳細図（滑車側)
 40
5.0
 72
     5
 11
184.35
 21
113.45
  0
TEXT
  7
TextStyle03
  8
文字
  6
CONTINUOUS
 10
33.325
 20
127.0
  1
※
 40
4.0
 72
     5
 11
37.325
 21
127.0
  0
TEXT
  7
TextStyle03
  8
文字
  6
CONTINUOUS
 10
28.325
 20
121.55
  1
物件対応
 40
3.0
 72
     5
 11
41.45
 21
121.55
  0
TEXT
  7
TextStyle03
  8
文字
  6
CONTINUOUS
 10
-104.6
 20
127.0
  1
ドーム呼称寸法
 40
3.0
 72
     5
 11
-81.35
 21
127.0
  0
TEXT
  7
TextStyle03
  8
文字
  6
CONTINUOUS
 10
-101.175
 20
119.75
  1
有効開口
 40
3.0
 72
     5
 11
-88.05
 21
119.75
  0
TEXT
  7
TextStyle03
  8
文字
  6
CONTINUOUS
 10
3.8875
 20
-59.925
  1
排水穴　LH-8×16
 40
3.0
 72
     5
 11
30.7
 21
-59.925
  0
TEXT
  7
TextStyle03
  8
文字
  6
CONTINUOUS
 10
5.6
 20
-99.85
  1
L-30×30×3　St
 40
3.0
 72
     5
 11
30.725
 21
-99.85
  0
TEXT
  7
TextStyle03
  8
文字
  6
CONTINUOUS
 10
-15.95
 20
114.875
  1
アクリルドーム
 40
3.0
 72
     5
 11
7.3
 21
114.875
  0
TEXT
  7
TextStyle03
  8
文字
  6
CONTINUOUS
 10
-12.575
 20
111.5
  1
ポリカドーム
 40
3.0
 72
     5
 11
7.3
 21
111.5
  0
TEXT
  7
TextStyle03
  8
文字
  6
CONTINUOUS
 10
75.8
 20
-21.275
  1
M10×30B.N.W.SW
 40
3.0
 72
     5
 11
100.925
 21
-21.275
  0
TEXT
  7
TextStyle03
  8
文字
  6
CONTINUOUS
 10
77.675
 20
-24.65
  1
ユニクロメッキ
 40
3.0
 72
     5
 11
100.925
 21
-24.65
  0
TEXT
  7
TextStyle03
  8
文字
  6
CONTINUOUS
 10
77.875
 20
27.625
  1
出荷固定金物　L-30×3
 40
3.0
 72
     5
 11
113.125
 21
27.625
  0
TEXT
  7
TextStyle03
  8
文字
  6
CONTINUOUS
 10
88.0
 20
24.25
  1
SUS-H.L　Ｌ＝60
 40
3.0
 72
     5
 11
113.125
 21
24.25
  0
TEXT
  7
TextStyle03
  8
文字
  6
CONTINUOUS
 10
-95.7625
 20
41.025
  1
枠滑車（ZDC）
 40
3.0
 72
     5
 11
-74.2
 21
41.025
  0
POLYLINE
  8
寸法
  6
CONTINUOUS
 66
     1
  0
VERTEX
  8
寸法
 10
-38.201812
 20
92.980137
  0
VERTEX
  8
寸法
 10
-38.201812
 20
126.090603
  0
VERTEX
  8
寸法
 10
-145.40696
 20
126.090603
  0
SEQEND
  0
INSERT
  2
*DIM_0014
  8
寸法
  6
CONTINUOUS
 10
0.0
 20
0.0
  0
INSERT
  2
*DIM_0015
  8
寸法
  6
CONTINUOUS
 10
0.0
 20
0.0
  0
INSERT
  2
*DIM_0016
  8
寸法
  6
CONTINUOUS
 10
0.0
 20
0.0
  0
INSERT
  2
*DIM_0017
  8
寸法
  6
CONTINUOUS
 10
0.0
 20
0.0
  0
LINE
  8
寸法
  6
CONTINUOUS
 10
-145.40696
 20
119.0135
 11
-68.201468
 21
119.0135
  0
LINE
  8
寸法
  6
CONTINUOUS
 10
11.798213
 20
126.090603
 11
61.732922
 21
126.090603
  0
INSERT
  2
*DIM_0018
  8
寸法
  6
CONTINUOUS
 10
0.0
 20
0.0
  0
INSERT
  2
*DIM_0019
  8
寸法
  6
CONTINUOUS
 10
0.0
 20
0.0
  0
INSERT
  2
*DIM_0020
  8
寸法
  6
CONTINUOUS
 10
0.0
 20
0.0
  0
INSERT
  2
*DIM_0021
  8
寸法
  6
CONTINUOUS
 10
0.0
 20
0.0
  0
INSERT
  2
*DIM_0022
  8
寸法
  6
CONTINUOUS
 10
0.0
 20
0.0
  0
INSERT
  2
*DIM_0023
  8
寸法
  6
CONTINUOUS
 10
0.0
 20
0.0
  0
INSERT
  2
*DIM_0024
  8
寸法
  6
CONTINUOUS
 10
0.0
 20
0.0
  0
INSERT
  2
*DIM_0025
  8
寸法
  6
CONTINUOUS
 10
0.0
 20
0.0
  0
INSERT
  2
*DIM_0026
  8
寸法
  6
CONTINUOUS
 10
0.0
 20
0.0
  0
INSERT
  2
*DIM_0027
  8
寸法
  6
CONTINUOUS
 10
0.0
 20
0.0
  0
INSERT
  2
*GRP_0028
  8
寸法
  6
CONTINUOUS
 10
0.0
 20
0.0
  0
INSERT
  2
*GRP_0029
  8
寸法
  6
CONTINUOUS
 10
0.0
 20
0.0
  0
INSERT
  2
*GRP_0030
  8
寸法
  6
CONTINUOUS
 10
0.0
 20
0.0
  0
INSERT
  2
*GRP_0036
  8
寸法
  6
CONTINUOUS
 10
0.0
 20
0.0
  0
INSERT
  2
*GRP_0037
  8
寸法
  6
CONTINUOUS
 10
0.0
 20
0.0
  0
INSERT
  2
*GRP_0051
  8
寸法
  6
CONTINUOUS
 10
0.0
 20
0.0
  0
INSERT
  2
*DIM_0059
  8
寸法
  6
CONTINUOUS
 10
0.0
 20
0.0
  0
INSERT
  2
*DIM_0060
  8
寸法
  6
CONTINUOUS
 10
0.0
 20
0.0
  0
INSERT
  2
*DIM_0061
  8
寸法
  6
CONTINUOUS
 10
0.0
 20
0.0
  0
ARC
  8
別途部材
  6
CONTINUOUS
 62
    96
 10
6.375382
 20
84.970605
 40
5.005952
 50
21.799007
 51
89.998625
  0
LINE
  8
別途部材
  6
CONTINUOUS
 10
23.798137
 20
62.980137
 11
20.563185
 21
62.980137
  0
LINE
  8
別途部材
  6
CONTINUOUS
 62
    96
 10
11.798213
 20
92.980137
 11
23.798137
 21
62.980137
  0
LINE
  8
別途部材
  6
CONTINUOUS
 10
23.798213
 20
62.980137
 11
20.563185
 21
62.980137
  0
LINE
  8
別途部材
  6
CONTINUOUS
 62
    96
 10
11.023387
 20
86.829793
 11
20.563185
 21
62.980137
  0
LINE
  8
別途部材
  6
CONTINUOUS
 62
    96
 10
11.798213
 20
92.980137
 11
-38.201812
 21
92.980137
  0
LINE
  8
別途部材
  6
CONTINUOUS
 10
-39.806138
 20
89.980137
 11
6.375562
 21
89.980137
  0
ARC
  8
別途部材
  6
CONTINUOUS
 10
-338.201858
 20
-108.269985
 40
361.250025
 50
33.855035
 51
42.009933
  0
ARC
  8
別途部材
  6
CONTINUOUS
 10
-338.201858
 20
-108.269985
 40
358.250025
 50
33.599524
 51
42.443577
  0
INSERT
  2
*GRP_0052
  8
別途部材
  6
CONTINUOUS
 10
0.0
 20
0.0
  0
INSERT
  2
*GRP_0053
  8
別途部材
  6
CONTINUOUS
 10
0.0
 20
0.0
  0
INSERT
  2
*GRP_0054
  8
別途部材
  6
CONTINUOUS
 10
0.0
 20
0.0
  0
INSERT
  2
*GRP_0055
  8
別途部材
  6
CONTINUOUS
 10
0.0
 20
0.0
  0
INSERT
  2
*GRP_0031
  8
St
  6
CONTINUOUS
 10
0.0
 20
0.0
  0
INSERT
  2
*GRP_0045
  8
St
  6
CONTINUOUS
 10
0.0
 20
0.0
  0
INSERT
  2
*GRP_0046
  8
St
  6
CONTINUOUS
 10
0.0
 20
0.0
  0
ENDSEC
  0
EOF
