  0
SECTION
  2
HEADER
  9
$EXTMIN
 10
-210.0
 20
-148.5
  9
$EXTMAX
 10
210.0
 20
148.5
  9
$PDMODE
 70
    32
  9
$PDSIZE
 40
1.5
  9
$LTSCALE
 40
10.0
  0
ENDSEC
  0
SECTION
  2
TABLES
  0
TABLE
  2
LTYPE
 70
    15
  0
LTYPE
  2
CONTINUOUS
 70
    64
  3
実線
 72
    65
 73
     0
 40
0.0
  0
LTYPE
  2
DASHED
 70
    64
  3
破線A
 72
    65
 73
     2
 40
0.6
 49
0.4
 49
-0.2
  0
LTYPE
  2
DASHEDX2
 70
    64
  3
破線B
 72
    65
 73
     2
 40
1.3
 49
0.9
 49
-0.4
  0
LTYPE
  2
DASHDOT
 70
    64
  3
１点鎖線A
 72
    65
 73
     4
 40
0.5375
 49
0.375
 49
-0.05
 49
0.0625
 49
-0.05
  0
LTYPE
  2
DASHDOTX2
 70
    64
  3
１点鎖線B
 72
    65
 73
     4
 40
1.075
 49
0.75
 49
-0.1
 49
0.125
 49
-0.1
  0
LTYPE
  2
DIVIDE2
 70
    64
  3
２点鎖線A
 72
    65
 73
     6
 40
0.5125
 49
0.3
 49
-0.0375
 49
0.05
 49
-0.0375
 49
0.05
 49
-0.0375
  0
LTYPE
  2
DIVIDE
 70
    64
  3
２点鎖線B
 72
    65
 73
     6
 40
1.05
 49
0.55
 49
-0.1
 49
0.1
 49
-0.1
 49
0.1
 49
-0.1
  0
LTYPE
  2
DOT
 70
    64
  3
点線A
 72
    65
 73
     2
 40
0.1125
 49
0.0625
 49
-0.05
  0
LTYPE
  2
DOTX2
 70
    64
  3
点線B
 72
    65
 73
     2
 40
0.275
 49
0.15
 49
-0.125
  0
LTYPE
  2
CONTINUOUS
 70
    64
  3
実線
 72
    65
 73
     0
 40
0.0
  0
LTYPE
  2
CONTINUOUS
 70
    64
  3
実線
 72
    65
 73
     0
 40
0.0
  0
LTYPE
  2
CONTINUOUS
 70
    64
  3
実線
 72
    65
 73
     0
 40
0.0
  0
LTYPE
  2
CONTINUOUS
 70
    64
  3
実線
 72
    65
 73
     0
 40
0.0
  0
LTYPE
  2
CONTINUOUS
 70
    64
  3
実線
 72
    65
 73
     0
 40
0.0
  0
LTYPE
  2
CONTINUOUS
 70
    64
  3
実線
 72
    65
 73
     0
 40
0.0
  0
ENDTAB
  0
TABLE
  2
LAYER
 70
    34
  0
LAYER
  2
通り芯
 70
     0
 62
    15
  6
CONTINUOUS
  0
LAYER
  2
補助線
 70
     0
 62
    16
  6
DOT
  0
LAYER
  2
躯体
 70
     0
 62
    31
  6
CONTINUOUS
  0
LAYER
  2
型材
 70
     0
 62
    32
  6
CONTINUOUS
  0
LAYER
  2
型材断面
 70
     0
 62
    47
  6
CONTINUOUS
  0
LAYER
  2
ガラス
 70
     0
 62
    48
  6
CONTINUOUS
  0
LAYER
  2
ゴム等
 70
     0
 62
    63
  6
CONTINUOUS
  0
LAYER
  2
ボルト／ビス
 70
     0
 62
    64
  6
CONTINUOUS
  0
LAYER
  2
文字
 70
     0
 62
    79
  6
CONTINUOUS
  0
LAYER
  2
寸法
 70
     0
 62
    80
  6
CONTINUOUS
  0
LAYER
  2
ﾊｯﾁﾝｸﾞ
 70
     0
 62
    95
  6
CONTINUOUS
  0
LAYER
  2
別途部材
 70
     0
 62
    96
  6
CONTINUOUS
  0
LAYER
  2
曲げ物
 70
     0
 62
   111
  6
CONTINUOUS
  0
LAYER
  2
鉄骨等
 70
     0
 62
   112
  6
CONTINUOUS
  0
LAYER
  2
St
 70
     0
 62
   127
  6
CONTINUOUS
  0
LAYER
  2
その他部品等
 70
     0
 62
   128
  6
CONTINUOUS
  0
LAYER
  2
ｶﾞｽｹｯﾄ
 70
     0
 62
   143
  6
CONTINUOUS
  0
LAYER
  2
ｽｹｯﾁ
 70
     0
 62
    14
  6
CONTINUOUS
  0
LAYER
  2
0
 70
     0
 62
    17
  6
CONTINUOUS
  0
LAYER
  2
1
 70
     0
 62
    30
  6
CONTINUOUS
  0
LAYER
  2
4
 70
     0
 62
    33
  6
CONTINUOUS
  0
LAYER
  2
ﾚｲﾔ3
 70
     0
 62
    46
  6
CONTINUOUS
  0
LAYER
  2
外形線
 70
     0
 62
    49
  6
CONTINUOUS
  0
LAYER
  2
部品
 70
     0
 62
    14
  6
CONTINUOUS
  0
LAYER
  2
サッシ芯
 70
     0
 62
    17
  6
DASHDOTX2
  0
LAYER
  2
寸法線
 70
     0
 62
    62
  6
CONTINUOUS
  0
LAYER
  2
姿図外形線
 70
     0
 62
    65
  6
CONTINUOUS
  0
LAYER
  2
姿補助線
 70
     0
 62
    30
  6
CONTINUOUS
  0
LAYER
  2
透視線
 70
     0
 62
    78
  6
DOT
  0
LAYER
  2
用紙
 70
     0
 62
    81
  6
CONTINUOUS
  0
LAYER
  2
実線図枠
 70
     0
 62
    94
  6
CONTINUOUS
  0
LAYER
  2
補助図枠
 70
     0
 62
    97
  6
CONTINUOUS
  0
LAYER
  2
建具記号
 70
     0
 62
   110
  6
CONTINUOUS
  0
LAYER
  2
補助文字
 70
     0
 62
   113
  6
CONTINUOUS
  0
ENDTAB
  0
TABLE
  2
STYLE
 70
    10
  0
STYLE
  2
STANDARD
 70
     0
 40
1.0
 41
1.0
 42
1.0
 50
0.0
 71
     0
  3
TXT
  4
BIGFONT
  0
STYLE
  2
TATE
 70
     4
 40
1.0
 41
1.0
 42
1.0
 50
0.0
 71
     0
  3
TXT
  4
BIGFONT
  0
STYLE
  2
TextStyle03
 70
     0
 40
1.0
 41
1.0
 42
1.0
 50
0.0
 71
     0
  3
MONOTXT
  4
BIGFONT
  0
STYLE
  2
TextStyle04
 70
     0
 40
1.0
 41
1.0
 42
1.0
 50
0.0
 71
     0
  3
MONOTXT
  4
BIGFONT
  0
STYLE
  2
TextStyle05
 70
     0
 40
1.0
 41
1.0
 42
1.0
 50
0.0
 71
     0
  3
MONOTXT
  4
BIGFONT
  0
STYLE
  2
TextStyle06
 70
     0
 40
1.0
 41
1.0
 42
1.0
 50
0.0
 71
     0
  3
MONOTXT
  4
BIGFONT
  0
STYLE
  2
TextStyle07
 70
     0
 40
1.0
 41
1.0
 42
1.0
 50
0.0
 71
     0
  3
MONOTXT
  4
BIGFONT
  0
STYLE
  2
TextStyle08
 70
     0
 40
1.0
 41
1.0
 42
1.0
 50
0.0
 71
     0
  3
MONOTXT
  4
BIGFONT
  0
STYLE
  2
TextStyle09
 70
     0
 40
1.0
 41
1.0
 42
1.0
 50
0.0
 71
     0
  3
MONOTXT
  4
BIGFONT
  0
STYLE
  2
TextStyle10
 70
     0
 40
1.0
 41
1.0
 42
1.0
 50
0.0
 71
     0
  3
MONOTXT
  4
BIGFONT
  0
ENDTAB
  0
ENDSEC
  0
SECTION
  2
BLOCKS
  0
BLOCK
  2
*GRP_0001
 70
    65
 10
0.0
 20
0.0
  0
LINE
  8
型材断面
  6
CONTINUOUS
 10
195.0
 20
133.5
 11
195.0
 21
-133.5
  0
LINE
  8
型材断面
  6
CONTINUOUS
 10
195.0
 20
-133.5
 11
-185.0
 21
-133.5
  0
LINE
  8
型材断面
  6
CONTINUOUS
 10
-185.0
 20
-133.5
 11
-185.0
 21
133.5
  0
LINE
  8
型材断面
  6
CONTINUOUS
 10
195.0
 20
133.5
 11
-185.0
 21
133.5
  0
LINE
  8
型材断面
  6
CONTINUOUS
 10
145.0
 20
-133.5
 11
145.0
 21
-118.5
  0
LINE
  8
型材断面
  6
CONTINUOUS
 10
195.0
 20
-118.5
 11
145.0
 21
-118.5
  0
ENDBLK
  0
BLOCK
  2
*DIM_0002
 70
    65
 10
0.0
 20
0.0
  0
LINE
  8
寸法
  6
BYBLOCK
 62
     0
 10
21.33489
 20
-22.536362
 11
-45.331778
 21
-22.536362
  0
POINT
  8
寸法
 62
     0
 10
21.33489
 20
-22.536362
  0
POINT
  8
寸法
 62
     0
 10
-45.331778
 20
-22.536362
  0
TEXT
  7
TextStyle03
  8
寸法
  6
CONTINUOUS
 62
     0
 10
-23.71875
 20
-22.175
  1
呼称寸法　2000
 40
3.0
 72
     5
 11
-0.28125
 21
-22.175
  0
ENDBLK
  0
BLOCK
  2
*DIM_0003
 70
    65
 10
0.0
 20
0.0
  0
LINE
  8
寸法
  6
BYBLOCK
 62
     0
 10
19.33489
 20
7.792235
 11
19.33489
 21
4.767193
  0
LINE
  8
寸法
  6
BYBLOCK
 62
     0
 10
21.33489
 20
4.767193
 11
19.33489
 21
4.767193
  0
POINT
  8
寸法
 62
     0
 10
21.33489
 20
4.767193
  0
POINT
  8
寸法
 62
     0
 10
19.33489
 20
4.767193
  0
TEXT
  7
TextStyle03
  8
寸法
  6
CONTINUOUS
 62
     0
 10
17.43125
 20
1.0
  1
60
 40
3.0
 72
     5
 11
20.61875
 21
1.0
  0
ENDBLK
  0
BLOCK
  2
*DIM_0004
 70
    65
 10
0.0
 20
0.0
  0
LINE
  8
寸法
  6
BYBLOCK
 62
     0
 10
-43.331775
 20
7.792235
 11
-43.331775
 21
4.767193
  0
LINE
  8
寸法
  6
BYBLOCK
 62
     0
 10
-45.331775
 20
4.767193
 11
-43.331775
 21
4.767193
  0
POINT
  8
寸法
 62
     0
 10
-45.331775
 20
4.767193
  0
POINT
  8
寸法
 62
     0
 10
-43.331775
 20
4.767193
  0
TEXT
  7
TextStyle03
  8
寸法
  6
CONTINUOUS
 62
     0
 10
-44.56875
 20
0.975
  1
60
 40
3.0
 72
     5
 11
-41.38125
 21
0.975
  0
ENDBLK
  0
BLOCK
  2
*DIM_0005
 70
    65
 10
0.0
 20
0.0
  0
LINE
  8
寸法
  6
BYBLOCK
 62
     0
 10
-48.331778
 20
23.399048
 11
-77.276943
 21
23.399048
  0
LINE
  8
寸法
  6
BYBLOCK
 62
     0
 10
-48.331778
 20
46.732382
 11
-77.276943
 21
46.732382
  0
LINE
  8
寸法
  6
BYBLOCK
 62
     0
 10
-77.276943
 20
23.399048
 11
-77.276943
 21
46.732382
  0
POINT
  8
寸法
 62
     0
 10
-77.276943
 20
23.399048
  0
POINT
  8
寸法
 62
     0
 10
-77.276943
 20
46.732382
  0
TEXT
  7
TextStyle03
  8
寸法
  6
CONTINUOUS
 62
     0
 10
-77.75
 20
32.6125
  1
700
 40
3.0
 50
90.0
 72
     5
 11
-77.75
 21
37.4875
  0
ENDBLK
  0
BLOCK
  2
*DIM_0006
 70
    65
 10
0.0
 20
0.0
  0
LINE
  8
寸法
  6
BYBLOCK
 62
     0
 10
-35.331775
 20
59.73238
 11
-35.331775
 21
88.66
  0
LINE
  8
寸法
  6
BYBLOCK
 62
     0
 10
-11.998442
 20
59.73238
 11
-11.998442
 21
88.66
  0
LINE
  8
寸法
  6
BYBLOCK
 62
     0
 10
-35.331775
 20
88.66
 11
-11.998442
 21
88.66
  0
POINT
  8
寸法
 62
     0
 10
-35.331775
 20
88.66
  0
POINT
  8
寸法
 62
     0
 10
-11.998442
 20
88.66
  0
TEXT
  7
TextStyle03
  8
寸法
  6
CONTINUOUS
 62
     0
 10
-26.1125
 20
89.05
  1
700
 40
3.0
 72
     5
 11
-21.2375
 21
89.05
  0
ENDBLK
  0
BLOCK
  2
*DIM_0007
 70
    65
 10
0.0
 20
0.0
  0
LINE
  8
寸法
  6
BYBLOCK
 62
     0
 10
11.33489
 20
59.73238
 11
11.33489
 21
88.66
  0
LINE
  8
寸法
  6
BYBLOCK
 62
     0
 10
-11.998442
 20
88.66
 11
11.33489
 21
88.66
  0
POINT
  8
寸法
 62
     0
 10
11.33489
 20
88.66
  0
TEXT
  7
TextStyle03
  8
寸法
  6
CONTINUOUS
 62
     0
 10
-2.7875
 20
89.05
  1
700
 40
3.0
 72
     5
 11
2.0875
 21
89.05
  0
ENDBLK
  0
BLOCK
  2
*DIM_0008
 70
    65
 10
0.0
 20
0.0
  0
LINE
  8
寸法
  6
BYBLOCK
 62
     0
 10
4.501557
 20
-67.957932
 11
41.85548
 21
-67.957932
  0
LINE
  8
寸法
  6
BYBLOCK
 62
     0
 10
41.85548
 20
-79.6246
 11
41.85548
 21
-67.957932
  0
POINT
  8
寸法
 62
     0
 10
41.85548
 20
-67.957932
  0
TEXT
  7
TextStyle03
  8
寸法
  6
CONTINUOUS
 62
     0
 10
41.5
 20
-76.2625
  1
350
 40
3.0
 50
90.0
 72
     5
 11
41.5
 21
-71.3875
  0
ENDBLK
  0
BLOCK
  2
*GRP_0009
 70
    65
 10
0.0
 20
0.0
  0
LINE
  8
別途部材
  6
CONTINUOUS
 62
    96
 10
-46.998442
 20
-79.6246
 11
-47.398442
 21
-80.6246
  0
LINE
  8
別途部材
  6
CONTINUOUS
 10
-47.398442
 20
-80.6246
 11
-11.998442
 21
-80.6246
  0
LINE
  8
別途部材
  6
CONTINUOUS
 62
    96
 10
-46.998442
 20
-79.6246
 11
-11.998442
 21
-79.6246
  0
LINE
  8
別途部材
  6
CONTINUOUS
 10
-12.498442
 20
-66.957932
 11
-13.498442
 21
-67.957932
  0
LINE
  8
別途部材
  6
CONTINUOUS
 10
-14.498442
 20
-67.957932
 11
-15.498442
 21
-66.957932
  0
LINE
  8
別途部材
  6
CONTINUOUS
 10
-16.498442
 20
-66.957932
 11
-17.498442
 21
-67.957932
  0
LINE
  8
別途部材
  6
CONTINUOUS
 10
-15.498442
 20
-66.957932
 11
-16.498442
 21
-66.957932
  0
LINE
  8
別途部材
  6
CONTINUOUS
 10
-12.498442
 20
-66.957932
 11
-11.998442
 21
-66.957932
  0
LINE
  8
別途部材
  6
CONTINUOUS
 10
-18.498442
 20
-67.957932
 11
-19.498442
 21
-66.957932
  0
LINE
  8
別途部材
  6
CONTINUOUS
 10
-20.498442
 20
-66.957932
 11
-21.498442
 21
-67.957932
  0
LINE
  8
別途部材
  6
CONTINUOUS
 10
-19.498442
 20
-66.957932
 11
-20.498442
 21
-66.957932
  0
LINE
  8
別途部材
  6
CONTINUOUS
 10
-22.498442
 20
-67.957932
 11
-23.498442
 21
-66.957932
  0
LINE
  8
別途部材
  6
CONTINUOUS
 10
-24.498442
 20
-66.957932
 11
-25.498442
 21
-67.957932
  0
LINE
  8
別途部材
  6
CONTINUOUS
 10
-23.498442
 20
-66.957932
 11
-24.498442
 21
-66.957932
  0
LINE
  8
別途部材
  6
CONTINUOUS
 10
-21.498442
 20
-67.957932
 11
-22.498442
 21
-67.957932
  0
LINE
  8
別途部材
  6
CONTINUOUS
 10
-17.498442
 20
-67.957932
 11
-18.498442
 21
-67.957932
  0
LINE
  8
別途部材
  6
CONTINUOUS
 10
-14.498442
 20
-67.957932
 11
-13.498442
 21
-67.957932
  0
LINE
  8
別途部材
  6
CONTINUOUS
 10
-17.498442
 20
-67.957932
 11
-17.498442
 21
-79.6246
  0
LINE
  8
別途部材
  6
CONTINUOUS
 10
-12.498442
 20
-66.957932
 11
-12.498442
 21
-79.6246
  0
LINE
  8
別途部材
  6
CONTINUOUS
 10
-13.498442
 20
-67.957932
 11
-13.498442
 21
-79.6246
  0
LINE
  8
別途部材
  6
CONTINUOUS
 10
-15.498442
 20
-66.957932
 11
-15.498442
 21
-79.6246
  0
LINE
  8
別途部材
  6
CONTINUOUS
 10
-16.498442
 20
-66.957932
 11
-16.498442
 21
-79.6246
  0
LINE
  8
別途部材
  6
CONTINUOUS
 10
-18.498442
 20
-67.957932
 11
-18.498442
 21
-79.6246
  0
LINE
  8
別途部材
  6
CONTINUOUS
 10
-25.498442
 20
-67.957932
 11
-25.498442
 21
-79.6246
  0
LINE
  8
別途部材
  6
CONTINUOUS
 10
-24.498442
 20
-66.957932
 11
-24.498442
 21
-79.6246
  0
LINE
  8
別途部材
  6
CONTINUOUS
 10
-22.498442
 20
-67.957932
 11
-22.498442
 21
-79.6246
  0
LINE
  8
別途部材
  6
CONTINUOUS
 10
-23.498442
 20
-66.957932
 11
-23.498442
 21
-79.6246
  0
LINE
  8
別途部材
  6
CONTINUOUS
 10
-21.498442
 20
-67.957932
 11
-21.498442
 21
-79.6246
  0
LINE
  8
別途部材
  6
CONTINUOUS
 10
-19.498442
 20
-66.957932
 11
-19.498442
 21
-79.6246
  0
LINE
  8
別途部材
  6
CONTINUOUS
 10
-20.498442
 20
-66.957932
 11
-20.498442
 21
-79.6246
  0
LINE
  8
別途部材
  6
CONTINUOUS
 10
-14.498442
 20
-67.957932
 11
-14.498442
 21
-79.6246
  0
ARC
  8
別途部材
  6
CONTINUOUS
 10
-23.665107
 20
-93.910311
 40
25.952382
 50
94.050879
 51
146.601512
  0
LINE
  8
別途部材
  6
CONTINUOUS
 62
    96
 10
23.001557
 20
-79.6246
 11
23.401557
 21
-80.6246
  0
LINE
  8
別途部材
  6
CONTINUOUS
 10
23.401557
 20
-80.6246
 11
-11.998442
 21
-80.6246
  0
LINE
  8
別途部材
  6
CONTINUOUS
 62
    96
 10
23.001557
 20
-79.6246
 11
-11.998442
 21
-79.6246
  0
LINE
  8
別途部材
  6
CONTINUOUS
 10
-11.498442
 20
-66.957932
 11
-10.498442
 21
-67.957932
  0
LINE
  8
別途部材
  6
CONTINUOUS
 10
-9.498442
 20
-67.957932
 11
-8.498442
 21
-66.957932
  0
LINE
  8
別途部材
  6
CONTINUOUS
 10
-7.498442
 20
-66.957932
 11
-6.498442
 21
-67.957932
  0
LINE
  8
別途部材
  6
CONTINUOUS
 10
-8.498442
 20
-66.957932
 11
-7.498442
 21
-66.957932
  0
LINE
  8
別途部材
  6
CONTINUOUS
 10
-11.498442
 20
-66.957932
 11
-11.998442
 21
-66.957932
  0
LINE
  8
別途部材
  6
CONTINUOUS
 10
-5.498442
 20
-67.957932
 11
-4.498442
 21
-66.957932
  0
LINE
  8
別途部材
  6
CONTINUOUS
 10
-3.498442
 20
-66.957932
 11
-2.498442
 21
-67.957932
  0
LINE
  8
別途部材
  6
CONTINUOUS
 10
-4.498442
 20
-66.957932
 11
-3.498442
 21
-66.957932
  0
LINE
  8
別途部材
  6
CONTINUOUS
 10
-1.498442
 20
-67.957932
 11
-0.498442
 21
-66.957932
  0
LINE
  8
別途部材
  6
CONTINUOUS
 10
0.501557
 20
-66.957932
 11
1.501557
 21
-67.957932
  0
LINE
  8
別途部材
  6
CONTINUOUS
 10
-0.498442
 20
-66.957932
 11
0.501557
 21
-66.957932
  0
LINE
  8
別途部材
  6
CONTINUOUS
 10
-2.498442
 20
-67.957932
 11
-1.498442
 21
-67.957932
  0
LINE
  8
別途部材
  6
CONTINUOUS
 10
-6.498442
 20
-67.957932
 11
-5.498442
 21
-67.957932
  0
LINE
  8
別途部材
  6
CONTINUOUS
 10
-9.498442
 20
-67.957932
 11
-10.498442
 21
-67.957932
  0
LINE
  8
別途部材
  6
CONTINUOUS
 10
-6.498442
 20
-67.957932
 11
-6.498442
 21
-79.6246
  0
LINE
  8
別途部材
  6
CONTINUOUS
 10
-11.498442
 20
-66.957932
 11
-11.498442
 21
-79.6246
  0
LINE
  8
別途部材
  6
CONTINUOUS
 10
-10.498442
 20
-67.957932
 11
-10.498442
 21
-79.6246
  0
LINE
  8
別途部材
  6
CONTINUOUS
 10
-8.498442
 20
-66.957932
 11
-8.498442
 21
-79.6246
  0
LINE
  8
別途部材
  6
CONTINUOUS
 10
-7.498442
 20
-66.957932
 11
-7.498442
 21
-79.6246
  0
LINE
  8
別途部材
  6
CONTINUOUS
 10
-5.498442
 20
-67.957932
 11
-5.498442
 21
-79.6246
  0
LINE
  8
別途部材
  6
CONTINUOUS
 10
1.501557
 20
-67.957932
 11
1.501557
 21
-79.6246
  0
LINE
  8
別途部材
  6
CONTINUOUS
 10
0.501557
 20
-66.957932
 11
0.501557
 21
-79.6246
  0
LINE
  8
別途部材
  6
CONTINUOUS
 10
-1.498442
 20
-67.957932
 11
-1.498442
 21
-79.6246
  0
LINE
  8
別途部材
  6
CONTINUOUS
 10
-0.498442
 20
-66.957932
 11
-0.498442
 21
-79.6246
  0
LINE
  8
別途部材
  6
CONTINUOUS
 10
-2.498442
 20
-67.957932
 11
-2.498442
 21
-79.6246
  0
LINE
  8
別途部材
  6
CONTINUOUS
 10
-4.498442
 20
-66.957932
 11
-4.498442
 21
-79.6246
  0
LINE
  8
別途部材
  6
CONTINUOUS
 10
-3.498442
 20
-66.957932
 11
-3.498442
 21
-79.6246
  0
LINE
  8
別途部材
  6
CONTINUOUS
 10
-9.498442
 20
-67.957932
 11
-9.498442
 21
-79.6246
  0
ARC
  8
別途部材
  6
CONTINUOUS
 10
-0.331778
 20
-93.910311
 40
25.952382
 50
33.398488
 51
85.949121
  0
ENDBLK
  0
BLOCK
  2
*GRP_0010
 70
    65
 10
0.0
 20
0.0
  0
LINE
  8
ボルト／ビス
  6
CONTINUOUS
 10
-45.99844
 20
-79.624593
 11
-45.99844
 21
-79.157925
  0
LINE
  8
ボルト／ビス
  6
CONTINUOUS
 10
-45.631772
 20
-79.624593
 11
-45.631772
 21
-79.557925
  0
LINE
  8
ボルト／ビス
  6
CONTINUOUS
 10
-45.631772
 20
-79.557925
 11
-46.365107
 21
-79.557925
  0
LINE
  8
ボルト／ビス
  6
CONTINUOUS
 10
-46.365107
 20
-79.557925
 11
-46.365107
 21
-79.624593
  0
LINE
  8
ボルト／ビス
  6
CONTINUOUS
 10
-45.631772
 20
-79.624593
 11
-46.365107
 21
-79.624593
  0
LINE
  8
ボルト／ビス
  6
CONTINUOUS
 10
-45.69844
 20
-79.524593
 11
-45.69844
 21
-79.557925
  0
LINE
  8
ボルト／ビス
  6
CONTINUOUS
 10
-45.69844
 20
-79.524593
 11
-46.29844
 21
-79.524593
  0
LINE
  8
ボルト／ビス
  6
CONTINUOUS
 10
-46.29844
 20
-79.524593
 11
-46.29844
 21
-79.557925
  0
LINE
  8
ボルト／ビス
  6
CONTINUOUS
 62
    64
 10
-45.838065
 20
-79.324593
 11
-45.80599
 21
-79.336268
  0
ARC
  8
ボルト／ビス
  6
CONTINUOUS
 62
    64
 10
-45.854101
 20
-79.429573
 40
0.104978
 50
90.0
 51
117.278033
  0
ARC
  8
ボルト／ビス
  6
CONTINUOUS
 62
    64
 10
-45.998438
 20
-79.726997
 40
0.402402
 50
76.165015
 51
103.834998
  0
LINE
  8
ボルト／ビス
  6
CONTINUOUS
 62
    64
 10
-46.158815
 20
-79.324593
 11
-46.19089
 21
-79.336268
  0
ARC
  8
ボルト／ビス
  6
CONTINUOUS
 62
    64
 10
-46.142776
 20
-79.429573
 40
0.104978
 50
62.721967
 51
90.0
  0
LINE
  8
ボルト／ビス
  6
CONTINUOUS
 62
    64
 10
-45.838065
 20
-79.324593
 11
-46.158815
 21
-79.324593
  0
LINE
  8
ボルト／ビス
  6
CONTINUOUS
 62
    64
 10
-46.19089
 20
-79.336268
 11
-46.19089
 21
-79.457925
  0
LINE
  8
ボルト／ビス
  6
CONTINUOUS
 62
    64
 10
-46.094665
 20
-79.336268
 11
-46.094665
 21
-79.457925
  0
LINE
  8
ボルト／ビス
  6
CONTINUOUS
 62
    64
 10
-45.80599
 20
-79.336268
 11
-45.80599
 21
-79.457925
  0
LINE
  8
ボルト／ビス
  6
CONTINUOUS
 62
    64
 10
-45.902215
 20
-79.336268
 11
-45.902215
 21
-79.457925
  0
LINE
  8
ボルト／ビス
  6
CONTINUOUS
 10
-45.80599
 20
-79.457925
 11
-46.19089
 21
-79.457925
  0
LINE
  8
ボルト／ビス
  6
CONTINUOUS
 10
-45.79844
 20
-79.457925
 11
-45.79844
 21
-79.524593
  0
LINE
  8
ボルト／ビス
  6
CONTINUOUS
 10
-45.79844
 20
-79.457925
 11
-46.19844
 21
-79.457925
  0
LINE
  8
ボルト／ビス
  6
CONTINUOUS
 10
-46.19844
 20
-79.457925
 11
-46.19844
 21
-79.524593
  0
ENDBLK
  0
BLOCK
  2
*GRP_0011
 70
    65
 10
0.0
 20
0.0
  0
LINE
  8
ボルト／ビス
  6
CONTINUOUS
 10
22.00156
 20
-79.624593
 11
22.00156
 21
-79.157925
  0
LINE
  8
ボルト／ビス
  6
CONTINUOUS
 10
22.368227
 20
-79.624593
 11
22.368227
 21
-79.557925
  0
LINE
  8
ボルト／ビス
  6
CONTINUOUS
 10
22.368227
 20
-79.557925
 11
21.634893
 21
-79.557925
  0
LINE
  8
ボルト／ビス
  6
CONTINUOUS
 10
21.634893
 20
-79.557925
 11
21.634893
 21
-79.624593
  0
LINE
  8
ボルト／ビス
  6
CONTINUOUS
 10
22.368227
 20
-79.624593
 11
21.634893
 21
-79.624593
  0
LINE
  8
ボルト／ビス
  6
CONTINUOUS
 10
22.30156
 20
-79.524593
 11
22.30156
 21
-79.557925
  0
LINE
  8
ボルト／ビス
  6
CONTINUOUS
 10
22.30156
 20
-79.524593
 11
21.70156
 21
-79.524593
  0
LINE
  8
ボルト／ビス
  6
CONTINUOUS
 10
21.70156
 20
-79.524593
 11
21.70156
 21
-79.557925
  0
LINE
  8
ボルト／ビス
  6
CONTINUOUS
 62
    64
 10
22.161935
 20
-79.324593
 11
22.19401
 21
-79.336268
  0
ARC
  8
ボルト／ビス
  6
CONTINUOUS
 62
    64
 10
22.145899
 20
-79.429573
 40
0.104978
 50
90.0
 51
117.278033
  0
ARC
  8
ボルト／ビス
  6
CONTINUOUS
 62
    64
 10
22.001562
 20
-79.726997
 40
0.402402
 50
76.165015
 51
103.834998
  0
LINE
  8
ボルト／ビス
  6
CONTINUOUS
 62
    64
 10
21.841185
 20
-79.324593
 11
21.80911
 21
-79.336268
  0
ARC
  8
ボルト／ビス
  6
CONTINUOUS
 62
    64
 10
21.857224
 20
-79.429573
 40
0.104978
 50
62.721967
 51
90.0
  0
LINE
  8
ボルト／ビス
  6
CONTINUOUS
 62
    64
 10
22.161935
 20
-79.324593
 11
21.841185
 21
-79.324593
  0
LINE
  8
ボルト／ビス
  6
CONTINUOUS
 62
    64
 10
21.80911
 20
-79.336268
 11
21.80911
 21
-79.457925
  0
LINE
  8
ボルト／ビス
  6
CONTINUOUS
 62
    64
 10
21.905335
 20
-79.336268
 11
21.905335
 21
-79.457925
  0
LINE
  8
ボルト／ビス
  6
CONTINUOUS
 62
    64
 10
22.19401
 20
-79.336268
 11
22.19401
 21
-79.457925
  0
LINE
  8
ボルト／ビス
  6
CONTINUOUS
 62
    64
 10
22.097785
 20
-79.336268
 11
22.097785
 21
-79.457925
  0
LINE
  8
ボルト／ビス
  6
CONTINUOUS
 10
22.19401
 20
-79.457925
 11
21.80911
 21
-79.457925
  0
LINE
  8
ボルト／ビス
  6
CONTINUOUS
 10
22.20156
 20
-79.457925
 11
22.20156
 21
-79.524593
  0
LINE
  8
ボルト／ビス
  6
CONTINUOUS
 10
22.20156
 20
-79.457925
 11
21.80156
 21
-79.457925
  0
LINE
  8
ボルト／ビス
  6
CONTINUOUS
 10
21.80156
 20
-79.457925
 11
21.80156
 21
-79.524593
  0
ENDBLK
  0
BLOCK
  2
*DIM_0012
 70
    65
 10
0.0
 20
0.0
  0
LINE
  8
寸法
  6
BYBLOCK
 62
     0
 10
-28.66511
 20
3.004853
 11
-28.66511
 21
-2.052883
  0
LINE
  8
寸法
  6
BYBLOCK
 62
     0
 10
4.668225
 20
3.004853
 11
4.668225
 21
-2.052883
  0
LINE
  8
寸法
  6
BYBLOCK
 62
     0
 10
-28.66511
 20
-2.052883
 11
4.668225
 21
-2.052883
  0
POINT
  8
寸法
 62
     0
 10
-28.66511
 20
-2.052883
  0
POINT
  8
寸法
 62
     0
 10
4.668225
 20
-2.052883
  0
TEXT
  7
TextStyle03
  8
寸法
  6
CONTINUOUS
 62
     0
 10
-15.28125
 20
-1.675
  1
1000
 40
3.0
 72
     5
 11
-8.71875
 21
-1.675
  0
ENDBLK
  0
BLOCK
  2
*DIM_0013
 70
    65
 10
0.0
 20
0.0
  0
LINE
  8
寸法
  6
CONTINUOUS
 10
24.001557
 20
-79.6246
 11
41.85548
 21
-79.6246
  0
LINE
  8
寸法
  6
CONTINUOUS
 10
23.334905
 20
-85.1246
 11
41.85548
 21
-85.1246
  0
LINE
  8
寸法
  6
CONTINUOUS
 10
41.85548
 20
-79.6246
 11
41.85548
 21
-85.1246
  0
POINT
  8
寸法
 10
41.85548
 20
-79.6246
  0
POINT
  8
寸法
 10
41.85548
 20
-85.1246
  0
TEXT
  7
TextStyle03
  8
寸法
  6
CONTINUOUS
 10
41.475
 20
-84.8125
  1
165
 40
3.0
 50
90.0
 72
     5
 11
41.475
 21
-79.9375
  0
ENDBLK
  0
BLOCK
  2
*DIM_0014
 70
    65
 10
0.0
 20
0.0
  0
LINE
  8
寸法
  6
CONTINUOUS
 10
28.834905
 20
-88.1246
 11
41.85548
 21
-88.1246
  0
LINE
  8
寸法
  6
CONTINUOUS
 10
41.85548
 20
-85.1246
 11
41.85548
 21
-88.1246
  0
POINT
  8
寸法
 10
41.85548
 20
-88.1246
  0
TEXT
  7
TextStyle03
  8
寸法
  6
CONTINUOUS
 10
41.475
 20
-88.125
  1
※
 40
3.0
 50
90.0
 72
     5
 11
41.475
 21
-85.125
  0
ENDBLK
  0
BLOCK
  2
*DIM_0015
 70
    65
 10
0.0
 20
0.0
  0
LINE
  8
寸法
  6
CONTINUOUS
 10
27.834905
 20
-84.79127
 11
27.834905
 21
-22.536362
  0
LINE
  8
寸法
  6
CONTINUOUS
 10
21.33489
 20
-22.536362
 11
27.834905
 21
-22.536362
  0
POINT
  8
寸法
 10
21.33489
 20
-22.536362
  0
POINT
  8
寸法
 10
27.834905
 20
-22.536362
  0
TEXT
  7
TextStyle03
  8
寸法
  6
CONTINUOUS
 10
23.075
 20
-22.175
  1
※
 40
3.0
 72
     5
 11
26.075
 21
-22.175
  0
ENDBLK
  0
BLOCK
  2
*DIM_0016
 70
    65
 10
0.0
 20
0.0
  0
LINE
  8
寸法
  6
CONTINUOUS
 10
-51.831793
 20
-84.79127
 11
-51.831793
 21
-22.536362
  0
LINE
  8
寸法
  6
CONTINUOUS
 10
-45.331778
 20
-22.536362
 11
-51.831793
 21
-22.536362
  0
POINT
  8
寸法
 10
-45.331778
 20
-22.536362
  0
POINT
  8
寸法
 10
-51.831793
 20
-22.536362
  0
TEXT
  7
TextStyle03
  8
寸法
  6
CONTINUOUS
 10
-50.1
 20
-22.175
  1
※
 40
3.0
 72
     5
 11
-47.1
 21
-22.175
  0
ENDBLK
  0
BLOCK
  2
*GRP_0017
 70
    65
 10
0.0
 20
0.0
  0
LINE
  8
型材断面
  6
DOT
 62
    47
 10
79.900503
 20
27.149685
 11
81.244032
 21
25.806155
  0
LINE
  8
型材断面
  6
DOT
 62
    47
 10
111.95603
 20
59.205215
 11
113.29956
 21
57.861685
  0
LINE
  8
型材断面
  6
DOT
 10
81.244032
 20
25.806155
 11
113.29956
 21
57.861685
  0
LINE
  8
別途部材
  6
DOT
 62
    96
 10
78.722
 20
27.385398
 11
79.146265
 21
26.395448
  0
ARC
  8
別途部材
  6
DOT
 10
105.322684
 20
33.78303
 40
25.952381
 50
78.39849
 51
191.60151
  0
INSERT
  2
*GRP_0027
  8
別途部材
  6
DOT
 10
0.0
 20
0.0
  0
LINE
  8
別途部材
  6
DOT
 62
    96
 10
111.720318
 20
60.383715
 11
112.710268
 21
59.959453
  0
INSERT
  2
*GRP_0028
  8
別途部材
  6
DOT
 10
0.0
 20
0.0
  0
LINE
  8
別途部材
  6
DOT
 10
79.146265
 20
26.395448
 11
112.710268
 21
59.959453
  0
LINE
  8
別途部材
  6
DOT
 62
    96
 10
78.722
 20
27.385398
 11
111.720318
 21
60.383715
  0
ENDBLK
  0
BLOCK
  2
*DIM_0018
 70
    65
 10
0.0
 20
0.0
  0
LINE
  8
寸法
  6
CONTINUOUS
 10
69.2359
 20
13.399048
 11
68.45978
 21
13.399048
  0
LINE
  8
寸法
  6
CONTINUOUS
 10
69.2359
 20
56.732382
 11
68.45978
 21
56.732382
  0
LINE
  8
寸法
  6
CONTINUOUS
 10
68.45978
 20
13.399048
 11
68.45978
 21
56.732382
  0
POINT
  8
寸法
 10
68.45978
 20
13.399048
 50
-90.0
  0
POINT
  8
寸法
 10
68.45978
 20
56.732382
 50
-90.0
  0
TEXT
  7
TextStyle03
  8
寸法
  6
CONTINUOUS
 10
68.175
 20
23.33125
  1
呼称寸法　1300
 40
3.0
 50
90.0
 72
     5
 11
68.175
 21
46.76875
  0
ENDBLK
  0
BLOCK
  2
*DIM_0019
 70
    65
 10
0.0
 20
0.0
  0
LINE
  8
寸法
  6
CONTINUOUS
 10
115.678322
 20
63.232395
 11
68.45978
 21
63.232395
  0
LINE
  8
寸法
  6
CONTINUOUS
 10
68.45978
 20
56.732382
 11
68.45978
 21
63.232395
  0
POINT
  8
寸法
 10
68.45978
 20
56.732382
  0
POINT
  8
寸法
 10
68.45978
 20
63.232395
  0
TEXT
  7
TextStyle03
  8
寸法
  6
CONTINUOUS
 10
68.1
 20
58.5
  1
※
 40
3.0
 50
90.0
 72
     5
 11
68.1
 21
61.5
  0
ENDBLK
  0
BLOCK
  2
*DIM_0020
 70
    65
 10
0.0
 20
0.0
  0
LINE
  8
寸法
  6
CONTINUOUS
 10
115.678322
 20
6.89903
 11
68.45978
 21
6.89903
  0
LINE
  8
寸法
  6
CONTINUOUS
 10
68.45978
 20
13.399048
 11
68.45978
 21
6.89903
  0
POINT
  8
寸法
 10
68.45978
 20
13.399048
  0
POINT
  8
寸法
 10
68.45978
 20
6.89903
  0
TEXT
  7
TextStyle03
  8
寸法
  6
CONTINUOUS
 10
68.1
 20
8.675
  1
※
 40
3.0
 50
90.0
 72
     5
 11
68.1
 21
11.675
  0
ENDBLK
  0
BLOCK
  2
*DIM_0021
 70
    65
 10
0.0
 20
0.0
  0
LINE
  8
寸法
  6
CONTINUOUS
 10
119.011652
 20
64.232395
 11
119.011652
 21
77.450315
  0
LINE
  8
寸法
  6
CONTINUOUS
 10
116.678322
 20
64.232395
 11
116.678322
 21
77.450315
  0
LINE
  8
寸法
  6
CONTINUOUS
 10
119.011652
 20
77.450315
 11
116.678322
 21
77.450315
  0
POINT
  8
寸法
 10
119.011652
 20
77.450315
  0
POINT
  8
寸法
 10
116.678322
 20
77.450315
  0
TEXT
  7
TextStyle03
  8
寸法
  6
CONTINUOUS
 10
116.35
 20
77.85
  1
※
 40
3.0
 72
     5
 11
119.35
 21
77.85
  0
ENDBLK
  0
BLOCK
  2
*DIM_0022
 70
    65
 10
0.0
 20
0.0
  0
LINE
  8
寸法
  6
CONTINUOUS
 10
110.511652
 20
59.39905
 11
110.511652
 21
77.450315
  0
LINE
  8
寸法
  6
CONTINUOUS
 10
116.678322
 20
77.450315
 11
110.511652
 21
77.450315
  0
POINT
  8
寸法
 10
110.511652
 20
77.450315
  0
TEXT
  7
TextStyle03
  8
寸法
  6
CONTINUOUS
 10
111.1625
 20
77.85
  1
185
 40
3.0
 72
     5
 11
116.0375
 21
77.85
  0
ENDBLK
  0
BLOCK
  2
*DIM_0023
 70
    65
 10
0.0
 20
0.0
  0
LINE
  8
寸法
  6
CONTINUOUS
 10
98.844988
 20
36.065712
 11
98.844988
 21
77.450315
  0
LINE
  8
寸法
  6
CONTINUOUS
 10
110.511652
 20
77.450315
 11
98.844988
 21
77.450315
  0
POINT
  8
寸法
 10
98.844988
 20
77.450315
  0
TEXT
  7
TextStyle03
  8
寸法
  6
CONTINUOUS
 10
102.2375
 20
77.85
  1
350
 40
3.0
 72
     5
 11
107.1125
 21
77.85
  0
ENDBLK
  0
BLOCK
  2
*GRP_0024
 70
    65
 10
0.0
 20
0.0
  0
LINE
  8
ボルト／ビス
  6
CONTINUOUS
 10
110.511655
 20
12.73238
 11
110.044988
 21
12.73238
  0
LINE
  8
ボルト／ビス
  6
CONTINUOUS
 10
110.511655
 20
12.36571
 11
110.444988
 21
12.36571
  0
LINE
  8
ボルト／ビス
  6
CONTINUOUS
 10
110.444988
 20
12.36571
 11
110.444988
 21
13.099045
  0
LINE
  8
ボルト／ビス
  6
CONTINUOUS
 10
110.444988
 20
13.099045
 11
110.511655
 21
13.099045
  0
LINE
  8
ボルト／ビス
  6
CONTINUOUS
 10
110.511655
 20
12.36571
 11
110.511655
 21
13.099045
  0
LINE
  8
ボルト／ビス
  6
CONTINUOUS
 10
110.411655
 20
12.43238
 11
110.444988
 21
12.43238
  0
LINE
  8
ボルト／ビス
  6
CONTINUOUS
 10
110.411655
 20
12.43238
 11
110.411655
 21
13.03238
  0
LINE
  8
ボルト／ビス
  6
CONTINUOUS
 10
110.411655
 20
13.03238
 11
110.444988
 21
13.03238
  0
LINE
  8
ボルト／ビス
  6
CONTINUOUS
 62
    64
 10
110.211655
 20
12.572005
 11
110.22333
 21
12.53993
  0
ARC
  8
ボルト／ビス
  6
CONTINUOUS
 62
    64
 10
110.316633
 20
12.588041
 40
0.104978
 50
152.721967
 51
180.0
  0
ARC
  8
ボルト／ビス
  6
CONTINUOUS
 62
    64
 10
110.614057
 20
12.732378
 40
0.402402
 50
166.165002
 51
193.834985
  0
LINE
  8
ボルト／ビス
  6
CONTINUOUS
 62
    64
 10
110.211655
 20
12.892755
 11
110.22333
 21
12.92483
  0
ARC
  8
ボルト／ビス
  6
CONTINUOUS
 62
    64
 10
110.316633
 20
12.876716
 40
0.104978
 50
180.0
 51
207.278033
  0
LINE
  8
ボルト／ビス
  6
CONTINUOUS
 62
    64
 10
110.211655
 20
12.572005
 11
110.211655
 21
12.892755
  0
LINE
  8
ボルト／ビス
  6
CONTINUOUS
 62
    64
 10
110.22333
 20
12.92483
 11
110.344988
 21
12.92483
  0
LINE
  8
ボルト／ビス
  6
CONTINUOUS
 62
    64
 10
110.22333
 20
12.828605
 11
110.344988
 21
12.828605
  0
LINE
  8
ボルト／ビス
  6
CONTINUOUS
 62
    64
 10
110.22333
 20
12.53993
 11
110.344988
 21
12.53993
  0
LINE
  8
ボルト／ビス
  6
CONTINUOUS
 62
    64
 10
110.22333
 20
12.636155
 11
110.344988
 21
12.636155
  0
LINE
  8
ボルト／ビス
  6
CONTINUOUS
 10
110.344988
 20
12.53993
 11
110.344988
 21
12.92483
  0
LINE
  8
ボルト／ビス
  6
CONTINUOUS
 10
110.344988
 20
12.53238
 11
110.411655
 21
12.53238
  0
LINE
  8
ボルト／ビス
  6
CONTINUOUS
 10
110.344988
 20
12.53238
 11
110.344988
 21
12.93238
  0
LINE
  8
ボルト／ビス
  6
CONTINUOUS
 10
110.344988
 20
12.93238
 11
110.411655
 21
12.93238
  0
ENDBLK
  0
BLOCK
  2
*GRP_0025
 70
    65
 10
0.0
 20
0.0
  0
LINE
  8
ボルト／ビス
  6
CONTINUOUS
 10
110.511655
 20
57.39905
 11
110.044988
 21
57.39905
  0
LINE
  8
ボルト／ビス
  6
CONTINUOUS
 10
110.511655
 20
57.765718
 11
110.444988
 21
57.765718
  0
LINE
  8
ボルト／ビス
  6
CONTINUOUS
 10
110.444988
 20
57.765718
 11
110.444988
 21
57.032382
  0
LINE
  8
ボルト／ビス
  6
CONTINUOUS
 10
110.444988
 20
57.032382
 11
110.511655
 21
57.032382
  0
LINE
  8
ボルト／ビス
  6
CONTINUOUS
 10
110.511655
 20
57.765718
 11
110.511655
 21
57.032382
  0
LINE
  8
ボルト／ビス
  6
CONTINUOUS
 10
110.411655
 20
57.69905
 11
110.444988
 21
57.69905
  0
LINE
  8
ボルト／ビス
  6
CONTINUOUS
 10
110.411655
 20
57.69905
 11
110.411655
 21
57.09905
  0
LINE
  8
ボルト／ビス
  6
CONTINUOUS
 10
110.411655
 20
57.09905
 11
110.444988
 21
57.09905
  0
LINE
  8
ボルト／ビス
  6
CONTINUOUS
 62
    64
 10
110.211655
 20
57.559425
 11
110.22333
 21
57.5915
  0
ARC
  8
ボルト／ビス
  6
CONTINUOUS
 62
    64
 10
110.316633
 20
57.543388
 40
0.104978
 50
180.0
 51
207.278033
  0
ARC
  8
ボルト／ビス
  6
CONTINUOUS
 62
    64
 10
110.614057
 20
57.39905
 40
0.402402
 50
166.165015
 51
193.834998
  0
LINE
  8
ボルト／ビス
  6
CONTINUOUS
 62
    64
 10
110.211655
 20
57.238675
 11
110.22333
 21
57.2066
  0
ARC
  8
ボルト／ビス
  6
CONTINUOUS
 62
    64
 10
110.316633
 20
57.254713
 40
0.104978
 50
152.721967
 51
180.0
  0
LINE
  8
ボルト／ビス
  6
CONTINUOUS
 62
    64
 10
110.211655
 20
57.559425
 11
110.211655
 21
57.238675
  0
LINE
  8
ボルト／ビス
  6
CONTINUOUS
 62
    64
 10
110.22333
 20
57.2066
 11
110.344988
 21
57.2066
  0
LINE
  8
ボルト／ビス
  6
CONTINUOUS
 62
    64
 10
110.22333
 20
57.302825
 11
110.344988
 21
57.302825
  0
LINE
  8
ボルト／ビス
  6
CONTINUOUS
 62
    64
 10
110.22333
 20
57.5915
 11
110.344988
 21
57.5915
  0
LINE
  8
ボルト／ビス
  6
CONTINUOUS
 62
    64
 10
110.22333
 20
57.495275
 11
110.344988
 21
57.495275
  0
LINE
  8
ボルト／ビス
  6
CONTINUOUS
 10
110.344988
 20
57.5915
 11
110.344988
 21
57.2066
  0
LINE
  8
ボルト／ビス
  6
CONTINUOUS
 10
110.344988
 20
57.59905
 11
110.411655
 21
57.59905
  0
LINE
  8
ボルト／ビス
  6
CONTINUOUS
 10
110.344988
 20
57.59905
 11
110.344988
 21
57.19905
  0
LINE
  8
ボルト／ビス
  6
CONTINUOUS
 10
110.344988
 20
57.19905
 11
110.411655
 21
57.19905
  0
ENDBLK
  0
BLOCK
  2
*GRP_0026
 70
    65
 10
0.0
 20
0.0
  0
INSERT
  2
*GRP_0029
  8
補助線
  6
CONTINUOUS
 10
0.0
 20
0.0
  0
CIRCLE
  8
別途部材
  6
CONTINUOUS
 10
113.511693
 20
57.932395
 40
0.2
  0
CIRCLE
  8
別途部材
  6
CONTINUOUS
 10
113.511693
 20
57.932395
 40
0.1
  0
LINE
  8
別途部材
  6
CONTINUOUS
 10
112.111693
 20
57.832395
 11
112.111693
 21
57.732395
  0
LINE
  8
別途部材
  6
CONTINUOUS
 10
113.511693
 20
57.732395
 11
112.111693
 21
57.732395
  0
LINE
  8
別途部材
  6
CONTINUOUS
 10
112.111693
 20
57.832395
 11
113.338487
 21
57.832395
  0
LINE
  8
別途部材
  6
CONTINUOUS
 10
114.911693
 20
57.832395
 11
114.911693
 21
57.732395
  0
LINE
  8
別途部材
  6
CONTINUOUS
 10
113.511693
 20
57.732395
 11
114.911693
 21
57.732395
  0
LINE
  8
別途部材
  6
CONTINUOUS
 10
114.911693
 20
57.832395
 11
113.684898
 21
57.832395
  0
LINE
  8
別途部材
  6
CONTINUOUS
 10
112.378357
 20
57.832395
 11
112.378357
 21
57.732395
  0
LINE
  8
別途部材
  6
CONTINUOUS
 10
112.645023
 20
57.832395
 11
112.645023
 21
57.732395
  0
LINE
  8
別途部材
  6
CONTINUOUS
 10
112.911693
 20
57.832395
 11
112.911693
 21
57.732395
  0
LINE
  8
別途部材
  6
CONTINUOUS
 10
114.645023
 20
57.832395
 11
114.645023
 21
57.732395
  0
LINE
  8
別途部材
  6
CONTINUOUS
 10
114.378357
 20
57.832395
 11
114.378357
 21
57.732395
  0
LINE
  8
別途部材
  6
CONTINUOUS
 10
114.111693
 20
57.832395
 11
114.111693
 21
57.732395
  0
ENDBLK
  0
BLOCK
  2
*GRP_0027
 70
    65
 10
0.0
 20
0.0
  0
LINE
  8
ボルト／ビス
  6
DOT
 10
79.429107
 20
28.092503
 11
79.099122
 21
28.422487
  0
LINE
  8
ボルト／ビス
  6
DOT
 10
79.169835
 20
27.83323
 11
79.122693
 21
27.88037
  0
LINE
  8
ボルト／ビス
  6
DOT
 10
79.122693
 20
27.88037
 11
79.641237
 21
28.398918
  0
LINE
  8
ボルト／ビス
  6
DOT
 10
79.641237
 20
28.398918
 11
79.68838
 21
28.351775
  0
LINE
  8
ボルト／ビス
  6
DOT
 10
79.169835
 20
27.83323
 11
79.68838
 21
28.351775
  0
LINE
  8
ボルト／ビス
  6
DOT
 10
79.146265
 20
27.951082
 11
79.169835
 21
27.927513
  0
LINE
  8
ボルト／ビス
  6
DOT
 10
79.146265
 20
27.951082
 11
79.57053
 21
28.375345
  0
LINE
  8
ボルト／ビス
  6
DOT
 10
79.57053
 20
28.375345
 11
79.594097
 21
28.351778
  0
LINE
  8
ボルト／ビス
  6
DOT
 62
    64
 10
79.103572
 20
28.191232
 11
79.089148
 21
28.160297
  0
ARC
  8
ボルト／ビス
  6
DOT
 62
    64
 10
79.189144
 20
28.128341
 40
0.104978
 50
107.721967
 51
135.0
  0
ARC
  8
ボルト／ビス
  6
DOT
 62
    64
 10
79.501517
 20
28.020092
 40
0.402402
 50
121.165002
 51
148.834985
  0
LINE
  8
ボルト／ビス
  6
DOT
 62
    64
 10
79.330378
 20
28.418037
 11
79.361315
 21
28.432462
  0
ARC
  8
ボルト／ビス
  6
DOT
 62
    64
 10
79.393268
 20
28.332465
 40
0.104978
 50
135.0
 51
162.278033
  0
LINE
  8
ボルト／ビス
  6
DOT
 62
    64
 10
79.103572
 20
28.191232
 11
79.330378
 21
28.418037
  0
LINE
  8
ボルト／ビス
  6
DOT
 62
    64
 10
79.361315
 20
28.432462
 11
79.447337
 21
28.346437
  0
LINE
  8
ボルト／ビス
  6
DOT
 62
    64
 10
79.293273
 20
28.36442
 11
79.379298
 21
28.278398
  0
LINE
  8
ボルト／ビス
  6
DOT
 62
    64
 10
79.089148
 20
28.160297
 11
79.175173
 21
28.074273
  0
LINE
  8
ボルト／ビス
  6
DOT
 62
    64
 10
79.15719
 20
28.22834
 11
79.243215
 21
28.142315
  0
LINE
  8
ボルト／ビス
  6
DOT
 10
79.175173
 20
28.074273
 11
79.447337
 21
28.346437
  0
LINE
  8
ボルト／ビス
  6
DOT
 10
79.169835
 20
28.068935
 11
79.216978
 21
28.021793
  0
LINE
  8
ボルト／ビス
  6
DOT
 10
79.169835
 20
28.068935
 11
79.452678
 21
28.351778
  0
LINE
  8
ボルト／ビス
  6
DOT
 10
79.452678
 20
28.351778
 11
79.499818
 21
28.304635
  0
ENDBLK
  0
BLOCK
  2
*GRP_0028
 70
    65
 10
0.0
 20
0.0
  0
LINE
  8
ボルト／ビス
  6
DOT
 10
111.013213
 20
59.67661
 11
110.68323
 21
60.006593
  0
LINE
  8
ボルト／ビス
  6
DOT
 10
111.272487
 20
59.935882
 11
111.225345
 21
59.983025
  0
LINE
  8
ボルト／ビス
  6
DOT
 10
111.225345
 20
59.983025
 11
110.7068
 21
59.464478
  0
LINE
  8
ボルト／ビス
  6
DOT
 10
110.7068
 20
59.464478
 11
110.753943
 21
59.417335
  0
LINE
  8
ボルト／ビス
  6
DOT
 10
111.272487
 20
59.935882
 11
110.753943
 21
59.417335
  0
LINE
  8
ボルト／ビス
  6
DOT
 10
111.154635
 20
59.95945
 11
111.178203
 21
59.935882
  0
LINE
  8
ボルト／ビス
  6
DOT
 10
111.154635
 20
59.95945
 11
110.73037
 21
59.535188
  0
LINE
  8
ボルト／ビス
  6
DOT
 10
110.73037
 20
59.535188
 11
110.75394
 21
59.511617
  0
LINE
  8
ボルト／ビス
  6
DOT
 62
    64
 10
110.914482
 20
60.002143
 11
110.94542
 21
60.016568
  0
ARC
  8
ボルト／ビス
  6
DOT
 62
    64
 10
110.977375
 20
59.916572
 40
0.104978
 50
135.0
 51
162.278033
  0
ARC
  8
ボルト／ビス
  6
DOT
 62
    64
 10
111.085624
 20
59.604199
 40
0.402402
 50
121.165015
 51
148.834998
  0
LINE
  8
ボルト／ビス
  6
DOT
 62
    64
 10
110.68768
 20
59.77534
 11
110.673255
 21
59.744403
  0
ARC
  8
ボルト／ビス
  6
DOT
 62
    64
 10
110.773251
 20
59.712447
 40
0.104978
 50
107.721967
 51
135.0
  0
LINE
  8
ボルト／ビス
  6
DOT
 62
    64
 10
110.914482
 20
60.002143
 11
110.68768
 21
59.77534
  0
LINE
  8
ボルト／ビス
  6
DOT
 62
    64
 10
110.673255
 20
59.744403
 11
110.759277
 21
59.658377
  0
LINE
  8
ボルト／ビス
  6
DOT
 62
    64
 10
110.741295
 20
59.812445
 11
110.82732
 21
59.72642
  0
LINE
  8
ボルト／ビス
  6
DOT
 62
    64
 10
110.94542
 20
60.016568
 11
111.031443
 21
59.930545
  0
LINE
  8
ボルト／ビス
  6
DOT
 62
    64
 10
110.877377
 20
59.948525
 11
110.963402
 21
59.862502
  0
LINE
  8
ボルト／ビス
  6
DOT
 10
111.031443
 20
59.930545
 11
110.759277
 21
59.658377
  0
LINE
  8
ボルト／ビス
  6
DOT
 10
111.036782
 20
59.935882
 11
111.083925
 21
59.88874
  0
LINE
  8
ボルト／ビス
  6
DOT
 10
111.036782
 20
59.935882
 11
110.75394
 21
59.65304
  0
LINE
  8
ボルト／ビス
  6
DOT
 10
110.75394
 20
59.65304
 11
110.801082
 21
59.605897
  0
ENDBLK
  0
BLOCK
  2
*GRP_0029
 70
    65
 10
0.0
 20
0.0
  0
LINE
  8
補助線
  6
BYBLOCK
 62
     0
 10
113.511693
 20
57.765727
 11
113.511693
 21
58.09906
  0
LINE
  8
補助線
  6
BYBLOCK
 62
     0
 10
113.345023
 20
57.932395
 11
113.678357
 21
57.932395
  0
ENDBLK
  0
BLOCK
  2
*DIM_0030
 70
    65
 10
0.0
 20
0.0
  0
LINE
  8
寸法
  6
CONTINUOUS
 10
115.81792
 20
-37.500385
 11
115.81792
 21
-28.527415
  0
LINE
  8
寸法
  6
CONTINUOUS
 10
83.234588
 20
-37.500385
 11
83.234588
 21
-28.527415
  0
LINE
  8
寸法
  6
CONTINUOUS
 10
115.81792
 20
-28.527415
 11
83.234588
 21
-28.527415
  0
POINT
  8
寸法
 10
115.81792
 20
-28.527415
  0
POINT
  8
寸法
 10
83.234588
 20
-28.527415
  0
TEXT
  7
TextStyle03
  8
寸法
  6
CONTINUOUS
 10
95.4
 20
-28.2
  1
977.5
 40
3.0
 72
     5
 11
103.65
 21
-28.2
  0
ENDBLK
  0
BLOCK
  2
*DIM_0031
 70
    65
 10
0.0
 20
0.0
  0
LINE
  8
寸法
  6
CONTINUOUS
 10
116.81792
 20
-38.500385
 11
124.211905
 21
-38.500385
  0
LINE
  8
寸法
  6
CONTINUOUS
 10
116.81792
 20
-81.833717
 11
124.211905
 21
-81.833717
  0
LINE
  8
寸法
  6
CONTINUOUS
 10
124.211905
 20
-38.500385
 11
124.211905
 21
-81.833717
  0
POINT
  8
寸法
 10
124.211905
 20
-38.500385
  0
POINT
  8
寸法
 10
124.211905
 20
-81.833717
  0
TEXT
  7
TextStyle03
  8
寸法
  6
CONTINUOUS
 10
123.825
 20
-63.45625
  1
1300
 40
3.0
 50
90.0
 72
     5
 11
123.825
 21
-56.89375
  0
ENDBLK
  0
ENDSEC
  0
SECTION
  2
ENTITIES
  0
POLYLINE
  8
通り芯
  6
CONTINUOUS
 66
     1
 70
     1
  0
VERTEX
  8
通り芯
 10
-210.0
 20
-148.5
  0
VERTEX
  8
通り芯
 10
210.0
 20
-148.5
  0
VERTEX
  8
通り芯
 10
210.0
 20
148.5
  0
VERTEX
  8
通り芯
 10
-210.0
 20
148.5
  0
SEQEND
  0
INSERT
  2
*GRP_0001
  8
型材断面
  6
CONTINUOUS
 10
0.0
 20
0.0
  0
LINE
  8
型材断面
  6
DASHDOT
 10
21.33489
 20
-87.251428
 11
21.33489
 21
56.73238
  0
LINE
  8
型材断面
  6
DASHDOT
 10
-11.998442
 20
-87.251428
 11
-11.998442
 21
56.73238
  0
LINE
  8
型材断面
  6
DASHDOT
 10
-45.331778
 20
-87.251428
 11
-45.331778
 21
56.73238
  0
LINE
  8
型材断面
  6
DASHDOT
 10
119.011652
 20
56.73238
 11
-45.331778
 21
56.73238
  0
LINE
  8
型材断面
  6
DASHDOT
 10
119.011652
 20
35.065715
 11
-45.331778
 21
35.065715
  0
LINE
  8
型材断面
  6
DASHDOT
 10
119.011652
 20
13.399048
 11
-45.331778
 21
13.399048
  0
LINE
  8
型材断面
  6
CONTINUOUS
 10
-47.961907
 20
35.065715
 11
-50.552415
 21
36.561345
  0
LINE
  8
型材断面
  6
CONTINUOUS
 10
-47.961907
 20
35.065715
 11
-50.552415
 21
33.570085
  0
LINE
  8
型材断面
  6
CONTINUOUS
 10
-50.552415
 20
33.570085
 11
-50.552415
 21
36.561345
  0
LINE
  8
型材断面
  6
CONTINUOUS
 10
-28.66511
 20
59.36251
 11
-30.16074
 21
61.953017
  0
LINE
  8
型材断面
  6
CONTINUOUS
 10
-28.66511
 20
59.36251
 11
-27.16948
 21
61.953017
  0
LINE
  8
型材断面
  6
CONTINUOUS
 10
-27.16948
 20
61.953017
 11
-30.16074
 21
61.953017
  0
LINE
  8
型材断面
  6
CONTINUOUS
 10
-86.183985
 20
94.709852
 11
-85.58793
 21
92.119345
  0
LINE
  8
型材断面
  6
CONTINUOUS
 10
-86.183985
 20
94.709852
 11
-86.780043
 21
92.119345
  0
LINE
  8
型材断面
  6
CONTINUOUS
 10
-86.780043
 20
92.119345
 11
-85.58793
 21
92.119345
  0
LINE
  8
型材断面
  6
CONTINUOUS
 10
-92.206573
 20
88.840452
 11
-45.964795
 21
88.840452
  0
LINE
  8
型材断面
  6
CONTINUOUS
 10
-86.183985
 20
101.239727
 11
-87.679615
 21
98.64922
  0
LINE
  8
型材断面
  6
CONTINUOUS
 10
-86.183985
 20
101.239727
 11
-84.688355
 21
98.64922
  0
LINE
  8
型材断面
  6
CONTINUOUS
 10
-84.688355
 20
98.64922
 11
-87.679615
 21
98.64922
  0
LINE
  8
型材断面
  6
CONTINUOUS
 10
-92.206573
 20
97.710625
 11
-45.964795
 21
97.710625
  0
LINE
  8
型材断面
  6
CONTINUOUS
 10
-92.206573
 20
83.05242
 11
-45.964795
 21
83.05242
  0
LINE
  8
型材断面
  6
CONTINUOUS
 10
-28.66511
 20
10.76892
 11
-30.16074
 21
8.178413
  0
LINE
  8
型材断面
  6
CONTINUOUS
 10
-28.66511
 20
10.76892
 11
-27.16948
 21
8.178413
  0
LINE
  8
型材断面
  6
CONTINUOUS
 10
-27.16948
 20
8.178413
 11
-30.16074
 21
8.178413
  0
LINE
  8
型材断面
  6
CONTINUOUS
 10
23.965022
 20
35.065715
 11
26.55553
 21
36.561345
  0
LINE
  8
型材断面
  6
CONTINUOUS
 10
23.965022
 20
35.065715
 11
26.55553
 21
33.570085
  0
LINE
  8
型材断面
  6
CONTINUOUS
 10
26.55553
 20
33.570085
 11
26.55553
 21
36.561345
  0
LINE
  8
型材断面
  6
CONTINUOUS
 10
4.668225
 20
59.36251
 11
6.163855
 21
61.953017
  0
LINE
  8
型材断面
  6
CONTINUOUS
 10
4.668225
 20
59.36251
 11
3.172595
 21
61.953017
  0
LINE
  8
型材断面
  6
CONTINUOUS
 10
3.172595
 20
61.953017
 11
6.163855
 21
61.953017
  0
LINE
  8
型材断面
  6
CONTINUOUS
 10
4.668225
 20
10.76892
 11
6.163855
 21
8.178413
  0
LINE
  8
型材断面
  6
CONTINUOUS
 10
4.668225
 20
10.76892
 11
3.172595
 21
8.178413
  0
LINE
  8
型材断面
  6
CONTINUOUS
 10
3.172595
 20
8.178413
 11
6.163855
 21
8.178413
  0
LINE
  8
型材断面
  6
CONTINUOUS
 10
19.33489
 20
10.792235
 11
18.738832
 21
8.20173
  0
LINE
  8
型材断面
  6
CONTINUOUS
 10
19.33489
 20
10.792235
 11
19.930948
 21
8.20173
  0
LINE
  8
型材断面
  6
CONTINUOUS
 10
19.930948
 20
8.20173
 11
18.738832
 21
8.20173
  0
LINE
  8
型材断面
  6
CONTINUOUS
 10
-43.331775
 20
10.792235
 11
-42.735718
 21
8.20173
  0
LINE
  8
型材断面
  6
CONTINUOUS
 10
-43.331775
 20
10.792235
 11
-43.927833
 21
8.20173
  0
LINE
  8
型材断面
  6
CONTINUOUS
 10
-43.927833
 20
8.20173
 11
-42.735718
 21
8.20173
  0
LINE
  8
型材断面
  6
CONTINUOUS
 10
-51.831793
 20
6.899033
 11
-47.398448
 21
11.332378
  0
LINE
  8
型材断面
  6
CONTINUOUS
 10
23.40156
 20
11.332378
 11
27.834905
 21
6.899033
  0
LINE
  8
型材断面
  6
CONTINUOUS
 10
27.834905
 20
6.899033
 11
-51.831793
 21
6.899033
  0
LINE
  8
型材断面
  6
CONTINUOUS
 10
-47.398448
 20
58.79905
 11
-51.831793
 21
63.232395
  0
LINE
  8
型材断面
  6
CONTINUOUS
 10
-51.831793
 20
6.899033
 11
-51.831793
 21
63.232395
  0
LINE
  8
型材断面
  6
CONTINUOUS
 10
23.40156
 20
58.79905
 11
27.834905
 21
63.232395
  0
LINE
  8
型材断面
  6
CONTINUOUS
 10
27.834905
 20
63.232395
 11
27.834905
 21
6.899033
  0
LINE
  8
型材断面
  6
CONTINUOUS
 10
27.834905
 20
63.232395
 11
-51.831793
 21
63.232395
  0
POLYLINE
  8
型材断面
  6
DASHDOT
 66
     1
  0
VERTEX
  8
型材断面
 10
-45.331778
 20
13.399048
  0
VERTEX
  8
型材断面
 10
-11.998442
 20
56.73238
  0
VERTEX
  8
型材断面
 10
21.33489
 20
13.399048
  0
SEQEND
  0
LINE
  8
型材断面
  6
DOT
 10
-13.16511
 20
56.73238
 11
-13.16511
 21
13.399048
  0
LINE
  8
型材断面
  6
DOT
 10
-10.831775
 20
56.73238
 11
-10.831775
 21
13.399048
  0
LINE
  8
型材断面
  6
DASHDOT
 10
-11.998442
 20
56.73238
 11
-11.998442
 21
13.399048
  0
LINE
  8
型材断面
  6
CONTINUOUS
 62
    47
 10
-46.331793
 20
-80.6246
 11
-46.331793
 21
-82.52464
  0
LINE
  8
型材断面
  6
CONTINUOUS
 10
-46.331793
 20
-82.72464
 11
-46.331793
 21
-85.1246
  0
LINE
  8
型材断面
  6
CONTINUOUS
 10
-46.331793
 20
-85.1246
 11
-51.831793
 21
-85.79127
  0
LINE
  8
型材断面
  6
CONTINUOUS
 10
-51.831793
 20
-88.1246
 11
-51.831793
 21
-85.79127
  0
LINE
  8
型材断面
  6
CONTINUOUS
 62
    47
 10
22.334905
 20
-80.6246
 11
22.334905
 21
-82.52464
  0
LINE
  8
型材断面
  6
CONTINUOUS
 10
22.334905
 20
-82.72464
 11
22.334905
 21
-85.1246
  0
LINE
  8
型材断面
  6
CONTINUOUS
 10
22.334905
 20
-85.1246
 11
27.834905
 21
-85.79127
  0
LINE
  8
型材断面
  6
CONTINUOUS
 10
27.834905
 20
-88.1246
 11
27.834905
 21
-85.79127
  0
LINE
  8
型材断面
  6
CONTINUOUS
 10
-51.831793
 20
-88.1246
 11
27.834905
 21
-88.1246
  0
LINE
  8
型材断面
  6
CONTINUOUS
 10
-51.831793
 20
-85.79127
 11
27.834905
 21
-85.79127
  0
LINE
  8
型材断面
  6
CONTINUOUS
 10
22.334905
 20
-82.52464
 11
-46.331793
 21
-82.52464
  0
LINE
  8
型材断面
  6
CONTINUOUS
 10
22.334905
 20
-82.72464
 11
-46.331793
 21
-82.72464
  0
LINE
  8
型材断面
  6
CONTINUOUS
 10
22.334905
 20
-85.1246
 11
-46.331793
 21
-85.1246
  0
LINE
  8
型材断面
  6
CONTINUOUS
 10
119.011652
 20
63.232395
 11
119.011652
 21
6.89903
  0
LINE
  8
型材断面
  6
CONTINUOUS
 10
116.678322
 20
63.232395
 11
116.678322
 21
6.89903
  0
LINE
  8
型材断面
  6
CONTINUOUS
 62
    47
 10
111.511652
 20
12.39903
 11
113.411693
 21
12.39903
  0
LINE
  8
型材断面
  6
CONTINUOUS
 10
113.611693
 20
12.39903
 11
116.011652
 21
12.39903
  0
LINE
  8
型材断面
  6
CONTINUOUS
 10
116.011652
 20
12.39903
 11
116.678322
 21
6.89903
  0
LINE
  8
型材断面
  6
CONTINUOUS
 10
119.011652
 20
6.89903
 11
116.678322
 21
6.89903
  0
LINE
  8
型材断面
  6
CONTINUOUS
 62
    47
 10
111.511652
 20
57.732395
 11
113.411693
 21
57.732395
  0
LINE
  8
型材断面
  6
CONTINUOUS
 10
113.611693
 20
57.732395
 11
116.011652
 21
57.732395
  0
LINE
  8
型材断面
  6
CONTINUOUS
 10
116.011652
 20
57.732395
 11
116.678322
 21
63.232395
  0
LINE
  8
型材断面
  6
CONTINUOUS
 10
119.011652
 20
63.232395
 11
116.678322
 21
63.232395
  0
LINE
  8
型材断面
  6
CONTINUOUS
 10
113.411693
 20
12.39903
 11
113.411693
 21
57.732395
  0
LINE
  8
型材断面
  6
CONTINUOUS
 10
113.611693
 20
12.39903
 11
113.611693
 21
57.732395
  0
LINE
  8
型材断面
  6
CONTINUOUS
 10
116.011652
 20
12.39903
 11
116.011652
 21
57.732395
  0
INSERT
  2
*GRP_0017
  8
型材断面
  6
DASHDOT
 10
0.0
 20
0.0
  0
ARC
  8
型材断面
  6
DASHDOT
 10
113.51169
 20
57.932393
 40
46.297318
 50
221.284665
 51
266.284665
  0
LINE
  8
ガラス
  6
CONTINUOUS
 10
115.81792
 20
-38.500385
 11
83.234588
 21
-38.500385
  0
LINE
  8
ガラス
  6
CONTINUOUS
 10
83.234588
 20
-38.500385
 11
83.234588
 21
-81.833717
  0
LINE
  8
ガラス
  6
CONTINUOUS
 10
83.234588
 20
-81.833717
 11
115.81792
 21
-81.833717
  0
LINE
  8
ガラス
  6
CONTINUOUS
 10
115.81792
 20
-38.500385
 11
115.81792
 21
-81.833717
  0
TEXT
  7
TextStyle03
  8
文字
  6
CONTINUOUS
 10
-83.45
 20
98.85
  1
は排水穴位置を示す
 40
3.0
 72
     5
 11
-53.45
 21
98.85
  0
TEXT
  7
TextStyle03
  8
文字
  6
CONTINUOUS
 10
-87.175
 20
83.975
  1
アンカー数量　１０ヶ所
 40
3.0
 72
     5
 11
-50.425
 21
83.975
  0
TEXT
  7
TextStyle03
  8
文字
  6
CONTINUOUS
 10
-83.45
 20
93.325
  1
はケーシング位置を示す
 40
3.0
 72
     5
 11
-46.7
 21
93.325
  0
TEXT
  7
TextStyle03
  8
文字
  6
CONTINUOUS
 10
-83.45
 20
89.95
  1
２ヶ所中1ヶ所に設定
 40
3.0
 72
     5
 11
-51.7625
 21
89.95
  0
TEXT
  7
TextStyle03
  8
文字
  6
CONTINUOUS
 10
-82.95
 20
23.975
  1
アンカーピッチ
 40
3.0
 50
90.0
 72
     5
 11
-82.95
 21
47.225
  0
TEXT
  7
TextStyle03
  8
文字
  6
CONTINUOUS
 10
-37.9
 20
93.6
  1
アンカーピッチ
 40
3.0
 72
     5
 11
-14.65
 21
93.6
  0
TEXT
  7
TextStyle03
  8
文字
  6
CONTINUOUS
 10
77.425
 20
103.975
  1
ＮＳコード：ＮＳＨＳＬ
 40
5.0
 72
     5
 11
138.675
 21
103.975
  0
TEXT
  7
TextStyle03
  8
文字
  6
CONTINUOUS
 10
78.1
 20
125.25
  1
シリーズ：ＳＴＤＨＬ
 40
5.0
 72
     5
 11
133.725
 21
125.25
  0
TEXT
  7
TextStyle03
  8
文字
  6
CONTINUOUS
 10
78.1
 20
119.625
  1
　　　　　（片側開閉）1300×2000タイプ
 40
5.0
 72
     5
 11
184.35
 21
119.625
  0
TEXT
  7
TextStyle03
  8
文字
  6
CONTINUOUS
 10
78.1
 20
114.0
  1
図面名　：外観姿図
 40
5.0
 72
     5
 11
128.1
 21
114.0
  0
TEXT
  7
TextStyle03
  8
文字
  6
CONTINUOUS
 10
78.1
 20
108.375
  1
　　　　　　
 40
5.0
 72
     5
 11
111.225
 21
108.375
  0
TEXT
  7
TextStyle03
  8
文字
  6
CONTINUOUS
 10
93.675
 20
7.875
  1
45°
 40
3.0
 50
90.0
 72
     5
 11
93.675
 21
14.25
  0
TEXT
  7
TextStyle03
  8
文字
  6
CONTINUOUS
 10
30.125
 20
-98.425
  1
※は物件対応寸法
 40
3.0
 72
     5
 11
56.75
 21
-98.425
  0
TEXT
  7
TextStyle03
  8
文字
  6
CONTINUOUS
 10
97.475
 20
-74.8
  1
網入り6.8t
 40
3.0
 72
     5
 11
114.1625
 21
-74.8
  0
TEXT
  7
TextStyle03
  8
文字
  6
CONTINUOUS
 10
104.15
 20
-79.475
  1
×２枚
 40
3.0
 72
     5
 11
113.9
 21
-79.475
  0
INSERT
  2
*DIM_0002
  8
寸法
  6
CONTINUOUS
 10
0.0
 20
0.0
  0
INSERT
  2
*DIM_0003
  8
寸法
  6
CONTINUOUS
 10
0.0
 20
0.0
  0
INSERT
  2
*DIM_0004
  8
寸法
  6
CONTINUOUS
 10
0.0
 20
0.0
  0
INSERT
  2
*DIM_0005
  8
寸法
  6
CONTINUOUS
 10
0.0
 20
0.0
  0
INSERT
  2
*DIM_0006
  8
寸法
  6
CONTINUOUS
 10
0.0
 20
0.0
  0
INSERT
  2
*DIM_0007
  8
寸法
  6
CONTINUOUS
 10
0.0
 20
0.0
  0
INSERT
  2
*DIM_0008
  8
寸法
  6
CONTINUOUS
 10
0.0
 20
0.0
  0
INSERT
  2
*DIM_0012
  8
寸法
  6
CONTINUOUS
 10
0.0
 20
0.0
  0
INSERT
  2
*DIM_0013
  8
寸法
  6
CONTINUOUS
 10
0.0
 20
0.0
  0
INSERT
  2
*DIM_0014
  8
寸法
  6
CONTINUOUS
 10
0.0
 20
0.0
  0
INSERT
  2
*DIM_0015
  8
寸法
  6
CONTINUOUS
 10
0.0
 20
0.0
  0
INSERT
  2
*DIM_0016
  8
寸法
  6
CONTINUOUS
 10
0.0
 20
0.0
  0
INSERT
  2
*DIM_0018
  8
寸法
  6
CONTINUOUS
 10
0.0
 20
0.0
  0
INSERT
  2
*DIM_0019
  8
寸法
  6
CONTINUOUS
 10
0.0
 20
0.0
  0
INSERT
  2
*DIM_0020
  8
寸法
  6
CONTINUOUS
 10
0.0
 20
0.0
  0
INSERT
  2
*DIM_0021
  8
寸法
  6
CONTINUOUS
 10
0.0
 20
0.0
  0
INSERT
  2
*DIM_0022
  8
寸法
  6
CONTINUOUS
 10
0.0
 20
0.0
  0
INSERT
  2
*DIM_0023
  8
寸法
  6
CONTINUOUS
 10
0.0
 20
0.0
  0
INSERT
  2
*DIM_0030
  8
寸法
  6
CONTINUOUS
 10
0.0
 20
0.0
  0
INSERT
  2
*DIM_0031
  8
寸法
  6
CONTINUOUS
 10
0.0
 20
0.0
  0
INSERT
  2
*GRP_0009
  8
別途部材
  6
CONTINUOUS
 10
0.0
 20
0.0
  0
INSERT
  2
*GRP_0010
  8
別途部材
  6
DOT
 10
0.0
 20
0.0
  0
INSERT
  2
*GRP_0011
  8
別途部材
  6
DOT
 10
0.0
 20
0.0
  0
LINE
  8
別途部材
  6
CONTINUOUS
 10
-47.398448
 20
11.332378
 11
-45.331778
 21
13.399048
  0
LINE
  8
別途部材
  6
CONTINUOUS
 10
-45.331778
 20
13.399048
 11
-41.424183
 21
17.306643
  0
LINE
  8
別途部材
  6
CONTINUOUS
 10
21.33489
 20
13.399048
 11
23.40156
 21
11.332378
  0
LINE
  8
別途部材
  6
CONTINUOUS
 10
21.33489
 20
13.399048
 11
-45.331778
 21
13.399048
  0
LINE
  8
別途部材
  6
CONTINUOUS
 10
23.00156
 20
11.732378
 11
-46.998448
 21
11.732378
  0
LINE
  8
別途部材
  6
CONTINUOUS
 10
23.40156
 20
11.332378
 11
-47.398448
 21
11.332378
  0
LINE
  8
別途部材
  6
CONTINUOUS
 10
21.33489
 20
13.399048
 11
17.427295
 21
17.306643
  0
LINE
  8
別途部材
  6
CONTINUOUS
 10
-47.398448
 20
58.79905
 11
-45.331778
 21
56.73238
  0
LINE
  8
別途部材
  6
CONTINUOUS
 10
-45.331778
 20
56.73238
 11
-45.331778
 21
13.399048
  0
LINE
  8
別途部材
  6
CONTINUOUS
 10
-46.998448
 20
58.39905
 11
-46.998448
 21
11.732378
  0
LINE
  8
別途部材
  6
CONTINUOUS
 10
-47.398448
 20
58.79905
 11
-47.398448
 21
11.332378
  0
LINE
  8
別途部材
  6
CONTINUOUS
 10
-45.331778
 20
56.73238
 11
-41.424183
 21
52.824785
  0
LINE
  8
別途部材
  6
CONTINUOUS
 10
21.33489
 20
56.73238
 11
23.40156
 21
58.79905
  0
LINE
  8
別途部材
  6
CONTINUOUS
 10
21.33489
 20
56.73238
 11
21.33489
 21
13.399048
  0
LINE
  8
別途部材
  6
CONTINUOUS
 10
23.00156
 20
58.39905
 11
23.00156
 21
11.732378
  0
LINE
  8
別途部材
  6
CONTINUOUS
 10
23.40156
 20
58.79905
 11
23.40156
 21
11.332378
  0
LINE
  8
別途部材
  6
CONTINUOUS
 10
-45.331778
 20
56.73238
 11
21.33489
 21
56.73238
  0
LINE
  8
別途部材
  6
CONTINUOUS
 10
-46.998448
 20
58.39905
 11
23.00156
 21
58.39905
  0
LINE
  8
別途部材
  6
CONTINUOUS
 10
-47.398448
 20
58.79905
 11
23.40156
 21
58.79905
  0
LINE
  8
別途部材
  6
CONTINUOUS
 10
21.33489
 20
56.73238
 11
17.427295
 21
52.824785
  0
LINE
  8
別途部材
  6
CONTINUOUS
 62
    96
 10
110.511652
 20
11.73238
 11
111.511652
 21
11.33238
  0
ARC
  8
別途部材
  6
CONTINUOUS
 10
124.797367
 20
35.065713
 40
25.952381
 50
123.39849
 51
236.60151
  0
INSERT
  2
*GRP_0024
  8
別途部材
  6
DOT
 10
0.0
 20
0.0
  0
LINE
  8
別途部材
  6
CONTINUOUS
 62
    96
 10
110.511652
 20
58.39905
 11
111.511652
 21
58.79905
  0
INSERT
  2
*GRP_0025
  8
別途部材
  6
DOT
 10
0.0
 20
0.0
  0
LINE
  8
別途部材
  6
CONTINUOUS
 10
111.511652
 20
11.33238
 11
111.511652
 21
58.79905
  0
LINE
  8
別途部材
  6
CONTINUOUS
 62
    96
 10
110.511652
 20
11.73238
 11
110.511652
 21
58.39905
  0
INSERT
  2
*GRP_0026
  8
別途部材
  6
CONTINUOUS
 10
0.0
 20
0.0
  0
ENDSEC
  0
EOF
