  0
SECTION
  2
HEADER
  9
$EXTMIN
 10
-210.0
 20
-148.5
  9
$EXTMAX
 10
210.0
 20
148.5
  9
$PDMODE
 70
    32
  9
$PDSIZE
 40
1.5
  9
$LTSCALE
 40
10.0
  0
ENDSEC
  0
SECTION
  2
TABLES
  0
TABLE
  2
LTYPE
 70
    15
  0
LTYPE
  2
CONTINUOUS
 70
    64
  3
実線
 72
    65
 73
     0
 40
0.0
  0
LTYPE
  2
DASHED
 70
    64
  3
破線A
 72
    65
 73
     2
 40
0.6
 49
0.4
 49
-0.2
  0
LTYPE
  2
DASHEDX2
 70
    64
  3
破線B
 72
    65
 73
     2
 40
1.3
 49
0.9
 49
-0.4
  0
LTYPE
  2
DASHDOT
 70
    64
  3
１点鎖線A
 72
    65
 73
     4
 40
0.5375
 49
0.375
 49
-0.05
 49
0.0625
 49
-0.05
  0
LTYPE
  2
DASHDOTX2
 70
    64
  3
１点鎖線B
 72
    65
 73
     4
 40
1.075
 49
0.75
 49
-0.1
 49
0.125
 49
-0.1
  0
LTYPE
  2
DIVIDE2
 70
    64
  3
２点鎖線A
 72
    65
 73
     6
 40
0.5125
 49
0.3
 49
-0.0375
 49
0.05
 49
-0.0375
 49
0.05
 49
-0.0375
  0
LTYPE
  2
DIVIDE
 70
    64
  3
２点鎖線B
 72
    65
 73
     6
 40
1.05
 49
0.55
 49
-0.1
 49
0.1
 49
-0.1
 49
0.1
 49
-0.1
  0
LTYPE
  2
DOT
 70
    64
  3
点線A
 72
    65
 73
     2
 40
0.1125
 49
0.0625
 49
-0.05
  0
LTYPE
  2
DOTX2
 70
    64
  3
点線B
 72
    65
 73
     2
 40
0.275
 49
0.15
 49
-0.125
  0
LTYPE
  2
CONTINUOUS
 70
    64
  3
実線
 72
    65
 73
     0
 40
0.0
  0
LTYPE
  2
CONTINUOUS
 70
    64
  3
実線
 72
    65
 73
     0
 40
0.0
  0
LTYPE
  2
CONTINUOUS
 70
    64
  3
実線
 72
    65
 73
     0
 40
0.0
  0
LTYPE
  2
CONTINUOUS
 70
    64
  3
実線
 72
    65
 73
     0
 40
0.0
  0
LTYPE
  2
CONTINUOUS
 70
    64
  3
実線
 72
    65
 73
     0
 40
0.0
  0
LTYPE
  2
CONTINUOUS
 70
    64
  3
実線
 72
    65
 73
     0
 40
0.0
  0
ENDTAB
  0
TABLE
  2
LAYER
 70
    34
  0
LAYER
  2
通り芯
 70
     0
 62
    15
  6
CONTINUOUS
  0
LAYER
  2
補助線
 70
     0
 62
    16
  6
DOT
  0
LAYER
  2
躯体
 70
     0
 62
    31
  6
CONTINUOUS
  0
LAYER
  2
型材
 70
     0
 62
    32
  6
CONTINUOUS
  0
LAYER
  2
型材断面
 70
     0
 62
    47
  6
CONTINUOUS
  0
LAYER
  2
ガラス
 70
     0
 62
    48
  6
CONTINUOUS
  0
LAYER
  2
ゴム等
 70
     0
 62
    63
  6
CONTINUOUS
  0
LAYER
  2
ボルト／ビス
 70
     0
 62
    64
  6
CONTINUOUS
  0
LAYER
  2
文字
 70
     0
 62
    79
  6
CONTINUOUS
  0
LAYER
  2
寸法
 70
     0
 62
    80
  6
CONTINUOUS
  0
LAYER
  2
ﾊｯﾁﾝｸﾞ
 70
     0
 62
    95
  6
CONTINUOUS
  0
LAYER
  2
別途部材
 70
     0
 62
    96
  6
CONTINUOUS
  0
LAYER
  2
曲げ物
 70
     0
 62
   111
  6
CONTINUOUS
  0
LAYER
  2
鉄骨等
 70
     0
 62
   112
  6
CONTINUOUS
  0
LAYER
  2
St
 70
     0
 62
   127
  6
CONTINUOUS
  0
LAYER
  2
その他部品等
 70
     0
 62
   128
  6
CONTINUOUS
  0
LAYER
  2
ｶﾞｽｹｯﾄ
 70
     0
 62
   143
  6
CONTINUOUS
  0
LAYER
  2
ｽｹｯﾁ
 70
     0
 62
    14
  6
CONTINUOUS
  0
LAYER
  2
0
 70
     0
 62
    17
  6
CONTINUOUS
  0
LAYER
  2
1
 70
     0
 62
    30
  6
CONTINUOUS
  0
LAYER
  2
4
 70
     0
 62
    33
  6
CONTINUOUS
  0
LAYER
  2
ﾚｲﾔ3
 70
     0
 62
    46
  6
CONTINUOUS
  0
LAYER
  2
外形線
 70
     0
 62
    49
  6
CONTINUOUS
  0
LAYER
  2
部品
 70
     0
 62
    14
  6
CONTINUOUS
  0
LAYER
  2
サッシ芯
 70
     0
 62
    17
  6
DASHDOTX2
  0
LAYER
  2
寸法線
 70
     0
 62
    62
  6
CONTINUOUS
  0
LAYER
  2
姿図外形線
 70
     0
 62
    65
  6
CONTINUOUS
  0
LAYER
  2
姿補助線
 70
     0
 62
    30
  6
CONTINUOUS
  0
LAYER
  2
透視線
 70
     0
 62
    78
  6
DOT
  0
LAYER
  2
用紙
 70
     0
 62
    81
  6
CONTINUOUS
  0
LAYER
  2
実線図枠
 70
     0
 62
    94
  6
CONTINUOUS
  0
LAYER
  2
補助図枠
 70
     0
 62
    97
  6
CONTINUOUS
  0
LAYER
  2
建具記号
 70
     0
 62
   110
  6
CONTINUOUS
  0
LAYER
  2
補助文字
 70
     0
 62
   113
  6
CONTINUOUS
  0
ENDTAB
  0
TABLE
  2
STYLE
 70
    10
  0
STYLE
  2
STANDARD
 70
     0
 40
1.0
 41
1.0
 42
1.0
 50
0.0
 71
     0
  3
TXT
  4
BIGFONT
  0
STYLE
  2
TATE
 70
     4
 40
1.0
 41
1.0
 42
1.0
 50
0.0
 71
     0
  3
TXT
  4
BIGFONT
  0
STYLE
  2
TextStyle03
 70
     0
 40
1.0
 41
1.0
 42
1.0
 50
0.0
 71
     0
  3
MONOTXT
  4
BIGFONT
  0
STYLE
  2
TextStyle04
 70
     0
 40
1.0
 41
1.0
 42
1.0
 50
0.0
 71
     0
  3
MONOTXT
  4
BIGFONT
  0
STYLE
  2
TextStyle05
 70
     0
 40
1.0
 41
1.0
 42
1.0
 50
0.0
 71
     0
  3
MONOTXT
  4
BIGFONT
  0
STYLE
  2
TextStyle06
 70
     0
 40
1.0
 41
1.0
 42
1.0
 50
0.0
 71
     0
  3
MONOTXT
  4
BIGFONT
  0
STYLE
  2
TextStyle07
 70
     0
 40
1.0
 41
1.0
 42
1.0
 50
0.0
 71
     0
  3
MONOTXT
  4
BIGFONT
  0
STYLE
  2
TextStyle08
 70
     0
 40
1.0
 41
1.0
 42
1.0
 50
0.0
 71
     0
  3
MONOTXT
  4
BIGFONT
  0
STYLE
  2
TextStyle09
 70
     0
 40
1.0
 41
1.0
 42
1.0
 50
0.0
 71
     0
  3
MONOTXT
  4
BIGFONT
  0
STYLE
  2
TextStyle10
 70
     0
 40
1.0
 41
1.0
 42
1.0
 50
0.0
 71
     0
  3
MONOTXT
  4
BIGFONT
  0
ENDTAB
  0
ENDSEC
  0
SECTION
  2
BLOCKS
  0
BLOCK
  2
*GRP_0001
 70
    65
 10
0.0
 20
0.0
  0
LINE
  8
型材断面
  6
CONTINUOUS
 10
195.0
 20
133.5
 11
195.0
 21
-133.5
  0
LINE
  8
型材断面
  6
CONTINUOUS
 10
195.0
 20
-133.5
 11
-185.0
 21
-133.5
  0
LINE
  8
型材断面
  6
CONTINUOUS
 10
-185.0
 20
-133.5
 11
-185.0
 21
133.5
  0
LINE
  8
型材断面
  6
CONTINUOUS
 10
195.0
 20
133.5
 11
-185.0
 21
133.5
  0
LINE
  8
型材断面
  6
CONTINUOUS
 10
145.0
 20
-133.5
 11
145.0
 21
-118.5
  0
LINE
  8
型材断面
  6
CONTINUOUS
 10
195.0
 20
-118.5
 11
145.0
 21
-118.5
  0
ENDBLK
  0
BLOCK
  2
*DIM_0002
 70
    65
 10
0.0
 20
0.0
  0
LINE
  8
寸法
  6
BYBLOCK
 62
     0
 10
4.712865
 20
-13.121378
 11
-78.620467
 21
-13.121378
  0
POINT
  8
寸法
 62
     0
 10
4.712865
 20
-13.121378
  0
POINT
  8
寸法
 62
     0
 10
-78.620467
 20
-13.121378
  0
TEXT
  7
TextStyle03
  8
寸法
  6
CONTINUOUS
 62
     0
 10
-48.69375
 20
-12.75
  1
呼称寸法　2500
 40
3.0
 72
     5
 11
-25.25625
 21
-12.75
  0
ENDBLK
  0
BLOCK
  2
*DIM_0003
 70
    65
 10
0.0
 20
0.0
  0
LINE
  8
寸法
  6
BYBLOCK
 62
     0
 10
2.712865
 20
17.20722
 11
2.712865
 21
14.182178
  0
LINE
  8
寸法
  6
BYBLOCK
 62
     0
 10
4.712865
 20
14.182178
 11
2.712865
 21
14.182178
  0
POINT
  8
寸法
 62
     0
 10
4.712865
 20
14.182178
  0
POINT
  8
寸法
 62
     0
 10
2.712865
 20
14.182178
  0
TEXT
  7
TextStyle03
  8
寸法
  6
CONTINUOUS
 62
     0
 10
0.83125
 20
10.4
  1
60
 40
3.0
 72
     5
 11
4.01875
 21
10.4
  0
ENDBLK
  0
BLOCK
  2
*DIM_0004
 70
    65
 10
0.0
 20
0.0
  0
LINE
  8
寸法
  6
BYBLOCK
 62
     0
 10
-76.62047
 20
17.20722
 11
-76.62047
 21
14.182178
  0
LINE
  8
寸法
  6
BYBLOCK
 62
     0
 10
-78.62047
 20
14.182178
 11
-76.62047
 21
14.182178
  0
POINT
  8
寸法
 62
     0
 10
-78.62047
 20
14.182178
  0
POINT
  8
寸法
 62
     0
 10
-76.62047
 20
14.182178
  0
TEXT
  7
TextStyle03
  8
寸法
  6
CONTINUOUS
 62
     0
 10
-77.94375
 20
10.4
  1
60
 40
3.0
 72
     5
 11
-74.75625
 21
10.4
  0
ENDBLK
  0
BLOCK
  2
*DIM_0005
 70
    65
 10
0.0
 20
0.0
  0
LINE
  8
寸法
  6
BYBLOCK
 62
     0
 10
-81.620467
 20
39.4807
 11
-94.913305
 21
39.4807
  0
LINE
  8
寸法
  6
BYBLOCK
 62
     0
 10
-81.620467
 20
26.147365
 11
-94.913305
 21
26.147365
  0
LINE
  8
寸法
  6
BYBLOCK
 62
     0
 10
-94.913305
 20
39.4807
 11
-94.913305
 21
26.147365
  0
POINT
  8
寸法
 62
     0
 10
-94.913305
 20
39.4807
  0
POINT
  8
寸法
 62
     0
 10
-94.913305
 20
26.147365
  0
TEXT
  7
TextStyle03
  8
寸法
  6
CONTINUOUS
 62
     0
 10
-95.35
 20
30.3625
  1
400
 40
3.0
 50
90.0
 72
     5
 11
-95.35
 21
35.2375
  0
ENDBLK
  0
BLOCK
  2
*DIM_0006
 70
    65
 10
0.0
 20
0.0
  0
LINE
  8
寸法
  6
BYBLOCK
 62
     0
 10
-71.953802
 20
45.814033
 11
-71.953802
 21
75.561652
  0
LINE
  8
寸法
  6
BYBLOCK
 62
     0
 10
-48.62047
 20
45.814033
 11
-48.62047
 21
75.561652
  0
LINE
  8
寸法
  6
BYBLOCK
 62
     0
 10
-71.953802
 20
75.561652
 11
-48.62047
 21
75.561652
  0
POINT
  8
寸法
 62
     0
 10
-71.953802
 20
75.561652
  0
POINT
  8
寸法
 62
     0
 10
-48.62047
 20
75.561652
  0
TEXT
  7
TextStyle03
  8
寸法
  6
CONTINUOUS
 62
     0
 10
-62.7375
 20
75.925
  1
700
 40
3.0
 72
     5
 11
-57.8625
 21
75.925
  0
ENDBLK
  0
BLOCK
  2
*DIM_0007
 70
    65
 10
0.0
 20
0.0
  0
LINE
  8
寸法
  6
BYBLOCK
 62
     0
 10
-25.287135
 20
45.814033
 11
-25.287135
 21
75.561652
  0
LINE
  8
寸法
  6
BYBLOCK
 62
     0
 10
-48.62047
 20
75.561652
 11
-25.287135
 21
75.561652
  0
POINT
  8
寸法
 62
     0
 10
-25.287135
 20
75.561652
  0
TEXT
  7
TextStyle03
  8
寸法
  6
CONTINUOUS
 62
     0
 10
-39.4125
 20
75.925
  1
700
 40
3.0
 72
     5
 11
-34.5375
 21
75.925
  0
ENDBLK
  0
BLOCK
  2
*DIM_0008
 70
    65
 10
0.0
 20
0.0
  0
LINE
  8
寸法
  6
BYBLOCK
 62
     0
 10
-1.953802
 20
45.814033
 11
-1.953802
 21
75.561652
  0
LINE
  8
寸法
  6
BYBLOCK
 62
     0
 10
-25.287135
 20
75.561652
 11
-1.953802
 21
75.561652
  0
POINT
  8
寸法
 62
     0
 10
-1.953802
 20
75.561652
  0
TEXT
  7
TextStyle03
  8
寸法
  6
CONTINUOUS
 62
     0
 10
-16.0625
 20
75.925
  1
700
 40
3.0
 72
     5
 11
-11.1875
 21
75.925
  0
ENDBLK
  0
BLOCK
  2
*DIM_0009
 70
    65
 10
0.0
 20
0.0
  0
LINE
  8
寸法
  6
BYBLOCK
 62
     0
 10
-4.452383
 20
-64.87628
 11
20.517267
 21
-64.87628
  0
LINE
  8
寸法
  6
BYBLOCK
 62
     0
 10
20.517267
 20
-70.209613
 11
20.517267
 21
-64.87628
  0
POINT
  8
寸法
 62
     0
 10
20.517267
 20
-70.209613
  0
POINT
  8
寸法
 62
     0
 10
20.517267
 20
-64.87628
  0
TEXT
  7
TextStyle03
  8
寸法
  6
CONTINUOUS
 62
     0
 10
20.125
 20
-69.9875
  1
160
 40
3.0
 50
90.0
 72
     5
 11
20.125
 21
-65.1125
  0
ENDBLK
  0
BLOCK
  2
*GRP_0010
 70
    65
 10
0.0
 20
0.0
  0
LINE
  8
別途部材
  6
CONTINUOUS
 62
    96
 10
-80.287135
 20
-70.209613
 11
-80.687135
 21
-71.209613
  0
ARC
  8
別途部材
  6
CONTINUOUS
 10
-68.62047
 20
-76.917948
 40
12.041668
 50
90.0
 51
146.144967
  0
LINE
  8
別途部材
  6
CONTINUOUS
 10
-80.687135
 20
-71.209613
 11
-36.9538
 21
-71.209613
  0
LINE
  8
別途部材
  6
CONTINUOUS
 62
    96
 10
-80.287135
 20
-70.209613
 11
-36.9538
 21
-70.209613
  0
LINE
  8
別途部材
  6
CONTINUOUS
 10
-37.4538
 20
-63.87628
 11
-38.4538
 21
-64.87628
  0
LINE
  8
別途部材
  6
CONTINUOUS
 10
-39.4538
 20
-64.87628
 11
-40.4538
 21
-63.87628
  0
LINE
  8
別途部材
  6
CONTINUOUS
 10
-41.4538
 20
-63.87628
 11
-42.4538
 21
-64.87628
  0
LINE
  8
別途部材
  6
CONTINUOUS
 10
-40.4538
 20
-63.87628
 11
-41.4538
 21
-63.87628
  0
LINE
  8
別途部材
  6
CONTINUOUS
 10
-37.4538
 20
-63.87628
 11
-36.9538
 21
-63.87628
  0
LINE
  8
別途部材
  6
CONTINUOUS
 10
-43.4538
 20
-64.87628
 11
-44.4538
 21
-63.87628
  0
LINE
  8
別途部材
  6
CONTINUOUS
 10
-45.4538
 20
-63.87628
 11
-46.4538
 21
-64.87628
  0
LINE
  8
別途部材
  6
CONTINUOUS
 10
-44.4538
 20
-63.87628
 11
-45.4538
 21
-63.87628
  0
LINE
  8
別途部材
  6
CONTINUOUS
 10
-47.4538
 20
-64.87628
 11
-48.4538
 21
-63.87628
  0
LINE
  8
別途部材
  6
CONTINUOUS
 10
-49.4538
 20
-63.87628
 11
-50.4538
 21
-64.87628
  0
LINE
  8
別途部材
  6
CONTINUOUS
 10
-48.4538
 20
-63.87628
 11
-49.4538
 21
-63.87628
  0
LINE
  8
別途部材
  6
CONTINUOUS
 10
-51.4538
 20
-64.87628
 11
-52.4538
 21
-63.87628
  0
LINE
  8
別途部材
  6
CONTINUOUS
 10
-53.4538
 20
-63.87628
 11
-54.4538
 21
-64.87628
  0
LINE
  8
別途部材
  6
CONTINUOUS
 10
-52.4538
 20
-63.87628
 11
-53.4538
 21
-63.87628
  0
LINE
  8
別途部材
  6
CONTINUOUS
 10
-55.4538
 20
-64.87628
 11
-56.4538
 21
-63.87628
  0
LINE
  8
別途部材
  6
CONTINUOUS
 10
-57.4538
 20
-63.87628
 11
-58.4538
 21
-64.87628
  0
LINE
  8
別途部材
  6
CONTINUOUS
 10
-56.4538
 20
-63.87628
 11
-57.4538
 21
-63.87628
  0
LINE
  8
別途部材
  6
CONTINUOUS
 10
-59.4538
 20
-64.87628
 11
-60.4538
 21
-63.87628
  0
LINE
  8
別途部材
  6
CONTINUOUS
 10
-61.4538
 20
-63.87628
 11
-62.4538
 21
-64.87628
  0
LINE
  8
別途部材
  6
CONTINUOUS
 10
-60.4538
 20
-63.87628
 11
-61.4538
 21
-63.87628
  0
LINE
  8
別途部材
  6
CONTINUOUS
 10
-63.4538
 20
-64.87628
 11
-64.4538
 21
-63.87628
  0
LINE
  8
別途部材
  6
CONTINUOUS
 10
-65.4538
 20
-63.87628
 11
-66.4538
 21
-64.87628
  0
LINE
  8
別途部材
  6
CONTINUOUS
 10
-64.4538
 20
-63.87628
 11
-65.4538
 21
-63.87628
  0
LINE
  8
別途部材
  6
CONTINUOUS
 10
-62.4538
 20
-64.87628
 11
-63.4538
 21
-64.87628
  0
LINE
  8
別途部材
  6
CONTINUOUS
 10
-58.4538
 20
-64.87628
 11
-59.4538
 21
-64.87628
  0
LINE
  8
別途部材
  6
CONTINUOUS
 10
-54.4538
 20
-64.87628
 11
-55.4538
 21
-64.87628
  0
LINE
  8
別途部材
  6
CONTINUOUS
 10
-50.4538
 20
-64.87628
 11
-51.4538
 21
-64.87628
  0
LINE
  8
別途部材
  6
CONTINUOUS
 10
-46.4538
 20
-64.87628
 11
-47.4538
 21
-64.87628
  0
LINE
  8
別途部材
  6
CONTINUOUS
 10
-42.4538
 20
-64.87628
 11
-43.4538
 21
-64.87628
  0
LINE
  8
別途部材
  6
CONTINUOUS
 10
-39.4538
 20
-64.87628
 11
-38.4538
 21
-64.87628
  0
LINE
  8
別途部材
  6
CONTINUOUS
 10
-65.4538
 20
-63.87628
 11
-65.4538
 21
-70.209613
  0
LINE
  8
別途部材
  6
CONTINUOUS
 10
-66.4538
 20
-64.87628
 11
-66.4538
 21
-70.209613
  0
LINE
  8
別途部材
  6
CONTINUOUS
 10
-63.4538
 20
-64.87628
 11
-63.4538
 21
-70.209613
  0
LINE
  8
別途部材
  6
CONTINUOUS
 10
-64.4538
 20
-63.87628
 11
-64.4538
 21
-70.209613
  0
LINE
  8
別途部材
  6
CONTINUOUS
 10
-62.4538
 20
-64.87628
 11
-62.4538
 21
-70.209613
  0
LINE
  8
別途部材
  6
CONTINUOUS
 10
-61.4538
 20
-63.87628
 11
-61.4538
 21
-70.209613
  0
LINE
  8
別途部材
  6
CONTINUOUS
 10
-57.4538
 20
-63.87628
 11
-57.4538
 21
-70.209613
  0
LINE
  8
別途部材
  6
CONTINUOUS
 10
-56.4538
 20
-63.87628
 11
-56.4538
 21
-70.209613
  0
LINE
  8
別途部材
  6
CONTINUOUS
 10
-58.4538
 20
-64.87628
 11
-58.4538
 21
-70.209613
  0
LINE
  8
別途部材
  6
CONTINUOUS
 10
-59.4538
 20
-64.87628
 11
-59.4538
 21
-70.209613
  0
LINE
  8
別途部材
  6
CONTINUOUS
 10
-60.4538
 20
-63.87628
 11
-60.4538
 21
-70.209613
  0
LINE
  8
別途部材
  6
CONTINUOUS
 10
-55.4538
 20
-64.87628
 11
-55.4538
 21
-70.209613
  0
LINE
  8
別途部材
  6
CONTINUOUS
 10
-53.4538
 20
-63.87628
 11
-53.4538
 21
-70.209613
  0
LINE
  8
別途部材
  6
CONTINUOUS
 10
-52.4538
 20
-63.87628
 11
-52.4538
 21
-70.209613
  0
LINE
  8
別途部材
  6
CONTINUOUS
 10
-51.4538
 20
-64.87628
 11
-51.4538
 21
-70.209613
  0
LINE
  8
別途部材
  6
CONTINUOUS
 10
-50.4538
 20
-64.87628
 11
-50.4538
 21
-70.209613
  0
LINE
  8
別途部材
  6
CONTINUOUS
 10
-49.4538
 20
-63.87628
 11
-49.4538
 21
-70.209613
  0
LINE
  8
別途部材
  6
CONTINUOUS
 10
-54.4538
 20
-64.87628
 11
-54.4538
 21
-70.209613
  0
LINE
  8
別途部材
  6
CONTINUOUS
 10
-48.4538
 20
-63.87628
 11
-48.4538
 21
-70.209613
  0
LINE
  8
別途部材
  6
CONTINUOUS
 10
-47.4538
 20
-64.87628
 11
-47.4538
 21
-70.209613
  0
LINE
  8
別途部材
  6
CONTINUOUS
 10
-46.4538
 20
-64.87628
 11
-46.4538
 21
-70.209613
  0
LINE
  8
別途部材
  6
CONTINUOUS
 10
-44.4538
 20
-63.87628
 11
-44.4538
 21
-70.209613
  0
LINE
  8
別途部材
  6
CONTINUOUS
 10
-42.4538
 20
-64.87628
 11
-42.4538
 21
-70.209613
  0
LINE
  8
別途部材
  6
CONTINUOUS
 10
-41.4538
 20
-63.87628
 11
-41.4538
 21
-70.209613
  0
LINE
  8
別途部材
  6
CONTINUOUS
 10
-39.4538
 20
-64.87628
 11
-39.4538
 21
-70.209613
  0
LINE
  8
別途部材
  6
CONTINUOUS
 10
-38.4538
 20
-64.87628
 11
-38.4538
 21
-70.209613
  0
LINE
  8
別途部材
  6
CONTINUOUS
 10
-37.4538
 20
-63.87628
 11
-37.4538
 21
-70.209613
  0
LINE
  8
別途部材
  6
CONTINUOUS
 10
-40.4538
 20
-63.87628
 11
-40.4538
 21
-70.209613
  0
LINE
  8
別途部材
  6
CONTINUOUS
 10
-43.4538
 20
-64.87628
 11
-43.4538
 21
-70.209613
  0
LINE
  8
別途部材
  6
CONTINUOUS
 10
-45.4538
 20
-63.87628
 11
-45.4538
 21
-70.209613
  0
LINE
  8
別途部材
  6
CONTINUOUS
 10
-66.4538
 20
-64.87628
 11
-68.620467
 21
-64.87628
  0
LINE
  8
別途部材
  6
CONTINUOUS
 62
    96
 10
6.379532
 20
-70.209613
 11
6.779532
 21
-71.209613
  0
ARC
  8
別途部材
  6
CONTINUOUS
 10
-5.287131
 20
-76.917948
 40
12.041668
 50
33.855033
 51
90.0
  0
LINE
  8
別途部材
  6
CONTINUOUS
 10
6.779532
 20
-71.209613
 11
-36.9538
 21
-71.209613
  0
LINE
  8
別途部材
  6
CONTINUOUS
 62
    96
 10
6.379532
 20
-70.209613
 11
-36.9538
 21
-70.209613
  0
LINE
  8
別途部材
  6
CONTINUOUS
 10
-36.4538
 20
-63.87628
 11
-35.4538
 21
-64.87628
  0
LINE
  8
別途部材
  6
CONTINUOUS
 10
-34.4538
 20
-64.87628
 11
-33.4538
 21
-63.87628
  0
LINE
  8
別途部材
  6
CONTINUOUS
 10
-32.4538
 20
-63.87628
 11
-31.4538
 21
-64.87628
  0
LINE
  8
別途部材
  6
CONTINUOUS
 10
-33.4538
 20
-63.87628
 11
-32.4538
 21
-63.87628
  0
LINE
  8
別途部材
  6
CONTINUOUS
 10
-36.4538
 20
-63.87628
 11
-36.9538
 21
-63.87628
  0
LINE
  8
別途部材
  6
CONTINUOUS
 10
-30.4538
 20
-64.87628
 11
-29.4538
 21
-63.87628
  0
LINE
  8
別途部材
  6
CONTINUOUS
 10
-28.4538
 20
-63.87628
 11
-27.4538
 21
-64.87628
  0
LINE
  8
別途部材
  6
CONTINUOUS
 10
-29.4538
 20
-63.87628
 11
-28.4538
 21
-63.87628
  0
LINE
  8
別途部材
  6
CONTINUOUS
 10
-26.4538
 20
-64.87628
 11
-25.4538
 21
-63.87628
  0
LINE
  8
別途部材
  6
CONTINUOUS
 10
-24.4538
 20
-63.87628
 11
-23.4538
 21
-64.87628
  0
LINE
  8
別途部材
  6
CONTINUOUS
 10
-25.4538
 20
-63.87628
 11
-24.4538
 21
-63.87628
  0
LINE
  8
別途部材
  6
CONTINUOUS
 10
-22.4538
 20
-64.87628
 11
-21.4538
 21
-63.87628
  0
LINE
  8
別途部材
  6
CONTINUOUS
 10
-20.4538
 20
-63.87628
 11
-19.4538
 21
-64.87628
  0
LINE
  8
別途部材
  6
CONTINUOUS
 10
-21.4538
 20
-63.87628
 11
-20.4538
 21
-63.87628
  0
LINE
  8
別途部材
  6
CONTINUOUS
 10
-18.4538
 20
-64.87628
 11
-17.4538
 21
-63.87628
  0
LINE
  8
別途部材
  6
CONTINUOUS
 10
-16.4538
 20
-63.87628
 11
-15.4538
 21
-64.87628
  0
LINE
  8
別途部材
  6
CONTINUOUS
 10
-17.4538
 20
-63.87628
 11
-16.4538
 21
-63.87628
  0
LINE
  8
別途部材
  6
CONTINUOUS
 10
-14.4538
 20
-64.87628
 11
-13.4538
 21
-63.87628
  0
LINE
  8
別途部材
  6
CONTINUOUS
 10
-12.4538
 20
-63.87628
 11
-11.4538
 21
-64.87628
  0
LINE
  8
別途部材
  6
CONTINUOUS
 10
-13.4538
 20
-63.87628
 11
-12.4538
 21
-63.87628
  0
LINE
  8
別途部材
  6
CONTINUOUS
 10
-10.4538
 20
-64.87628
 11
-9.4538
 21
-63.87628
  0
LINE
  8
別途部材
  6
CONTINUOUS
 10
-8.4538
 20
-63.87628
 11
-7.4538
 21
-64.87628
  0
LINE
  8
別途部材
  6
CONTINUOUS
 10
-9.4538
 20
-63.87628
 11
-8.4538
 21
-63.87628
  0
LINE
  8
別途部材
  6
CONTINUOUS
 10
-11.4538
 20
-64.87628
 11
-10.4538
 21
-64.87628
  0
LINE
  8
別途部材
  6
CONTINUOUS
 10
-15.4538
 20
-64.87628
 11
-14.4538
 21
-64.87628
  0
LINE
  8
別途部材
  6
CONTINUOUS
 10
-19.4538
 20
-64.87628
 11
-18.4538
 21
-64.87628
  0
LINE
  8
別途部材
  6
CONTINUOUS
 10
-23.4538
 20
-64.87628
 11
-22.4538
 21
-64.87628
  0
LINE
  8
別途部材
  6
CONTINUOUS
 10
-27.4538
 20
-64.87628
 11
-26.4538
 21
-64.87628
  0
LINE
  8
別途部材
  6
CONTINUOUS
 10
-31.4538
 20
-64.87628
 11
-30.4538
 21
-64.87628
  0
LINE
  8
別途部材
  6
CONTINUOUS
 10
-34.4538
 20
-64.87628
 11
-35.4538
 21
-64.87628
  0
LINE
  8
別途部材
  6
CONTINUOUS
 10
-8.4538
 20
-63.87628
 11
-8.4538
 21
-70.209613
  0
LINE
  8
別途部材
  6
CONTINUOUS
 10
-7.4538
 20
-64.87628
 11
-7.4538
 21
-70.209613
  0
LINE
  8
別途部材
  6
CONTINUOUS
 10
-10.4538
 20
-64.87628
 11
-10.4538
 21
-70.209613
  0
LINE
  8
別途部材
  6
CONTINUOUS
 10
-9.4538
 20
-63.87628
 11
-9.4538
 21
-70.209613
  0
LINE
  8
別途部材
  6
CONTINUOUS
 10
-11.4538
 20
-64.87628
 11
-11.4538
 21
-70.209613
  0
LINE
  8
別途部材
  6
CONTINUOUS
 10
-12.4538
 20
-63.87628
 11
-12.4538
 21
-70.209613
  0
LINE
  8
別途部材
  6
CONTINUOUS
 10
-16.4538
 20
-63.87628
 11
-16.4538
 21
-70.209613
  0
LINE
  8
別途部材
  6
CONTINUOUS
 10
-17.4538
 20
-63.87628
 11
-17.4538
 21
-70.209613
  0
LINE
  8
別途部材
  6
CONTINUOUS
 10
-15.4538
 20
-64.87628
 11
-15.4538
 21
-70.209613
  0
LINE
  8
別途部材
  6
CONTINUOUS
 10
-14.4538
 20
-64.87628
 11
-14.4538
 21
-70.209613
  0
LINE
  8
別途部材
  6
CONTINUOUS
 10
-13.4538
 20
-63.87628
 11
-13.4538
 21
-70.209613
  0
LINE
  8
別途部材
  6
CONTINUOUS
 10
-18.4538
 20
-64.87628
 11
-18.4538
 21
-70.209613
  0
LINE
  8
別途部材
  6
CONTINUOUS
 10
-20.4538
 20
-63.87628
 11
-20.4538
 21
-70.209613
  0
LINE
  8
別途部材
  6
CONTINUOUS
 10
-21.4538
 20
-63.87628
 11
-21.4538
 21
-70.209613
  0
LINE
  8
別途部材
  6
CONTINUOUS
 10
-22.4538
 20
-64.87628
 11
-22.4538
 21
-70.209613
  0
LINE
  8
別途部材
  6
CONTINUOUS
 10
-23.4538
 20
-64.87628
 11
-23.4538
 21
-70.209613
  0
LINE
  8
別途部材
  6
CONTINUOUS
 10
-24.4538
 20
-63.87628
 11
-24.4538
 21
-70.209613
  0
LINE
  8
別途部材
  6
CONTINUOUS
 10
-19.4538
 20
-64.87628
 11
-19.4538
 21
-70.209613
  0
LINE
  8
別途部材
  6
CONTINUOUS
 10
-25.4538
 20
-63.87628
 11
-25.4538
 21
-70.209613
  0
LINE
  8
別途部材
  6
CONTINUOUS
 10
-26.4538
 20
-64.87628
 11
-26.4538
 21
-70.209613
  0
LINE
  8
別途部材
  6
CONTINUOUS
 10
-27.4538
 20
-64.87628
 11
-27.4538
 21
-70.209613
  0
LINE
  8
別途部材
  6
CONTINUOUS
 10
-29.4538
 20
-63.87628
 11
-29.4538
 21
-70.209613
  0
LINE
  8
別途部材
  6
CONTINUOUS
 10
-31.4538
 20
-64.87628
 11
-31.4538
 21
-70.209613
  0
LINE
  8
別途部材
  6
CONTINUOUS
 10
-32.4538
 20
-63.87628
 11
-32.4538
 21
-70.209613
  0
LINE
  8
別途部材
  6
CONTINUOUS
 10
-34.4538
 20
-64.87628
 11
-34.4538
 21
-70.209613
  0
LINE
  8
別途部材
  6
CONTINUOUS
 10
-35.4538
 20
-64.87628
 11
-35.4538
 21
-70.209613
  0
LINE
  8
別途部材
  6
CONTINUOUS
 10
-36.4538
 20
-63.87628
 11
-36.4538
 21
-70.209613
  0
LINE
  8
別途部材
  6
CONTINUOUS
 10
-33.4538
 20
-63.87628
 11
-33.4538
 21
-70.209613
  0
LINE
  8
別途部材
  6
CONTINUOUS
 10
-30.4538
 20
-64.87628
 11
-30.4538
 21
-70.209613
  0
LINE
  8
別途部材
  6
CONTINUOUS
 10
-28.4538
 20
-63.87628
 11
-28.4538
 21
-70.209613
  0
LINE
  8
別途部材
  6
CONTINUOUS
 10
-7.4538
 20
-64.87628
 11
-5.287135
 21
-64.87628
  0
ENDBLK
  0
BLOCK
  2
*GRP_0011
 70
    65
 10
0.0
 20
0.0
  0
LINE
  8
ボルト／ビス
  6
CONTINUOUS
 10
-79.287135
 20
-70.209608
 11
-79.287135
 21
-69.74294
  0
LINE
  8
ボルト／ビス
  6
CONTINUOUS
 10
-78.920468
 20
-70.209608
 11
-78.920468
 21
-70.14294
  0
LINE
  8
ボルト／ビス
  6
CONTINUOUS
 10
-78.920468
 20
-70.14294
 11
-79.653802
 21
-70.14294
  0
LINE
  8
ボルト／ビス
  6
CONTINUOUS
 10
-79.653802
 20
-70.14294
 11
-79.653802
 21
-70.209608
  0
LINE
  8
ボルト／ビス
  6
CONTINUOUS
 10
-78.920468
 20
-70.209608
 11
-79.653802
 21
-70.209608
  0
LINE
  8
ボルト／ビス
  6
CONTINUOUS
 10
-78.987135
 20
-70.109608
 11
-78.987135
 21
-70.14294
  0
LINE
  8
ボルト／ビス
  6
CONTINUOUS
 10
-78.987135
 20
-70.109608
 11
-79.587135
 21
-70.109608
  0
LINE
  8
ボルト／ビス
  6
CONTINUOUS
 10
-79.587135
 20
-70.109608
 11
-79.587135
 21
-70.14294
  0
LINE
  8
ボルト／ビス
  6
CONTINUOUS
 62
    64
 10
-79.12676
 20
-69.909608
 11
-79.094685
 21
-69.921282
  0
ARC
  8
ボルト／ビス
  6
CONTINUOUS
 62
    64
 10
-79.142797
 20
-70.014588
 40
0.104978
 50
90.0
 51
117.278033
  0
ARC
  8
ボルト／ビス
  6
CONTINUOUS
 62
    64
 10
-79.287134
 20
-70.312012
 40
0.402402
 50
76.165015
 51
103.834998
  0
LINE
  8
ボルト／ビス
  6
CONTINUOUS
 62
    64
 10
-79.44751
 20
-69.909608
 11
-79.479585
 21
-69.921282
  0
ARC
  8
ボルト／ビス
  6
CONTINUOUS
 62
    64
 10
-79.431472
 20
-70.014588
 40
0.104978
 50
62.721967
 51
90.0
  0
LINE
  8
ボルト／ビス
  6
CONTINUOUS
 62
    64
 10
-79.12676
 20
-69.909608
 11
-79.44751
 21
-69.909608
  0
LINE
  8
ボルト／ビス
  6
CONTINUOUS
 62
    64
 10
-79.479585
 20
-69.921282
 11
-79.479585
 21
-70.04294
  0
LINE
  8
ボルト／ビス
  6
CONTINUOUS
 62
    64
 10
-79.38336
 20
-69.921282
 11
-79.38336
 21
-70.04294
  0
LINE
  8
ボルト／ビス
  6
CONTINUOUS
 62
    64
 10
-79.094685
 20
-69.921282
 11
-79.094685
 21
-70.04294
  0
LINE
  8
ボルト／ビス
  6
CONTINUOUS
 62
    64
 10
-79.19091
 20
-69.921282
 11
-79.19091
 21
-70.04294
  0
LINE
  8
ボルト／ビス
  6
CONTINUOUS
 10
-79.094685
 20
-70.04294
 11
-79.479585
 21
-70.04294
  0
LINE
  8
ボルト／ビス
  6
CONTINUOUS
 10
-79.087135
 20
-70.04294
 11
-79.087135
 21
-70.109608
  0
LINE
  8
ボルト／ビス
  6
CONTINUOUS
 10
-79.087135
 20
-70.04294
 11
-79.487135
 21
-70.04294
  0
LINE
  8
ボルト／ビス
  6
CONTINUOUS
 10
-79.487135
 20
-70.04294
 11
-79.487135
 21
-70.109608
  0
ENDBLK
  0
BLOCK
  2
*GRP_0012
 70
    65
 10
0.0
 20
0.0
  0
LINE
  8
ボルト／ビス
  6
CONTINUOUS
 10
5.379532
 20
-70.209613
 11
5.379532
 21
-69.742945
  0
LINE
  8
ボルト／ビス
  6
CONTINUOUS
 10
5.7462
 20
-70.209613
 11
5.7462
 21
-70.142945
  0
LINE
  8
ボルト／ビス
  6
CONTINUOUS
 10
5.7462
 20
-70.142945
 11
5.012865
 21
-70.142945
  0
LINE
  8
ボルト／ビス
  6
CONTINUOUS
 10
5.012865
 20
-70.142945
 11
5.012865
 21
-70.209613
  0
LINE
  8
ボルト／ビス
  6
CONTINUOUS
 10
5.7462
 20
-70.209613
 11
5.012865
 21
-70.209613
  0
LINE
  8
ボルト／ビス
  6
CONTINUOUS
 10
5.679532
 20
-70.109612
 11
5.679532
 21
-70.142945
  0
LINE
  8
ボルト／ビス
  6
CONTINUOUS
 10
5.679532
 20
-70.109612
 11
5.079532
 21
-70.109612
  0
LINE
  8
ボルト／ビス
  6
CONTINUOUS
 10
5.079532
 20
-70.109612
 11
5.079532
 21
-70.142945
  0
LINE
  8
ボルト／ビス
  6
CONTINUOUS
 62
    64
 10
5.539907
 20
-69.909613
 11
5.571983
 21
-69.921288
  0
ARC
  8
ボルト／ビス
  6
CONTINUOUS
 62
    64
 10
5.523871
 20
-70.014593
 40
0.104978
 50
90.0
 51
117.278033
  0
ARC
  8
ボルト／ビス
  6
CONTINUOUS
 62
    64
 10
5.379533
 20
-70.312017
 40
0.402402
 50
76.165015
 51
103.834998
  0
LINE
  8
ボルト／ビス
  6
CONTINUOUS
 62
    64
 10
5.219158
 20
-69.909613
 11
5.187082
 21
-69.921288
  0
ARC
  8
ボルト／ビス
  6
CONTINUOUS
 62
    64
 10
5.235196
 20
-70.014593
 40
0.104978
 50
62.721967
 51
90.0
  0
LINE
  8
ボルト／ビス
  6
CONTINUOUS
 62
    64
 10
5.539907
 20
-69.909613
 11
5.219158
 21
-69.909613
  0
LINE
  8
ボルト／ビス
  6
CONTINUOUS
 62
    64
 10
5.187082
 20
-69.921288
 11
5.187082
 21
-70.042945
  0
LINE
  8
ボルト／ビス
  6
CONTINUOUS
 62
    64
 10
5.283308
 20
-69.921288
 11
5.283308
 21
-70.042945
  0
LINE
  8
ボルト／ビス
  6
CONTINUOUS
 62
    64
 10
5.571983
 20
-69.921288
 11
5.571983
 21
-70.042945
  0
LINE
  8
ボルト／ビス
  6
CONTINUOUS
 62
    64
 10
5.475757
 20
-69.921288
 11
5.475757
 21
-70.042945
  0
LINE
  8
ボルト／ビス
  6
CONTINUOUS
 10
5.571983
 20
-70.042945
 11
5.187082
 21
-70.042945
  0
LINE
  8
ボルト／ビス
  6
CONTINUOUS
 10
5.579532
 20
-70.042945
 11
5.579532
 21
-70.109612
  0
LINE
  8
ボルト／ビス
  6
CONTINUOUS
 10
5.579532
 20
-70.042945
 11
5.179532
 21
-70.042945
  0
LINE
  8
ボルト／ビス
  6
CONTINUOUS
 10
5.179532
 20
-70.042945
 11
5.179532
 21
-70.109612
  0
ENDBLK
  0
BLOCK
  2
*DIM_0013
 70
    65
 10
0.0
 20
0.0
  0
LINE
  8
寸法
  6
BYBLOCK
 62
     0
 10
-61.9538
 20
14.282402
 11
-61.9538
 21
9.11692
  0
LINE
  8
寸法
  6
BYBLOCK
 62
     0
 10
-11.953805
 20
14.282402
 11
-11.953805
 21
9.11692
  0
LINE
  8
寸法
  6
BYBLOCK
 62
     0
 10
-61.9538
 20
9.11692
 11
-11.953805
 21
9.11692
  0
POINT
  8
寸法
 62
     0
 10
-61.9538
 20
9.11692
  0
POINT
  8
寸法
 62
     0
 10
-11.953805
 20
9.11692
  0
TEXT
  7
TextStyle03
  8
寸法
  6
CONTINUOUS
 62
     0
 10
-40.23125
 20
9.475
  1
1500
 40
3.0
 72
     5
 11
-33.66875
 21
9.475
  0
ENDBLK
  0
BLOCK
  2
*DIM_0014
 70
    65
 10
0.0
 20
0.0
  0
LINE
  8
寸法
  6
CONTINUOUS
 10
7.379532
 20
-70.209613
 11
20.517267
 21
-70.209613
  0
LINE
  8
寸法
  6
CONTINUOUS
 10
6.71288
 20
-75.709613
 11
20.517267
 21
-75.709613
  0
LINE
  8
寸法
  6
CONTINUOUS
 10
20.517267
 20
-70.209613
 11
20.517267
 21
-75.709613
  0
POINT
  8
寸法
 10
20.517267
 20
-70.209613
  0
POINT
  8
寸法
 10
20.517267
 20
-75.709613
  0
TEXT
  7
TextStyle03
  8
寸法
  6
CONTINUOUS
 10
20.125
 20
-75.4125
  1
165
 40
3.0
 50
90.0
 72
     5
 11
20.125
 21
-70.5375
  0
ENDBLK
  0
BLOCK
  2
*DIM_0015
 70
    65
 10
0.0
 20
0.0
  0
LINE
  8
寸法
  6
CONTINUOUS
 10
12.21288
 20
-78.709613
 11
20.517267
 21
-78.709613
  0
LINE
  8
寸法
  6
CONTINUOUS
 10
20.517267
 20
-75.709613
 11
20.517267
 21
-78.709613
  0
POINT
  8
寸法
 10
20.517267
 20
-78.709613
  0
TEXT
  7
TextStyle03
  8
寸法
  6
CONTINUOUS
 10
20.125
 20
-78.725
  1
※
 40
3.0
 50
90.0
 72
     5
 11
20.125
 21
-75.725
  0
ENDBLK
  0
BLOCK
  2
*DIM_0016
 70
    65
 10
0.0
 20
0.0
  0
LINE
  8
寸法
  6
CONTINUOUS
 10
11.21288
 20
-75.376282
 11
11.21288
 21
-13.121378
  0
LINE
  8
寸法
  6
CONTINUOUS
 10
4.712865
 20
-13.121378
 11
11.21288
 21
-13.121378
  0
POINT
  8
寸法
 10
4.712865
 20
-13.121378
  0
POINT
  8
寸法
 10
11.21288
 20
-13.121378
  0
TEXT
  7
TextStyle03
  8
寸法
  6
CONTINUOUS
 10
6.45
 20
-12.75
  1
※
 40
3.0
 72
     5
 11
9.45
 21
-12.75
  0
ENDBLK
  0
BLOCK
  2
*DIM_0017
 70
    65
 10
0.0
 20
0.0
  0
LINE
  8
寸法
  6
CONTINUOUS
 10
-85.120482
 20
-75.376282
 11
-85.120482
 21
-13.121378
  0
LINE
  8
寸法
  6
CONTINUOUS
 10
-78.620467
 20
-13.121378
 11
-85.120482
 21
-13.121378
  0
POINT
  8
寸法
 10
-78.620467
 20
-13.121378
  0
POINT
  8
寸法
 10
-85.120482
 20
-13.121378
  0
TEXT
  7
TextStyle03
  8
寸法
  6
CONTINUOUS
 10
-83.375
 20
-12.75
  1
※
 40
3.0
 72
     5
 11
-80.375
 21
-12.75
  0
ENDBLK
  0
BLOCK
  2
*GRP_0018
 70
    65
 10
0.0
 20
0.0
  0
LINE
  8
型材断面
  6
DOT
 62
    47
 10
95.690508
 20
45.286867
 11
97.034037
 21
43.943338
  0
LINE
  8
型材断面
  6
DOT
 62
    47
 10
80.134137
 20
29.730495
 11
81.477667
 21
28.386965
  0
LINE
  8
型材断面
  6
DOT
 10
81.477667
 20
28.386965
 11
97.034037
 21
43.943338
  0
LINE
  8
別途部材
  6
DOT
 62
    96
 10
95.454795
 20
46.46537
 11
96.444745
 21
46.041105
  0
INSERT
  2
*GRP_0026
  8
別途部材
  6
DOT
 10
0.0
 20
0.0
  0
LINE
  8
別途部材
  6
DOT
 62
    96
 10
78.955635
 20
29.96621
 11
79.3799
 21
28.97626
  0
INSERT
  2
*GRP_0027
  8
別途部材
  6
DOT
 10
0.0
 20
0.0
  0
LINE
  8
別途部材
  6
DOT
 10
79.3799
 20
28.97626
 11
96.444745
 21
46.041105
  0
LINE
  8
別途部材
  6
DOT
 62
    96
 10
78.955635
 20
29.96621
 11
95.454795
 21
46.46537
  0
ARC
  8
別途部材
  6
DOT
 10
91.948723
 20
33.472281
 40
12.041667
 50
78.855026
 51
191.144974
  0
ENDBLK
  0
BLOCK
  2
*DIM_0019
 70
    65
 10
0.0
 20
0.0
  0
LINE
  8
寸法
  6
BYBLOCK
 62
     0
 10
88.912797
 20
33.814033
 11
88.912797
 21
60.666798
  0
LINE
  8
寸法
  6
BYBLOCK
 62
     0
 10
94.24613
 20
60.666798
 11
88.912797
 21
60.666798
  0
POINT
  8
寸法
 62
     0
 10
94.24613
 20
60.666798
  0
POINT
  8
寸法
 62
     0
 10
88.912797
 20
60.666798
  0
TEXT
  7
TextStyle03
  8
寸法
  6
CONTINUOUS
 62
     0
 10
89.1375
 20
61.0
  1
160
 40
3.0
 72
     5
 11
94.0125
 21
61.0
  0
ENDBLK
  0
BLOCK
  2
*DIM_0020
 70
    65
 10
0.0
 20
0.0
  0
LINE
  8
寸法
  6
CONTINUOUS
 10
94.24613
 20
45.480703
 11
94.24613
 21
60.666798
  0
LINE
  8
寸法
  6
CONTINUOUS
 10
99.74613
 20
44.814048
 11
99.74613
 21
60.666798
  0
LINE
  8
寸法
  6
CONTINUOUS
 10
94.24613
 20
60.666798
 11
99.74613
 21
60.666798
  0
POINT
  8
寸法
 10
94.24613
 20
60.666798
  0
POINT
  8
寸法
 10
99.74613
 20
60.666798
  0
TEXT
  7
TextStyle03
  8
寸法
  6
CONTINUOUS
 10
94.5375
 20
61.0
  1
165
 40
3.0
 72
     5
 11
99.4125
 21
61.0
  0
ENDBLK
  0
BLOCK
  2
*DIM_0021
 70
    65
 10
0.0
 20
0.0
  0
LINE
  8
寸法
  6
CONTINUOUS
 10
102.74613
 20
50.314048
 11
102.74613
 21
60.666798
  0
LINE
  8
寸法
  6
CONTINUOUS
 10
99.74613
 20
60.666798
 11
102.74613
 21
60.666798
  0
POINT
  8
寸法
 10
102.74613
 20
60.666798
  0
TEXT
  7
TextStyle03
  8
寸法
  6
CONTINUOUS
 10
99.725
 20
61.0
  1
※
 40
3.0
 72
     5
 11
102.725
 21
61.0
  0
ENDBLK
  0
BLOCK
  2
*DIM_0022
 70
    65
 10
0.0
 20
0.0
  0
LINE
  8
寸法
  6
CONTINUOUS
 10
64.31834
 20
22.814033
 11
64.31834
 21
42.814033
  0
POINT
  8
寸法
 10
64.31834
 20
22.814033
  0
POINT
  8
寸法
 10
64.31834
 20
42.814033
  0
TEXT
  7
TextStyle03
  8
寸法
  6
CONTINUOUS
 10
63.925
 20
30.3375
  1
600
 40
3.0
 50
90.0
 72
     5
 11
63.925
 21
35.2125
  0
ENDBLK
  0
BLOCK
  2
*GRP_0023
 70
    65
 10
0.0
 20
0.0
  0
LINE
  8
ボルト／ビス
  6
CONTINUOUS
 10
94.246133
 20
43.480703
 11
93.779465
 21
43.480703
  0
LINE
  8
ボルト／ビス
  6
CONTINUOUS
 10
94.246133
 20
43.84737
 11
94.179465
 21
43.84737
  0
LINE
  8
ボルト／ビス
  6
CONTINUOUS
 10
94.179465
 20
43.84737
 11
94.179465
 21
43.114035
  0
LINE
  8
ボルト／ビス
  6
CONTINUOUS
 10
94.179465
 20
43.114035
 11
94.246133
 21
43.114035
  0
LINE
  8
ボルト／ビス
  6
CONTINUOUS
 10
94.246133
 20
43.84737
 11
94.246133
 21
43.114035
  0
LINE
  8
ボルト／ビス
  6
CONTINUOUS
 10
94.146133
 20
43.780703
 11
94.179465
 21
43.780703
  0
LINE
  8
ボルト／ビス
  6
CONTINUOUS
 10
94.146133
 20
43.780703
 11
94.146133
 21
43.180703
  0
LINE
  8
ボルト／ビス
  6
CONTINUOUS
 10
94.146133
 20
43.180703
 11
94.179465
 21
43.180703
  0
LINE
  8
ボルト／ビス
  6
CONTINUOUS
 62
    64
 10
93.946133
 20
43.641078
 11
93.957807
 21
43.673152
  0
ARC
  8
ボルト／ビス
  6
CONTINUOUS
 62
    64
 10
94.051112
 20
43.625042
 40
0.104978
 50
180.0
 51
207.278033
  0
ARC
  8
ボルト／ビス
  6
CONTINUOUS
 62
    64
 10
94.348536
 20
43.480704
 40
0.402402
 50
166.165015
 51
193.834998
  0
LINE
  8
ボルト／ビス
  6
CONTINUOUS
 62
    64
 10
93.946133
 20
43.320327
 11
93.957807
 21
43.288253
  0
ARC
  8
ボルト／ビス
  6
CONTINUOUS
 62
    64
 10
94.051112
 20
43.336366
 40
0.104978
 50
152.721967
 51
180.0
  0
LINE
  8
ボルト／ビス
  6
CONTINUOUS
 62
    64
 10
93.946133
 20
43.641078
 11
93.946133
 21
43.320327
  0
LINE
  8
ボルト／ビス
  6
CONTINUOUS
 62
    64
 10
93.957807
 20
43.288253
 11
94.079465
 21
43.288253
  0
LINE
  8
ボルト／ビス
  6
CONTINUOUS
 62
    64
 10
93.957807
 20
43.384477
 11
94.079465
 21
43.384477
  0
LINE
  8
ボルト／ビス
  6
CONTINUOUS
 62
    64
 10
93.957807
 20
43.673152
 11
94.079465
 21
43.673152
  0
LINE
  8
ボルト／ビス
  6
CONTINUOUS
 62
    64
 10
93.957807
 20
43.576928
 11
94.079465
 21
43.576928
  0
LINE
  8
ボルト／ビス
  6
CONTINUOUS
 10
94.079465
 20
43.673152
 11
94.079465
 21
43.288253
  0
LINE
  8
ボルト／ビス
  6
CONTINUOUS
 10
94.079465
 20
43.680703
 11
94.146133
 21
43.680703
  0
LINE
  8
ボルト／ビス
  6
CONTINUOUS
 10
94.079465
 20
43.680703
 11
94.079465
 21
43.280703
  0
LINE
  8
ボルト／ビス
  6
CONTINUOUS
 10
94.079465
 20
43.280703
 11
94.146133
 21
43.280703
  0
ENDBLK
  0
BLOCK
  2
*GRP_0024
 70
    65
 10
0.0
 20
0.0
  0
LINE
  8
ボルト／ビス
  6
CONTINUOUS
 10
94.246133
 20
22.147365
 11
93.779465
 21
22.147365
  0
LINE
  8
ボルト／ビス
  6
CONTINUOUS
 10
94.246133
 20
21.780697
 11
94.179465
 21
21.780697
  0
LINE
  8
ボルト／ビス
  6
CONTINUOUS
 10
94.179465
 20
21.780697
 11
94.179465
 21
22.514033
  0
LINE
  8
ボルト／ビス
  6
CONTINUOUS
 10
94.179465
 20
22.514033
 11
94.246133
 21
22.514033
  0
LINE
  8
ボルト／ビス
  6
CONTINUOUS
 10
94.246133
 20
21.780697
 11
94.246133
 21
22.514033
  0
LINE
  8
ボルト／ビス
  6
CONTINUOUS
 10
94.146133
 20
21.847365
 11
94.179465
 21
21.847365
  0
LINE
  8
ボルト／ビス
  6
CONTINUOUS
 10
94.146133
 20
21.847365
 11
94.146133
 21
22.447365
  0
LINE
  8
ボルト／ビス
  6
CONTINUOUS
 10
94.146133
 20
22.447365
 11
94.179465
 21
22.447365
  0
LINE
  8
ボルト／ビス
  6
CONTINUOUS
 62
    64
 10
93.946133
 20
21.98699
 11
93.957807
 21
21.954915
  0
ARC
  8
ボルト／ビス
  6
CONTINUOUS
 62
    64
 10
94.051112
 20
22.003028
 40
0.104978
 50
152.721967
 51
180.0
  0
ARC
  8
ボルト／ビス
  6
CONTINUOUS
 62
    64
 10
94.348536
 20
22.147365
 40
0.402402
 50
166.165002
 51
193.834985
  0
LINE
  8
ボルト／ビス
  6
CONTINUOUS
 62
    64
 10
93.946133
 20
22.30774
 11
93.957807
 21
22.339815
  0
ARC
  8
ボルト／ビス
  6
CONTINUOUS
 62
    64
 10
94.051112
 20
22.291703
 40
0.104978
 50
180.0
 51
207.278033
  0
LINE
  8
ボルト／ビス
  6
CONTINUOUS
 62
    64
 10
93.946133
 20
21.98699
 11
93.946133
 21
22.30774
  0
LINE
  8
ボルト／ビス
  6
CONTINUOUS
 62
    64
 10
93.957807
 20
22.339815
 11
94.079465
 21
22.339815
  0
LINE
  8
ボルト／ビス
  6
CONTINUOUS
 62
    64
 10
93.957807
 20
22.24359
 11
94.079465
 21
22.24359
  0
LINE
  8
ボルト／ビス
  6
CONTINUOUS
 62
    64
 10
93.957807
 20
21.954915
 11
94.079465
 21
21.954915
  0
LINE
  8
ボルト／ビス
  6
CONTINUOUS
 62
    64
 10
93.957807
 20
22.05114
 11
94.079465
 21
22.05114
  0
LINE
  8
ボルト／ビス
  6
CONTINUOUS
 10
94.079465
 20
21.954915
 11
94.079465
 21
22.339815
  0
LINE
  8
ボルト／ビス
  6
CONTINUOUS
 10
94.079465
 20
21.947365
 11
94.146133
 21
21.947365
  0
LINE
  8
ボルト／ビス
  6
CONTINUOUS
 10
94.079465
 20
21.947365
 11
94.079465
 21
22.347365
  0
LINE
  8
ボルト／ビス
  6
CONTINUOUS
 10
94.079465
 20
22.347365
 11
94.146133
 21
22.347365
  0
ENDBLK
  0
BLOCK
  2
*GRP_0025
 70
    65
 10
0.0
 20
0.0
  0
INSERT
  2
*GRP_0028
  8
補助線
  6
CONTINUOUS
 10
0.0
 20
0.0
  0
CIRCLE
  8
別途部材
  6
CONTINUOUS
 10
97.24617
 20
44.014048
 40
0.2
  0
CIRCLE
  8
別途部材
  6
CONTINUOUS
 10
97.24617
 20
44.014048
 40
0.1
  0
LINE
  8
別途部材
  6
CONTINUOUS
 10
95.84617
 20
43.914048
 11
95.84617
 21
43.814048
  0
LINE
  8
別途部材
  6
CONTINUOUS
 10
97.24617
 20
43.814048
 11
95.84617
 21
43.814048
  0
LINE
  8
別途部材
  6
CONTINUOUS
 10
95.84617
 20
43.914048
 11
97.072965
 21
43.914048
  0
LINE
  8
別途部材
  6
CONTINUOUS
 10
98.64617
 20
43.914048
 11
98.64617
 21
43.814048
  0
LINE
  8
別途部材
  6
CONTINUOUS
 10
97.24617
 20
43.814048
 11
98.64617
 21
43.814048
  0
LINE
  8
別途部材
  6
CONTINUOUS
 10
98.64617
 20
43.914048
 11
97.419375
 21
43.914048
  0
LINE
  8
別途部材
  6
CONTINUOUS
 10
96.112835
 20
43.914048
 11
96.112835
 21
43.814048
  0
LINE
  8
別途部材
  6
CONTINUOUS
 10
96.3795
 20
43.914048
 11
96.3795
 21
43.814048
  0
LINE
  8
別途部材
  6
CONTINUOUS
 10
96.64617
 20
43.914048
 11
96.64617
 21
43.814048
  0
LINE
  8
別途部材
  6
CONTINUOUS
 10
98.3795
 20
43.914048
 11
98.3795
 21
43.814048
  0
LINE
  8
別途部材
  6
CONTINUOUS
 10
98.112835
 20
43.914048
 11
98.112835
 21
43.814048
  0
LINE
  8
別途部材
  6
CONTINUOUS
 10
97.84617
 20
43.914048
 11
97.84617
 21
43.814048
  0
ENDBLK
  0
BLOCK
  2
*GRP_0026
 70
    65
 10
0.0
 20
0.0
  0
LINE
  8
ボルト／ビス
  6
DOT
 10
94.74769
 20
45.758262
 11
94.417707
 21
46.088245
  0
LINE
  8
ボルト／ビス
  6
DOT
 10
95.006965
 20
46.017535
 11
94.959822
 21
46.064677
  0
LINE
  8
ボルト／ビス
  6
DOT
 10
94.959822
 20
46.064677
 11
94.441278
 21
45.54613
  0
LINE
  8
ボルト／ビス
  6
DOT
 10
94.441278
 20
45.54613
 11
94.48842
 21
45.49899
  0
LINE
  8
ボルト／ビス
  6
DOT
 10
95.006965
 20
46.017535
 11
94.48842
 21
45.49899
  0
LINE
  8
ボルト／ビス
  6
DOT
 10
94.889113
 20
46.041105
 11
94.91268
 21
46.017535
  0
LINE
  8
ボルト／ビス
  6
DOT
 10
94.889113
 20
46.041105
 11
94.464847
 21
45.61684
  0
LINE
  8
ボルト／ビス
  6
DOT
 10
94.464847
 20
45.61684
 11
94.488417
 21
45.59327
  0
LINE
  8
ボルト／ビス
  6
DOT
 62
    64
 10
94.64896
 20
46.083795
 11
94.679897
 21
46.09822
  0
ARC
  8
ボルト／ビス
  6
DOT
 62
    64
 10
94.711854
 20
45.998225
 40
0.104978
 50
135.0
 51
162.278033
  0
ARC
  8
ボルト／ビス
  6
DOT
 62
    64
 10
94.820103
 20
45.685853
 40
0.402402
 50
121.165015
 51
148.834998
  0
LINE
  8
ボルト／ビス
  6
DOT
 62
    64
 10
94.422157
 20
45.856992
 11
94.407733
 21
45.826055
  0
ARC
  8
ボルト／ビス
  6
DOT
 62
    64
 10
94.50773
 20
45.794101
 40
0.104978
 50
107.721967
 51
135.0
  0
LINE
  8
ボルト／ビス
  6
DOT
 62
    64
 10
94.64896
 20
46.083795
 11
94.422157
 21
45.856992
  0
LINE
  8
ボルト／ビス
  6
DOT
 62
    64
 10
94.407733
 20
45.826055
 11
94.493755
 21
45.74003
  0
LINE
  8
ボルト／ビス
  6
DOT
 62
    64
 10
94.475772
 20
45.894097
 11
94.561797
 21
45.808072
  0
LINE
  8
ボルト／ビス
  6
DOT
 62
    64
 10
94.679897
 20
46.09822
 11
94.76592
 21
46.012197
  0
LINE
  8
ボルト／ビス
  6
DOT
 62
    64
 10
94.611855
 20
46.03018
 11
94.69788
 21
45.944155
  0
LINE
  8
ボルト／ビス
  6
DOT
 10
94.76592
 20
46.012197
 11
94.493755
 21
45.74003
  0
LINE
  8
ボルト／ビス
  6
DOT
 10
94.77126
 20
46.017535
 11
94.818403
 21
45.970395
  0
LINE
  8
ボルト／ビス
  6
DOT
 10
94.77126
 20
46.017535
 11
94.488417
 21
45.734692
  0
LINE
  8
ボルト／ビス
  6
DOT
 10
94.488417
 20
45.734692
 11
94.53556
 21
45.68755
  0
ENDBLK
  0
BLOCK
  2
*GRP_0027
 70
    65
 10
0.0
 20
0.0
  0
LINE
  8
ボルト／ビス
  6
DOT
 10
79.662745
 20
30.673315
 11
79.33276
 21
31.0033
  0
LINE
  8
ボルト／ビス
  6
DOT
 10
79.40347
 20
30.41404
 11
79.35633
 21
30.461182
  0
LINE
  8
ボルト／ビス
  6
DOT
 10
79.35633
 20
30.461182
 11
79.874875
 21
30.97973
  0
LINE
  8
ボルト／ビス
  6
DOT
 10
79.874875
 20
30.97973
 11
79.922015
 21
30.932588
  0
LINE
  8
ボルト／ビス
  6
DOT
 10
79.40347
 20
30.41404
 11
79.922015
 21
30.932588
  0
LINE
  8
ボルト／ビス
  6
DOT
 10
79.3799
 20
30.531895
 11
79.40347
 21
30.508325
  0
LINE
  8
ボルト／ビス
  6
DOT
 10
79.3799
 20
30.531895
 11
79.804165
 21
30.956157
  0
LINE
  8
ボルト／ビス
  6
DOT
 10
79.804165
 20
30.956157
 11
79.827735
 21
30.93259
  0
LINE
  8
ボルト／ビス
  6
DOT
 62
    64
 10
79.33721
 20
30.772045
 11
79.322785
 21
30.74111
  0
ARC
  8
ボルト／ビス
  6
DOT
 62
    64
 10
79.422782
 20
30.709152
 40
0.104978
 50
107.721967
 51
135.0
  0
ARC
  8
ボルト／ビス
  6
DOT
 62
    64
 10
79.735154
 20
30.600904
 40
0.402402
 50
121.165002
 51
148.834985
  0
LINE
  8
ボルト／ビス
  6
DOT
 62
    64
 10
79.564015
 20
30.99885
 11
79.59495
 21
31.013275
  0
ARC
  8
ボルト／ビス
  6
DOT
 62
    64
 10
79.626906
 20
30.913277
 40
0.104978
 50
135.0
 51
162.278033
  0
LINE
  8
ボルト／ビス
  6
DOT
 62
    64
 10
79.33721
 20
30.772045
 11
79.564015
 21
30.99885
  0
LINE
  8
ボルト／ビス
  6
DOT
 62
    64
 10
79.59495
 20
31.013275
 11
79.680975
 21
30.92725
  0
LINE
  8
ボルト／ビス
  6
DOT
 62
    64
 10
79.52691
 20
30.945233
 11
79.612932
 21
30.85921
  0
LINE
  8
ボルト／ビス
  6
DOT
 62
    64
 10
79.322785
 20
30.74111
 11
79.40881
 21
30.655085
  0
LINE
  8
ボルト／ビス
  6
DOT
 62
    64
 10
79.390825
 20
30.80915
 11
79.47685
 21
30.723125
  0
LINE
  8
ボルト／ビス
  6
DOT
 10
79.40881
 20
30.655085
 11
79.680975
 21
30.92725
  0
LINE
  8
ボルト／ビス
  6
DOT
 10
79.40347
 20
30.649745
 11
79.450612
 21
30.602605
  0
LINE
  8
ボルト／ビス
  6
DOT
 10
79.40347
 20
30.649745
 11
79.686312
 21
30.93259
  0
LINE
  8
ボルト／ビス
  6
DOT
 10
79.686312
 20
30.93259
 11
79.733455
 21
30.885448
  0
ENDBLK
  0
BLOCK
  2
*GRP_0028
 70
    65
 10
0.0
 20
0.0
  0
LINE
  8
補助線
  6
BYBLOCK
 62
     0
 10
97.24617
 20
43.84738
 11
97.24617
 21
44.180715
  0
LINE
  8
補助線
  6
BYBLOCK
 62
     0
 10
97.0795
 20
44.014048
 11
97.412835
 21
44.014048
  0
ENDBLK
  0
BLOCK
  2
*DIM_0029
 70
    65
 10
0.0
 20
0.0
  0
LINE
  8
寸法
  6
CONTINUOUS
 10
99.4128
 20
49.314048
 11
64.31834
 21
49.314048
  0
LINE
  8
寸法
  6
CONTINUOUS
 10
64.31834
 20
42.814033
 11
64.31834
 21
49.314048
  0
POINT
  8
寸法
 10
64.31834
 20
42.814033
  0
POINT
  8
寸法
 10
64.31834
 20
49.314048
  0
TEXT
  7
TextStyle03
  8
寸法
  6
CONTINUOUS
 10
63.925
 20
44.55
  1
※
 40
3.0
 50
90.0
 72
     5
 11
63.925
 21
47.55
  0
ENDBLK
  0
BLOCK
  2
*DIM_0030
 70
    65
 10
0.0
 20
0.0
  0
LINE
  8
寸法
  6
CONTINUOUS
 10
99.4128
 20
16.314018
 11
64.31834
 21
16.314018
  0
LINE
  8
寸法
  6
CONTINUOUS
 10
64.31834
 20
22.814033
 11
64.31834
 21
16.314018
  0
POINT
  8
寸法
 10
64.31834
 20
22.814033
  0
POINT
  8
寸法
 10
64.31834
 20
16.314018
  0
TEXT
  7
TextStyle03
  8
寸法
  6
CONTINUOUS
 10
63.925
 20
18.05
  1
※
 40
3.0
 50
90.0
 72
     5
 11
63.925
 21
21.05
  0
ENDBLK
  0
BLOCK
  2
*DIM_0031
 70
    65
 10
0.0
 20
0.0
  0
LINE
  8
寸法
  6
CONTINUOUS
 10
115.744333
 20
-50.665427
 11
124.72004
 21
-50.665427
  0
LINE
  8
寸法
  6
CONTINUOUS
 10
115.744333
 20
-70.665427
 11
124.72004
 21
-70.665427
  0
LINE
  8
寸法
  6
CONTINUOUS
 10
124.72004
 20
-50.665427
 11
124.72004
 21
-70.665427
  0
POINT
  8
寸法
 10
124.72004
 20
-50.665427
  0
POINT
  8
寸法
 10
124.72004
 20
-70.665427
  0
TEXT
  7
TextStyle03
  8
寸法
  6
CONTINUOUS
 10
124.325
 20
-63.1375
  1
600
 40
3.0
 50
90.0
 72
     5
 11
124.325
 21
-58.2625
  0
ENDBLK
  0
BLOCK
  2
*DIM_0032
 70
    65
 10
0.0
 20
0.0
  0
LINE
  8
寸法
  6
CONTINUOUS
 10
73.827667
 20
-49.665427
 11
73.827667
 21
-40.177023
  0
LINE
  8
寸法
  6
CONTINUOUS
 10
114.744333
 20
-49.665427
 11
114.744333
 21
-40.177023
  0
LINE
  8
寸法
  6
CONTINUOUS
 10
73.827667
 20
-40.177023
 11
114.744333
 21
-40.177023
  0
POINT
  8
寸法
 10
73.827667
 20
-40.177023
  0
POINT
  8
寸法
 10
114.744333
 20
-40.177023
  0
TEXT
  7
TextStyle03
  8
寸法
  6
CONTINUOUS
 10
89.30625
 20
-39.825
  1
1227.5
 40
3.0
 72
     5
 11
99.24375
 21
-39.825
  0
ENDBLK
  0
ENDSEC
  0
SECTION
  2
ENTITIES
  0
POLYLINE
  8
通り芯
  6
CONTINUOUS
 66
     1
 70
     1
  0
VERTEX
  8
通り芯
 10
-210.0
 20
-148.5
  0
VERTEX
  8
通り芯
 10
210.0
 20
-148.5
  0
VERTEX
  8
通り芯
 10
210.0
 20
148.5
  0
VERTEX
  8
通り芯
 10
-210.0
 20
148.5
  0
SEQEND
  0
INSERT
  2
*GRP_0001
  8
型材断面
  6
CONTINUOUS
 10
0.0
 20
0.0
  0
LINE
  8
型材断面
  6
DASHDOT
 10
4.712865
 20
-77.836442
 11
4.712865
 21
42.814033
  0
LINE
  8
型材断面
  6
DASHDOT
 10
-36.953802
 20
-77.836442
 11
-36.953802
 21
42.814033
  0
LINE
  8
型材断面
  6
DASHDOT
 10
-78.620467
 20
-77.836442
 11
-78.620467
 21
42.814033
  0
LINE
  8
型材断面
  6
DASHDOT
 10
102.389627
 20
42.814033
 11
-78.620467
 21
42.814033
  0
LINE
  8
型材断面
  6
DASHDOT
 10
102.389627
 20
32.814033
 11
-78.620467
 21
32.814033
  0
LINE
  8
型材断面
  6
DASHDOT
 10
102.389627
 20
22.814033
 11
-78.620467
 21
22.814033
  0
LINE
  8
型材断面
  6
CONTINUOUS
 10
-61.9538
 20
45.444162
 11
-63.44943
 21
48.03467
  0
LINE
  8
型材断面
  6
CONTINUOUS
 10
-61.9538
 20
45.444162
 11
-60.45817
 21
48.03467
  0
LINE
  8
型材断面
  6
CONTINUOUS
 10
-60.45817
 20
48.03467
 11
-63.44943
 21
48.03467
  0
LINE
  8
型材断面
  6
CONTINUOUS
 10
-119.472675
 20
80.791505
 11
-118.87662
 21
78.200998
  0
LINE
  8
型材断面
  6
CONTINUOUS
 10
-119.472675
 20
80.791505
 11
-120.068732
 21
78.200998
  0
LINE
  8
型材断面
  6
CONTINUOUS
 10
-120.068732
 20
78.200998
 11
-118.87662
 21
78.200998
  0
LINE
  8
型材断面
  6
CONTINUOUS
 10
-125.495263
 20
74.922105
 11
-79.253485
 21
74.922105
  0
LINE
  8
型材断面
  6
CONTINUOUS
 10
-119.472675
 20
87.32138
 11
-120.968305
 21
84.730873
  0
LINE
  8
型材断面
  6
CONTINUOUS
 10
-119.472675
 20
87.32138
 11
-117.977045
 21
84.730873
  0
LINE
  8
型材断面
  6
CONTINUOUS
 10
-117.977045
 20
84.730873
 11
-120.968305
 21
84.730873
  0
LINE
  8
型材断面
  6
CONTINUOUS
 10
-125.495263
 20
83.792277
 11
-79.253485
 21
83.792277
  0
LINE
  8
型材断面
  6
CONTINUOUS
 10
-125.495263
 20
69.134073
 11
-79.253485
 21
69.134073
  0
LINE
  8
型材断面
  6
CONTINUOUS
 10
-81.250597
 20
32.814033
 11
-83.841105
 21
34.309663
  0
LINE
  8
型材断面
  6
CONTINUOUS
 10
-81.250597
 20
32.814033
 11
-83.841105
 21
31.318403
  0
LINE
  8
型材断面
  6
CONTINUOUS
 10
-83.841105
 20
31.318403
 11
-83.841105
 21
34.309663
  0
LINE
  8
型材断面
  6
CONTINUOUS
 10
-61.9538
 20
20.183902
 11
-63.44943
 21
17.593395
  0
LINE
  8
型材断面
  6
CONTINUOUS
 10
-61.9538
 20
20.183902
 11
-60.45817
 21
17.593395
  0
LINE
  8
型材断面
  6
CONTINUOUS
 10
-60.45817
 20
17.593395
 11
-63.44943
 21
17.593395
  0
LINE
  8
型材断面
  6
CONTINUOUS
 10
-11.953805
 20
45.444162
 11
-10.458175
 21
48.03467
  0
LINE
  8
型材断面
  6
CONTINUOUS
 10
-11.953805
 20
45.444162
 11
-13.449435
 21
48.03467
  0
LINE
  8
型材断面
  6
CONTINUOUS
 10
-13.449435
 20
48.03467
 11
-10.458175
 21
48.03467
  0
LINE
  8
型材断面
  6
CONTINUOUS
 10
7.342993
 20
32.814033
 11
9.9335
 21
34.309663
  0
LINE
  8
型材断面
  6
CONTINUOUS
 10
7.342993
 20
32.814033
 11
9.9335
 21
31.318403
  0
LINE
  8
型材断面
  6
CONTINUOUS
 10
9.9335
 20
31.318403
 11
9.9335
 21
34.309663
  0
LINE
  8
型材断面
  6
CONTINUOUS
 10
-11.953805
 20
20.183902
 11
-10.458175
 21
17.593395
  0
LINE
  8
型材断面
  6
CONTINUOUS
 10
-11.953805
 20
20.183902
 11
-13.449435
 21
17.593395
  0
LINE
  8
型材断面
  6
CONTINUOUS
 10
-13.449435
 20
17.593395
 11
-10.458175
 21
17.593395
  0
LINE
  8
型材断面
  6
CONTINUOUS
 10
2.712865
 20
20.20722
 11
2.116807
 21
17.616715
  0
LINE
  8
型材断面
  6
CONTINUOUS
 10
2.712865
 20
20.20722
 11
3.308922
 21
17.616715
  0
LINE
  8
型材断面
  6
CONTINUOUS
 10
3.308922
 20
17.616715
 11
2.116807
 21
17.616715
  0
LINE
  8
型材断面
  6
CONTINUOUS
 10
-76.62047
 20
20.20722
 11
-76.024413
 21
17.616715
  0
LINE
  8
型材断面
  6
CONTINUOUS
 10
-76.62047
 20
20.20722
 11
-77.216528
 21
17.616715
  0
LINE
  8
型材断面
  6
CONTINUOUS
 10
-77.216528
 20
17.616715
 11
-76.024413
 21
17.616715
  0
LINE
  8
型材断面
  6
CONTINUOUS
 10
-80.687137
 20
44.880703
 11
-85.120482
 21
49.314048
  0
LINE
  8
型材断面
  6
CONTINUOUS
 10
-85.120482
 20
16.314018
 11
-80.687137
 21
20.747363
  0
LINE
  8
型材断面
  6
CONTINUOUS
 10
-85.120482
 20
16.314018
 11
-85.120482
 21
49.314048
  0
LINE
  8
型材断面
  6
CONTINUOUS
 10
6.779535
 20
44.880703
 11
11.21288
 21
49.314048
  0
LINE
  8
型材断面
  6
CONTINUOUS
 10
6.779535
 20
20.747363
 11
11.21288
 21
16.314018
  0
LINE
  8
型材断面
  6
CONTINUOUS
 10
11.21288
 20
49.314048
 11
11.21288
 21
16.314018
  0
LINE
  8
型材断面
  6
CONTINUOUS
 10
11.21288
 20
49.314048
 11
-85.120482
 21
49.314048
  0
LINE
  8
型材断面
  6
CONTINUOUS
 10
11.21288
 20
16.314018
 11
-85.120482
 21
16.314018
  0
POLYLINE
  8
型材断面
  6
DASHDOT
 66
     1
  0
VERTEX
  8
型材断面
 10
-78.620467
 20
22.814033
  0
VERTEX
  8
型材断面
 10
-36.9538
 20
42.814033
  0
VERTEX
  8
型材断面
 10
4.712865
 20
22.814033
  0
SEQEND
  0
LINE
  8
型材断面
  6
DOT
 10
-38.120467
 20
42.814033
 11
-38.120467
 21
22.814033
  0
LINE
  8
型材断面
  6
DOT
 10
-35.787133
 20
42.814033
 11
-35.787133
 21
22.814033
  0
LINE
  8
型材断面
  6
DASHDOT
 10
-36.9538
 20
42.814033
 11
-36.9538
 21
22.814033
  0
LINE
  8
型材断面
  6
CONTINUOUS
 62
    47
 10
-79.620482
 20
-71.209613
 11
-79.620482
 21
-73.109652
  0
LINE
  8
型材断面
  6
CONTINUOUS
 10
-79.620482
 20
-73.309652
 11
-79.620482
 21
-75.709613
  0
LINE
  8
型材断面
  6
CONTINUOUS
 10
-79.620482
 20
-75.709613
 11
-85.120482
 21
-76.376282
  0
LINE
  8
型材断面
  6
CONTINUOUS
 10
-85.120482
 20
-78.709613
 11
-85.120482
 21
-76.376282
  0
LINE
  8
型材断面
  6
CONTINUOUS
 62
    47
 10
5.71288
 20
-71.209613
 11
5.71288
 21
-73.109652
  0
LINE
  8
型材断面
  6
CONTINUOUS
 10
5.71288
 20
-73.309652
 11
5.71288
 21
-75.709613
  0
LINE
  8
型材断面
  6
CONTINUOUS
 10
5.71288
 20
-75.709613
 11
11.21288
 21
-76.376282
  0
LINE
  8
型材断面
  6
CONTINUOUS
 10
11.21288
 20
-78.709613
 11
11.21288
 21
-76.376282
  0
LINE
  8
型材断面
  6
CONTINUOUS
 10
-85.120482
 20
-78.709613
 11
11.21288
 21
-78.709613
  0
LINE
  8
型材断面
  6
CONTINUOUS
 10
-85.120482
 20
-76.376282
 11
11.21288
 21
-76.376282
  0
LINE
  8
型材断面
  6
CONTINUOUS
 10
5.71288
 20
-73.109652
 11
-79.620482
 21
-73.109652
  0
LINE
  8
型材断面
  6
CONTINUOUS
 10
5.71288
 20
-73.309652
 11
-79.620482
 21
-73.309652
  0
LINE
  8
型材断面
  6
CONTINUOUS
 10
5.71288
 20
-75.709613
 11
-79.620482
 21
-75.709613
  0
LINE
  8
型材断面
  6
CONTINUOUS
 62
    47
 10
95.24613
 20
43.814048
 11
97.14617
 21
43.814048
  0
LINE
  8
型材断面
  6
CONTINUOUS
 10
97.34617
 20
43.814048
 11
99.74613
 21
43.814048
  0
LINE
  8
型材断面
  6
CONTINUOUS
 10
99.74613
 20
43.814048
 11
100.4128
 21
49.314048
  0
LINE
  8
型材断面
  6
CONTINUOUS
 10
102.74613
 20
49.314048
 11
100.4128
 21
49.314048
  0
LINE
  8
型材断面
  6
CONTINUOUS
 62
    47
 10
95.24613
 20
21.814018
 11
97.14617
 21
21.814018
  0
LINE
  8
型材断面
  6
CONTINUOUS
 10
97.34617
 20
21.814018
 11
99.74613
 21
21.814018
  0
LINE
  8
型材断面
  6
CONTINUOUS
 10
99.74613
 20
21.814018
 11
100.4128
 21
16.314018
  0
LINE
  8
型材断面
  6
CONTINUOUS
 10
102.74613
 20
16.314018
 11
100.4128
 21
16.314018
  0
LINE
  8
型材断面
  6
CONTINUOUS
 10
102.74613
 20
49.314048
 11
102.74613
 21
16.314018
  0
LINE
  8
型材断面
  6
CONTINUOUS
 10
100.4128
 20
49.314048
 11
100.4128
 21
16.314018
  0
LINE
  8
型材断面
  6
CONTINUOUS
 10
97.14617
 20
21.814018
 11
97.14617
 21
43.814048
  0
LINE
  8
型材断面
  6
CONTINUOUS
 10
97.34617
 20
21.814018
 11
97.34617
 21
43.814048
  0
LINE
  8
型材断面
  6
CONTINUOUS
 10
99.74613
 20
21.814018
 11
99.74613
 21
43.814048
  0
INSERT
  2
*GRP_0018
  8
型材断面
  6
DASHDOT
 10
0.0
 20
0.0
  0
ARC
  8
型材断面
  6
DASHDOT
 10
97.246169
 20
44.014047
 40
23.06264
 50
217.525659
 51
262.525659
  0
LINE
  8
ガラス
  6
CONTINUOUS
 10
114.744333
 20
-50.665427
 11
114.744333
 21
-70.665427
  0
LINE
  8
ガラス
  6
CONTINUOUS
 10
114.744333
 20
-50.665427
 11
73.827667
 21
-50.665427
  0
LINE
  8
ガラス
  6
CONTINUOUS
 10
73.827667
 20
-50.665427
 11
73.827667
 21
-70.665427
  0
LINE
  8
ガラス
  6
CONTINUOUS
 10
73.827667
 20
-70.665427
 11
114.744333
 21
-70.665427
  0
TEXT
  7
TextStyle03
  8
文字
  6
CONTINUOUS
 10
-116.675
 20
84.95
  1
は排水穴位置を示す
 40
3.0
 72
     5
 11
-86.675
 21
84.95
  0
TEXT
  7
TextStyle03
  8
文字
  6
CONTINUOUS
 10
-116.675
 20
79.425
  1
はケーシング位置を示す
 40
3.0
 72
     5
 11
-79.925
 21
79.425
  0
TEXT
  7
TextStyle03
  8
文字
  6
CONTINUOUS
 10
-116.675
 20
76.05
  1
２ヶ所中1ヶ所に設定
 40
3.0
 72
     5
 11
-84.9875
 21
76.05
  0
TEXT
  7
TextStyle03
  8
文字
  6
CONTINUOUS
 10
-99.7
 20
11.275
  1
アンカーピッチ
 40
3.0
 50
90.0
 72
     5
 11
-99.7
 21
34.525
  0
TEXT
  7
TextStyle03
  8
文字
  6
CONTINUOUS
 10
-72.0
 20
80.825
  1
アンカーピッチ
 40
3.0
 72
     5
 11
-48.75
 21
80.825
  0
TEXT
  7
TextStyle03
  8
文字
  6
CONTINUOUS
 10
-120.4
 20
70.075
  1
アンカー数量　１２ヶ所
 40
3.0
 72
     5
 11
-83.65
 21
70.075
  0
TEXT
  7
TextStyle03
  8
文字
  6
CONTINUOUS
 10
78.1
 20
125.25
  1
シリーズ：ＳＴＤＨＬ
 40
5.0
 72
     5
 11
133.725
 21
125.25
  0
TEXT
  7
TextStyle03
  8
文字
  6
CONTINUOUS
 10
78.1
 20
119.625
  1
　　　　　（片側開閉）600×2500タイプ
 40
5.0
 72
     5
 11
181.5375
 21
119.625
  0
TEXT
  7
TextStyle03
  8
文字
  6
CONTINUOUS
 10
78.1
 20
114.0
  1
図面名　：外観姿図
 40
5.0
 72
     5
 11
128.1
 21
114.0
  0
TEXT
  7
TextStyle03
  8
文字
  6
CONTINUOUS
 10
78.1
 20
108.375
  1
　　　　　　
 40
5.0
 72
     5
 11
111.225
 21
108.375
  0
TEXT
  7
TextStyle03
  8
文字
  6
CONTINUOUS
 10
77.425
 20
103.975
  1
ＮＳコード：ＮＳＨＳＬ
 40
5.0
 72
     5
 11
138.675
 21
103.975
  0
TEXT
  7
TextStyle03
  8
文字
  6
CONTINUOUS
 10
-3.25
 20
-87.4
  1
※は物件対応寸法
 40
3.0
 72
     5
 11
23.375
 21
-87.4
  0
TEXT
  7
TextStyle03
  8
文字
  6
CONTINUOUS
 10
85.975
 20
17.575
  1
45°
 40
3.0
 50
90.0
 72
     5
 11
85.975
 21
23.95
  0
TEXT
  7
TextStyle03
  8
文字
  6
CONTINUOUS
 10
95.9
 20
-63.675
  1
網入り6.8t
 40
3.0
 72
     5
 11
112.5875
 21
-63.675
  0
TEXT
  7
TextStyle03
  8
文字
  6
CONTINUOUS
 10
102.575
 20
-68.35
  1
×２枚
 40
3.0
 72
     5
 11
112.325
 21
-68.35
  0
INSERT
  2
*DIM_0002
  8
寸法
  6
CONTINUOUS
 10
0.0
 20
0.0
  0
INSERT
  2
*DIM_0003
  8
寸法
  6
CONTINUOUS
 10
0.0
 20
0.0
  0
INSERT
  2
*DIM_0004
  8
寸法
  6
CONTINUOUS
 10
0.0
 20
0.0
  0
INSERT
  2
*DIM_0005
  8
寸法
  6
CONTINUOUS
 10
0.0
 20
0.0
  0
INSERT
  2
*DIM_0006
  8
寸法
  6
CONTINUOUS
 10
0.0
 20
0.0
  0
INSERT
  2
*DIM_0007
  8
寸法
  6
CONTINUOUS
 10
0.0
 20
0.0
  0
INSERT
  2
*DIM_0008
  8
寸法
  6
CONTINUOUS
 10
0.0
 20
0.0
  0
INSERT
  2
*DIM_0009
  8
寸法
  6
CONTINUOUS
 10
0.0
 20
0.0
  0
INSERT
  2
*DIM_0013
  8
寸法
  6
CONTINUOUS
 10
0.0
 20
0.0
  0
INSERT
  2
*DIM_0014
  8
寸法
  6
CONTINUOUS
 10
0.0
 20
0.0
  0
INSERT
  2
*DIM_0015
  8
寸法
  6
CONTINUOUS
 10
0.0
 20
0.0
  0
INSERT
  2
*DIM_0016
  8
寸法
  6
CONTINUOUS
 10
0.0
 20
0.0
  0
INSERT
  2
*DIM_0017
  8
寸法
  6
CONTINUOUS
 10
0.0
 20
0.0
  0
INSERT
  2
*DIM_0019
  8
寸法
  6
CONTINUOUS
 10
0.0
 20
0.0
  0
INSERT
  2
*DIM_0020
  8
寸法
  6
CONTINUOUS
 10
0.0
 20
0.0
  0
INSERT
  2
*DIM_0021
  8
寸法
  6
CONTINUOUS
 10
0.0
 20
0.0
  0
INSERT
  2
*DIM_0022
  8
寸法
  6
CONTINUOUS
 10
0.0
 20
0.0
  0
INSERT
  2
*DIM_0029
  8
寸法
  6
CONTINUOUS
 10
0.0
 20
0.0
  0
INSERT
  2
*DIM_0030
  8
寸法
  6
CONTINUOUS
 10
0.0
 20
0.0
  0
INSERT
  2
*DIM_0031
  8
寸法
  6
CONTINUOUS
 10
0.0
 20
0.0
  0
INSERT
  2
*DIM_0032
  8
寸法
  6
CONTINUOUS
 10
0.0
 20
0.0
  0
INSERT
  2
*GRP_0010
  8
別途部材
  6
CONTINUOUS
 10
0.0
 20
0.0
  0
INSERT
  2
*GRP_0011
  8
別途部材
  6
DOT
 10
0.0
 20
0.0
  0
INSERT
  2
*GRP_0012
  8
別途部材
  6
DOT
 10
0.0
 20
0.0
  0
LINE
  8
別途部材
  6
CONTINUOUS
 10
-80.687137
 20
44.880703
 11
-78.620467
 21
42.814033
  0
LINE
  8
別途部材
  6
CONTINUOUS
 10
-80.687137
 20
20.747363
 11
-78.620467
 21
22.814033
  0
LINE
  8
別途部材
  6
CONTINUOUS
 10
-78.620467
 20
42.814033
 11
-78.620467
 21
22.814033
  0
LINE
  8
別途部材
  6
CONTINUOUS
 10
-80.287137
 20
44.480703
 11
-80.287137
 21
21.147363
  0
LINE
  8
別途部材
  6
CONTINUOUS
 10
-80.687137
 20
44.880703
 11
-80.687137
 21
20.747363
  0
LINE
  8
別途部材
  6
CONTINUOUS
 10
-78.620467
 20
22.814033
 11
-74.712872
 21
26.721628
  0
LINE
  8
別途部材
  6
CONTINUOUS
 10
-78.620467
 20
42.814033
 11
-74.712872
 21
38.906437
  0
LINE
  8
別途部材
  6
CONTINUOUS
 10
4.712865
 20
42.814033
 11
6.779535
 21
44.880703
  0
LINE
  8
別途部材
  6
CONTINUOUS
 10
4.712865
 20
22.814033
 11
6.779535
 21
20.747363
  0
LINE
  8
別途部材
  6
CONTINUOUS
 10
4.712865
 20
42.814033
 11
4.712865
 21
22.814033
  0
LINE
  8
別途部材
  6
CONTINUOUS
 10
6.379535
 20
44.480703
 11
6.379535
 21
21.147363
  0
LINE
  8
別途部材
  6
CONTINUOUS
 10
6.779535
 20
44.880703
 11
6.779535
 21
20.747363
  0
LINE
  8
別途部材
  6
CONTINUOUS
 10
4.712865
 20
22.814033
 11
0.80527
 21
26.721628
  0
LINE
  8
別途部材
  6
CONTINUOUS
 10
4.712865
 20
42.814033
 11
0.80527
 21
38.906437
  0
LINE
  8
別途部材
  6
CONTINUOUS
 10
-78.620467
 20
42.814033
 11
4.712865
 21
42.814033
  0
LINE
  8
別途部材
  6
CONTINUOUS
 10
-80.287137
 20
44.480703
 11
6.379535
 21
44.480703
  0
LINE
  8
別途部材
  6
CONTINUOUS
 10
-80.687137
 20
44.880703
 11
6.779535
 21
44.880703
  0
LINE
  8
別途部材
  6
CONTINUOUS
 10
4.712865
 20
22.814033
 11
-78.620467
 21
22.814033
  0
LINE
  8
別途部材
  6
CONTINUOUS
 10
6.379535
 20
21.147363
 11
-80.287137
 21
21.147363
  0
LINE
  8
別途部材
  6
CONTINUOUS
 10
6.779535
 20
20.747363
 11
-80.687137
 21
20.747363
  0
LINE
  8
別途部材
  6
CONTINUOUS
 62
    96
 10
94.24613
 20
44.480703
 11
95.24613
 21
44.880703
  0
INSERT
  2
*GRP_0023
  8
別途部材
  6
DOT
 10
0.0
 20
0.0
  0
LINE
  8
別途部材
  6
CONTINUOUS
 62
    96
 10
94.24613
 20
21.147365
 11
95.24613
 21
20.747365
  0
INSERT
  2
*GRP_0024
  8
別途部材
  6
DOT
 10
0.0
 20
0.0
  0
LINE
  8
別途部材
  6
CONTINUOUS
 10
95.24613
 20
20.747365
 11
95.24613
 21
44.880703
  0
LINE
  8
別途部材
  6
CONTINUOUS
 62
    96
 10
94.24613
 20
21.147365
 11
94.24613
 21
44.480703
  0
ARC
  8
別途部材
  6
CONTINUOUS
 10
100.954463
 20
32.814032
 40
12.041667
 50
123.855026
 51
236.144974
  0
INSERT
  2
*GRP_0025
  8
別途部材
  6
CONTINUOUS
 10
0.0
 20
0.0
  0
ENDSEC
  0
EOF
