  0
SECTION
  2
HEADER
  9
$EXTMIN
 10
-210.0
 20
-148.5
  9
$EXTMAX
 10
210.0
 20
148.5
  9
$PDMODE
 70
    32
  9
$PDSIZE
 40
1.5
  9
$LTSCALE
 40
10.0
  0
ENDSEC
  0
SECTION
  2
TABLES
  0
TABLE
  2
LTYPE
 70
    15
  0
LTYPE
  2
CONTINUOUS
 70
    64
  3
実線
 72
    65
 73
     0
 40
0.0
  0
LTYPE
  2
DASHED
 70
    64
  3
破線A
 72
    65
 73
     2
 40
0.6
 49
0.4
 49
-0.2
  0
LTYPE
  2
DASHEDX2
 70
    64
  3
破線B
 72
    65
 73
     2
 40
1.3
 49
0.9
 49
-0.4
  0
LTYPE
  2
DASHDOT
 70
    64
  3
１点鎖線A
 72
    65
 73
     4
 40
0.5375
 49
0.375
 49
-0.05
 49
0.0625
 49
-0.05
  0
LTYPE
  2
DASHDOTX2
 70
    64
  3
１点鎖線B
 72
    65
 73
     4
 40
1.075
 49
0.75
 49
-0.1
 49
0.125
 49
-0.1
  0
LTYPE
  2
DIVIDE2
 70
    64
  3
２点鎖線A
 72
    65
 73
     6
 40
0.5125
 49
0.3
 49
-0.0375
 49
0.05
 49
-0.0375
 49
0.05
 49
-0.0375
  0
LTYPE
  2
DIVIDE
 70
    64
  3
２点鎖線B
 72
    65
 73
     6
 40
1.05
 49
0.55
 49
-0.1
 49
0.1
 49
-0.1
 49
0.1
 49
-0.1
  0
LTYPE
  2
DOT
 70
    64
  3
点線A
 72
    65
 73
     2
 40
0.1125
 49
0.0625
 49
-0.05
  0
LTYPE
  2
DOTX2
 70
    64
  3
点線B
 72
    65
 73
     2
 40
0.275
 49
0.15
 49
-0.125
  0
LTYPE
  2
CONTINUOUS
 70
    64
  3
実線
 72
    65
 73
     0
 40
0.0
  0
LTYPE
  2
CONTINUOUS
 70
    64
  3
実線
 72
    65
 73
     0
 40
0.0
  0
LTYPE
  2
CONTINUOUS
 70
    64
  3
実線
 72
    65
 73
     0
 40
0.0
  0
LTYPE
  2
CONTINUOUS
 70
    64
  3
実線
 72
    65
 73
     0
 40
0.0
  0
LTYPE
  2
CONTINUOUS
 70
    64
  3
実線
 72
    65
 73
     0
 40
0.0
  0
LTYPE
  2
CONTINUOUS
 70
    64
  3
実線
 72
    65
 73
     0
 40
0.0
  0
ENDTAB
  0
TABLE
  2
LAYER
 70
    34
  0
LAYER
  2
通り芯
 70
     0
 62
    15
  6
CONTINUOUS
  0
LAYER
  2
補助線
 70
     0
 62
    16
  6
DOT
  0
LAYER
  2
躯体
 70
     0
 62
    31
  6
CONTINUOUS
  0
LAYER
  2
型材
 70
     0
 62
    32
  6
CONTINUOUS
  0
LAYER
  2
型材断面
 70
     0
 62
    47
  6
CONTINUOUS
  0
LAYER
  2
ガラス
 70
     0
 62
    48
  6
CONTINUOUS
  0
LAYER
  2
ゴム等
 70
     0
 62
    63
  6
CONTINUOUS
  0
LAYER
  2
ボルト／ビス
 70
     0
 62
    64
  6
CONTINUOUS
  0
LAYER
  2
文字
 70
     0
 62
    79
  6
CONTINUOUS
  0
LAYER
  2
寸法
 70
     0
 62
    80
  6
CONTINUOUS
  0
LAYER
  2
ﾊｯﾁﾝｸﾞ
 70
     0
 62
    95
  6
CONTINUOUS
  0
LAYER
  2
別途部材
 70
     0
 62
    96
  6
CONTINUOUS
  0
LAYER
  2
曲げ物
 70
     0
 62
   111
  6
CONTINUOUS
  0
LAYER
  2
鉄骨等
 70
     0
 62
   112
  6
CONTINUOUS
  0
LAYER
  2
St
 70
     0
 62
   127
  6
CONTINUOUS
  0
LAYER
  2
その他部品等
 70
     0
 62
   128
  6
CONTINUOUS
  0
LAYER
  2
ｶﾞｽｹｯﾄ
 70
     0
 62
   143
  6
CONTINUOUS
  0
LAYER
  2
ｽｹｯﾁ
 70
     0
 62
    14
  6
CONTINUOUS
  0
LAYER
  2
0
 70
     0
 62
    17
  6
CONTINUOUS
  0
LAYER
  2
1
 70
     0
 62
    30
  6
CONTINUOUS
  0
LAYER
  2
4
 70
     0
 62
    33
  6
CONTINUOUS
  0
LAYER
  2
ﾚｲﾔ3
 70
     0
 62
    46
  6
CONTINUOUS
  0
LAYER
  2
外形線
 70
     0
 62
    49
  6
CONTINUOUS
  0
LAYER
  2
部品
 70
     0
 62
    14
  6
CONTINUOUS
  0
LAYER
  2
サッシ芯
 70
     0
 62
    17
  6
DASHDOTX2
  0
LAYER
  2
寸法線
 70
     0
 62
    62
  6
CONTINUOUS
  0
LAYER
  2
姿図外形線
 70
     0
 62
    65
  6
CONTINUOUS
  0
LAYER
  2
姿補助線
 70
     0
 62
    30
  6
CONTINUOUS
  0
LAYER
  2
透視線
 70
     0
 62
    78
  6
DOT
  0
LAYER
  2
用紙
 70
     0
 62
    81
  6
CONTINUOUS
  0
LAYER
  2
実線図枠
 70
     0
 62
    94
  6
CONTINUOUS
  0
LAYER
  2
補助図枠
 70
     0
 62
    97
  6
CONTINUOUS
  0
LAYER
  2
建具記号
 70
     0
 62
   110
  6
CONTINUOUS
  0
LAYER
  2
補助文字
 70
     0
 62
   113
  6
CONTINUOUS
  0
ENDTAB
  0
TABLE
  2
STYLE
 70
    10
  0
STYLE
  2
STANDARD
 70
     0
 40
1.0
 41
1.0
 42
1.0
 50
0.0
 71
     0
  3
TXT
  4
BIGFONT
  0
STYLE
  2
TATE
 70
     4
 40
1.0
 41
1.0
 42
1.0
 50
0.0
 71
     0
  3
TXT
  4
BIGFONT
  0
STYLE
  2
TextStyle03
 70
     0
 40
1.0
 41
1.0
 42
1.0
 50
0.0
 71
     0
  3
MONOTXT
  4
BIGFONT
  0
STYLE
  2
TextStyle04
 70
     0
 40
1.0
 41
1.0
 42
1.0
 50
0.0
 71
     0
  3
MONOTXT
  4
BIGFONT
  0
STYLE
  2
TextStyle05
 70
     0
 40
1.0
 41
1.0
 42
1.0
 50
0.0
 71
     0
  3
MONOTXT
  4
BIGFONT
  0
STYLE
  2
TextStyle06
 70
     0
 40
1.0
 41
1.0
 42
1.0
 50
0.0
 71
     0
  3
MONOTXT
  4
BIGFONT
  0
STYLE
  2
TextStyle07
 70
     0
 40
1.0
 41
1.0
 42
1.0
 50
0.0
 71
     0
  3
MONOTXT
  4
BIGFONT
  0
STYLE
  2
TextStyle08
 70
     0
 40
1.0
 41
1.0
 42
1.0
 50
0.0
 71
     0
  3
MONOTXT
  4
BIGFONT
  0
STYLE
  2
TextStyle09
 70
     0
 40
1.0
 41
1.0
 42
1.0
 50
0.0
 71
     0
  3
MONOTXT
  4
BIGFONT
  0
STYLE
  2
TextStyle10
 70
     0
 40
1.0
 41
1.0
 42
1.0
 50
0.0
 71
     0
  3
MONOTXT
  4
BIGFONT
  0
ENDTAB
  0
ENDSEC
  0
SECTION
  2
BLOCKS
  0
BLOCK
  2
*GRP_0001
 70
    65
 10
0.0
 20
0.0
  0
LINE
  8
型材断面
  6
CONTINUOUS
 10
195.0
 20
133.5
 11
195.0
 21
-133.5
  0
LINE
  8
型材断面
  6
CONTINUOUS
 10
195.0
 20
-133.5
 11
-185.0
 21
-133.5
  0
LINE
  8
型材断面
  6
CONTINUOUS
 10
-185.0
 20
-133.5
 11
-185.0
 21
133.5
  0
LINE
  8
型材断面
  6
CONTINUOUS
 10
195.0
 20
133.5
 11
-185.0
 21
133.5
  0
LINE
  8
型材断面
  6
CONTINUOUS
 10
145.0
 20
-133.5
 11
145.0
 21
-118.5
  0
LINE
  8
型材断面
  6
CONTINUOUS
 10
195.0
 20
-118.5
 11
145.0
 21
-118.5
  0
ENDBLK
  0
BLOCK
  2
*DIM_0002
 70
    65
 10
0.0
 20
0.0
  0
LINE
  8
寸法
  6
BYBLOCK
 62
     0
 10
-45.2636
 20
-13.511205
 11
-45.2636
 21
-13.121378
  0
LINE
  8
寸法
  6
BYBLOCK
 62
     0
 10
21.403067
 20
-13.121378
 11
-45.2636
 21
-13.121378
  0
POINT
  8
寸法
 62
     0
 10
21.403067
 20
-13.121378
  0
POINT
  8
寸法
 62
     0
 10
-45.2636
 20
-13.121378
  0
TEXT
  7
TextStyle03
  8
寸法
  6
CONTINUOUS
 62
     0
 10
-23.66875
 20
-12.75
  1
呼称寸法　2000
 40
3.0
 72
     5
 11
-0.23125
 21
-12.75
  0
ENDBLK
  0
BLOCK
  2
*DIM_0003
 70
    65
 10
0.0
 20
0.0
  0
LINE
  8
寸法
  6
BYBLOCK
 62
     0
 10
19.403067
 20
17.20722
 11
19.403067
 21
14.182178
  0
LINE
  8
寸法
  6
BYBLOCK
 62
     0
 10
21.403067
 20
14.182178
 11
19.403067
 21
14.182178
  0
POINT
  8
寸法
 62
     0
 10
21.403067
 20
14.182178
  0
POINT
  8
寸法
 62
     0
 10
19.403067
 20
14.182178
  0
TEXT
  7
TextStyle03
  8
寸法
  6
CONTINUOUS
 62
     0
 10
17.53125
 20
10.4
  1
60
 40
3.0
 72
     5
 11
20.71875
 21
10.4
  0
ENDBLK
  0
BLOCK
  2
*DIM_0004
 70
    65
 10
0.0
 20
0.0
  0
LINE
  8
寸法
  6
BYBLOCK
 62
     0
 10
-43.263598
 20
17.20722
 11
-43.263598
 21
14.182178
  0
LINE
  8
寸法
  6
BYBLOCK
 62
     0
 10
-45.263598
 20
14.182178
 11
-43.263598
 21
14.182178
  0
POINT
  8
寸法
 62
     0
 10
-45.263598
 20
14.182178
  0
POINT
  8
寸法
 62
     0
 10
-43.263598
 20
14.182178
  0
TEXT
  7
TextStyle03
  8
寸法
  6
CONTINUOUS
 62
     0
 10
-44.56875
 20
10.4
  1
60
 40
3.0
 72
     5
 11
-41.38125
 21
10.4
  0
ENDBLK
  0
BLOCK
  2
*DIM_0005
 70
    65
 10
0.0
 20
0.0
  0
LINE
  8
寸法
  6
BYBLOCK
 62
     0
 10
-48.2636
 20
47.814033
 11
-61.556437
 21
47.814033
  0
LINE
  8
寸法
  6
BYBLOCK
 62
     0
 10
-48.2636
 20
27.814033
 11
-61.556437
 21
27.814033
  0
LINE
  8
寸法
  6
BYBLOCK
 62
     0
 10
-61.556437
 20
47.814033
 11
-61.556437
 21
27.814033
  0
POINT
  8
寸法
 62
     0
 10
-61.556437
 20
47.814033
  0
POINT
  8
寸法
 62
     0
 10
-61.556437
 20
27.814033
  0
TEXT
  7
TextStyle03
  8
寸法
  6
CONTINUOUS
 62
     0
 10
-61.95
 20
35.3625
  1
600
 40
3.0
 50
90.0
 72
     5
 11
-61.95
 21
40.2375
  0
ENDBLK
  0
BLOCK
  2
*DIM_0006
 70
    65
 10
0.0
 20
0.0
  0
LINE
  8
寸法
  6
BYBLOCK
 62
     0
 10
-35.263598
 20
55.814033
 11
-35.263598
 21
84.741653
  0
LINE
  8
寸法
  6
BYBLOCK
 62
     0
 10
-11.930265
 20
55.814033
 11
-11.930265
 21
84.741653
  0
LINE
  8
寸法
  6
BYBLOCK
 62
     0
 10
-35.263598
 20
84.741653
 11
-11.930265
 21
84.741653
  0
POINT
  8
寸法
 62
     0
 10
-35.263598
 20
84.741653
  0
POINT
  8
寸法
 62
     0
 10
-11.930265
 20
84.741653
  0
TEXT
  7
TextStyle03
  8
寸法
  6
CONTINUOUS
 62
     0
 10
-26.0375
 20
85.125
  1
700
 40
3.0
 72
     5
 11
-21.1625
 21
85.125
  0
ENDBLK
  0
BLOCK
  2
*DIM_0007
 70
    65
 10
0.0
 20
0.0
  0
LINE
  8
寸法
  6
BYBLOCK
 62
     0
 10
11.403067
 20
55.814033
 11
11.403067
 21
84.741653
  0
LINE
  8
寸法
  6
BYBLOCK
 62
     0
 10
-11.930265
 20
84.741653
 11
11.403067
 21
84.741653
  0
POINT
  8
寸法
 62
     0
 10
11.403067
 20
84.741653
  0
TEXT
  7
TextStyle03
  8
寸法
  6
CONTINUOUS
 62
     0
 10
-2.7125
 20
85.125
  1
700
 40
3.0
 72
     5
 11
2.1625
 21
85.125
  0
ENDBLK
  0
BLOCK
  2
*DIM_0008
 70
    65
 10
0.0
 20
0.0
  0
LINE
  8
寸法
  6
BYBLOCK
 62
     0
 10
8.569735
 20
-61.87628
 11
36.471868
 21
-61.87628
  0
LINE
  8
寸法
  6
BYBLOCK
 62
     0
 10
36.471868
 20
-70.209605
 11
36.471868
 21
-61.87628
  0
POINT
  8
寸法
 62
     0
 10
36.471868
 20
-61.87628
  0
TEXT
  7
TextStyle03
  8
寸法
  6
CONTINUOUS
 62
     0
 10
36.1
 20
-68.5125
  1
250
 40
3.0
 50
90.0
 72
     5
 11
36.1
 21
-63.6375
  0
ENDBLK
  0
BLOCK
  2
*GRP_0009
 70
    65
 10
0.0
 20
0.0
  0
LINE
  8
別途部材
  6
CONTINUOUS
 62
    96
 10
-46.930265
 20
-70.209613
 11
-47.330265
 21
-71.209613
  0
ARC
  8
別途部材
  6
CONTINUOUS
 10
-30.263597
 20
-79.542943
 40
17.666667
 50
90.0
 51
148.109204
  0
LINE
  8
別途部材
  6
CONTINUOUS
 10
-47.330265
 20
-71.209613
 11
-11.930265
 21
-71.209613
  0
LINE
  8
別途部材
  6
CONTINUOUS
 62
    96
 10
-46.930265
 20
-70.209613
 11
-11.930265
 21
-70.209613
  0
LINE
  8
別途部材
  6
CONTINUOUS
 10
-12.430265
 20
-60.87628
 11
-13.430265
 21
-61.87628
  0
LINE
  8
別途部材
  6
CONTINUOUS
 10
-14.430265
 20
-61.87628
 11
-15.430265
 21
-60.87628
  0
LINE
  8
別途部材
  6
CONTINUOUS
 10
-16.430265
 20
-60.87628
 11
-17.430265
 21
-61.87628
  0
LINE
  8
別途部材
  6
CONTINUOUS
 10
-15.430265
 20
-60.87628
 11
-16.430265
 21
-60.87628
  0
LINE
  8
別途部材
  6
CONTINUOUS
 10
-12.430265
 20
-60.87628
 11
-11.930265
 21
-60.87628
  0
LINE
  8
別途部材
  6
CONTINUOUS
 10
-18.430265
 20
-61.87628
 11
-19.430265
 21
-60.87628
  0
LINE
  8
別途部材
  6
CONTINUOUS
 10
-20.430265
 20
-60.87628
 11
-21.430265
 21
-61.87628
  0
LINE
  8
別途部材
  6
CONTINUOUS
 10
-19.430265
 20
-60.87628
 11
-20.430265
 21
-60.87628
  0
LINE
  8
別途部材
  6
CONTINUOUS
 10
-22.430265
 20
-61.87628
 11
-23.430265
 21
-60.87628
  0
LINE
  8
別途部材
  6
CONTINUOUS
 10
-24.430265
 20
-60.87628
 11
-25.430265
 21
-61.87628
  0
LINE
  8
別途部材
  6
CONTINUOUS
 10
-23.430265
 20
-60.87628
 11
-24.430265
 21
-60.87628
  0
LINE
  8
別途部材
  6
CONTINUOUS
 10
-26.430265
 20
-61.87628
 11
-27.430265
 21
-60.87628
  0
LINE
  8
別途部材
  6
CONTINUOUS
 10
-28.430265
 20
-60.87628
 11
-29.430265
 21
-61.87628
  0
LINE
  8
別途部材
  6
CONTINUOUS
 10
-27.430265
 20
-60.87628
 11
-28.430265
 21
-60.87628
  0
LINE
  8
別途部材
  6
CONTINUOUS
 10
-25.430265
 20
-61.87628
 11
-26.430265
 21
-61.87628
  0
LINE
  8
別途部材
  6
CONTINUOUS
 10
-21.430265
 20
-61.87628
 11
-22.430265
 21
-61.87628
  0
LINE
  8
別途部材
  6
CONTINUOUS
 10
-17.430265
 20
-61.87628
 11
-18.430265
 21
-61.87628
  0
LINE
  8
別途部材
  6
CONTINUOUS
 10
-14.430265
 20
-61.87628
 11
-13.430265
 21
-61.87628
  0
LINE
  8
別途部材
  6
CONTINUOUS
 10
-28.430265
 20
-60.87628
 11
-28.430265
 21
-70.209613
  0
LINE
  8
別途部材
  6
CONTINUOUS
 10
-27.430265
 20
-60.87628
 11
-27.430265
 21
-70.209613
  0
LINE
  8
別途部材
  6
CONTINUOUS
 10
-25.430265
 20
-61.87628
 11
-25.430265
 21
-70.209613
  0
LINE
  8
別途部材
  6
CONTINUOUS
 10
-26.430265
 20
-61.87628
 11
-26.430265
 21
-70.209613
  0
LINE
  8
別途部材
  6
CONTINUOUS
 10
-29.430265
 20
-61.87628
 11
-29.430265
 21
-70.209613
  0
LINE
  8
別途部材
  6
CONTINUOUS
 10
-24.430265
 20
-60.87628
 11
-24.430265
 21
-70.209613
  0
LINE
  8
別途部材
  6
CONTINUOUS
 10
-22.430265
 20
-61.87628
 11
-22.430265
 21
-70.209613
  0
LINE
  8
別途部材
  6
CONTINUOUS
 10
-23.430265
 20
-60.87628
 11
-23.430265
 21
-70.209613
  0
LINE
  8
別途部材
  6
CONTINUOUS
 10
-21.430265
 20
-61.87628
 11
-21.430265
 21
-70.209613
  0
LINE
  8
別途部材
  6
CONTINUOUS
 10
-20.430265
 20
-60.87628
 11
-20.430265
 21
-70.209613
  0
LINE
  8
別途部材
  6
CONTINUOUS
 10
-18.430265
 20
-61.87628
 11
-18.430265
 21
-70.209613
  0
LINE
  8
別途部材
  6
CONTINUOUS
 10
-19.430265
 20
-60.87628
 11
-19.430265
 21
-70.209613
  0
LINE
  8
別途部材
  6
CONTINUOUS
 10
-17.430265
 20
-61.87628
 11
-17.430265
 21
-70.209613
  0
LINE
  8
別途部材
  6
CONTINUOUS
 10
-16.430265
 20
-60.87628
 11
-16.430265
 21
-70.209613
  0
LINE
  8
別途部材
  6
CONTINUOUS
 10
-14.430265
 20
-61.87628
 11
-14.430265
 21
-70.209613
  0
LINE
  8
別途部材
  6
CONTINUOUS
 10
-15.430265
 20
-60.87628
 11
-15.430265
 21
-70.209613
  0
LINE
  8
別途部材
  6
CONTINUOUS
 10
-13.430265
 20
-61.87628
 11
-13.430265
 21
-70.209613
  0
LINE
  8
別途部材
  6
CONTINUOUS
 10
-12.430265
 20
-60.87628
 11
-12.430265
 21
-70.209613
  0
LINE
  8
別途部材
  6
CONTINUOUS
 10
-30.263598
 20
-61.87628
 11
-29.430265
 21
-61.87628
  0
LINE
  8
別途部材
  6
CONTINUOUS
 62
    96
 10
23.069735
 20
-70.209613
 11
23.469735
 21
-71.209613
  0
ARC
  8
別途部材
  6
CONTINUOUS
 10
6.403067
 20
-79.542943
 40
17.666667
 50
31.890796
 51
90.0
  0
LINE
  8
別途部材
  6
CONTINUOUS
 10
23.469735
 20
-71.209613
 11
-11.930265
 21
-71.209613
  0
LINE
  8
別途部材
  6
CONTINUOUS
 62
    96
 10
23.069735
 20
-70.209613
 11
-11.930265
 21
-70.209613
  0
LINE
  8
別途部材
  6
CONTINUOUS
 10
-11.430265
 20
-60.87628
 11
-10.430265
 21
-61.87628
  0
LINE
  8
別途部材
  6
CONTINUOUS
 10
-9.430265
 20
-61.87628
 11
-8.430265
 21
-60.87628
  0
LINE
  8
別途部材
  6
CONTINUOUS
 10
-7.430265
 20
-60.87628
 11
-6.430265
 21
-61.87628
  0
LINE
  8
別途部材
  6
CONTINUOUS
 10
-8.430265
 20
-60.87628
 11
-7.430265
 21
-60.87628
  0
LINE
  8
別途部材
  6
CONTINUOUS
 10
-11.430265
 20
-60.87628
 11
-11.930265
 21
-60.87628
  0
LINE
  8
別途部材
  6
CONTINUOUS
 10
-5.430265
 20
-61.87628
 11
-4.430265
 21
-60.87628
  0
LINE
  8
別途部材
  6
CONTINUOUS
 10
-3.430265
 20
-60.87628
 11
-2.430265
 21
-61.87628
  0
LINE
  8
別途部材
  6
CONTINUOUS
 10
-4.430265
 20
-60.87628
 11
-3.430265
 21
-60.87628
  0
LINE
  8
別途部材
  6
CONTINUOUS
 10
-1.430265
 20
-61.87628
 11
-0.430265
 21
-60.87628
  0
LINE
  8
別途部材
  6
CONTINUOUS
 10
0.569735
 20
-60.87628
 11
1.569735
 21
-61.87628
  0
LINE
  8
別途部材
  6
CONTINUOUS
 10
-0.430265
 20
-60.87628
 11
0.569735
 21
-60.87628
  0
LINE
  8
別途部材
  6
CONTINUOUS
 10
2.569735
 20
-61.87628
 11
3.569735
 21
-60.87628
  0
LINE
  8
別途部材
  6
CONTINUOUS
 10
4.569735
 20
-60.87628
 11
5.569735
 21
-61.87628
  0
LINE
  8
別途部材
  6
CONTINUOUS
 10
3.569735
 20
-60.87628
 11
4.569735
 21
-60.87628
  0
LINE
  8
別途部材
  6
CONTINUOUS
 10
1.569735
 20
-61.87628
 11
2.569735
 21
-61.87628
  0
LINE
  8
別途部材
  6
CONTINUOUS
 10
-2.430265
 20
-61.87628
 11
-1.430265
 21
-61.87628
  0
LINE
  8
別途部材
  6
CONTINUOUS
 10
-6.430265
 20
-61.87628
 11
-5.430265
 21
-61.87628
  0
LINE
  8
別途部材
  6
CONTINUOUS
 10
-9.430265
 20
-61.87628
 11
-10.430265
 21
-61.87628
  0
LINE
  8
別途部材
  6
CONTINUOUS
 10
4.569735
 20
-60.87628
 11
4.569735
 21
-70.209613
  0
LINE
  8
別途部材
  6
CONTINUOUS
 10
3.569735
 20
-60.87628
 11
3.569735
 21
-70.209613
  0
LINE
  8
別途部材
  6
CONTINUOUS
 10
1.569735
 20
-61.87628
 11
1.569735
 21
-70.209613
  0
LINE
  8
別途部材
  6
CONTINUOUS
 10
2.569735
 20
-61.87628
 11
2.569735
 21
-70.209613
  0
LINE
  8
別途部材
  6
CONTINUOUS
 10
5.569735
 20
-61.87628
 11
5.569735
 21
-70.209613
  0
LINE
  8
別途部材
  6
CONTINUOUS
 10
0.569735
 20
-60.87628
 11
0.569735
 21
-70.209613
  0
LINE
  8
別途部材
  6
CONTINUOUS
 10
-1.430265
 20
-61.87628
 11
-1.430265
 21
-70.209613
  0
LINE
  8
別途部材
  6
CONTINUOUS
 10
-0.430265
 20
-60.87628
 11
-0.430265
 21
-70.209613
  0
LINE
  8
別途部材
  6
CONTINUOUS
 10
-2.430265
 20
-61.87628
 11
-2.430265
 21
-70.209613
  0
LINE
  8
別途部材
  6
CONTINUOUS
 10
-3.430265
 20
-60.87628
 11
-3.430265
 21
-70.209613
  0
LINE
  8
別途部材
  6
CONTINUOUS
 10
-5.430265
 20
-61.87628
 11
-5.430265
 21
-70.209613
  0
LINE
  8
別途部材
  6
CONTINUOUS
 10
-4.430265
 20
-60.87628
 11
-4.430265
 21
-70.209613
  0
LINE
  8
別途部材
  6
CONTINUOUS
 10
-6.430265
 20
-61.87628
 11
-6.430265
 21
-70.209613
  0
LINE
  8
別途部材
  6
CONTINUOUS
 10
-7.430265
 20
-60.87628
 11
-7.430265
 21
-70.209613
  0
LINE
  8
別途部材
  6
CONTINUOUS
 10
-9.430265
 20
-61.87628
 11
-9.430265
 21
-70.209613
  0
LINE
  8
別途部材
  6
CONTINUOUS
 10
-8.430265
 20
-60.87628
 11
-8.430265
 21
-70.209613
  0
LINE
  8
別途部材
  6
CONTINUOUS
 10
-10.430265
 20
-61.87628
 11
-10.430265
 21
-70.209613
  0
LINE
  8
別途部材
  6
CONTINUOUS
 10
-11.430265
 20
-60.87628
 11
-11.430265
 21
-70.209613
  0
LINE
  8
別途部材
  6
CONTINUOUS
 10
6.403067
 20
-61.87628
 11
5.569735
 21
-61.87628
  0
ENDBLK
  0
BLOCK
  2
*GRP_0010
 70
    65
 10
0.0
 20
0.0
  0
LINE
  8
ボルト／ビス
  6
CONTINUOUS
 10
-45.930263
 20
-70.209605
 11
-45.930263
 21
-69.742937
  0
LINE
  8
ボルト／ビス
  6
CONTINUOUS
 10
-45.563595
 20
-70.209605
 11
-45.563595
 21
-70.142937
  0
LINE
  8
ボルト／ビス
  6
CONTINUOUS
 10
-45.563595
 20
-70.142937
 11
-46.29693
 21
-70.142937
  0
LINE
  8
ボルト／ビス
  6
CONTINUOUS
 10
-46.29693
 20
-70.142937
 11
-46.29693
 21
-70.209605
  0
LINE
  8
ボルト／ビス
  6
CONTINUOUS
 10
-45.563595
 20
-70.209605
 11
-46.29693
 21
-70.209605
  0
LINE
  8
ボルト／ビス
  6
CONTINUOUS
 10
-45.630263
 20
-70.109605
 11
-45.630263
 21
-70.142937
  0
LINE
  8
ボルト／ビス
  6
CONTINUOUS
 10
-45.630263
 20
-70.109605
 11
-46.230263
 21
-70.109605
  0
LINE
  8
ボルト／ビス
  6
CONTINUOUS
 10
-46.230263
 20
-70.109605
 11
-46.230263
 21
-70.142937
  0
LINE
  8
ボルト／ビス
  6
CONTINUOUS
 62
    64
 10
-45.769888
 20
-69.909605
 11
-45.737813
 21
-69.92128
  0
ARC
  8
ボルト／ビス
  6
CONTINUOUS
 62
    64
 10
-45.785924
 20
-70.014585
 40
0.104978
 50
90.0
 51
117.278033
  0
ARC
  8
ボルト／ビス
  6
CONTINUOUS
 62
    64
 10
-45.930262
 20
-70.312009
 40
0.402402
 50
76.165015
 51
103.834998
  0
LINE
  8
ボルト／ビス
  6
CONTINUOUS
 62
    64
 10
-46.090637
 20
-69.909605
 11
-46.122713
 21
-69.92128
  0
ARC
  8
ボルト／ビス
  6
CONTINUOUS
 62
    64
 10
-46.074599
 20
-70.014585
 40
0.104978
 50
62.721967
 51
90.0
  0
LINE
  8
ボルト／ビス
  6
CONTINUOUS
 62
    64
 10
-45.769888
 20
-69.909605
 11
-46.090637
 21
-69.909605
  0
LINE
  8
ボルト／ビス
  6
CONTINUOUS
 62
    64
 10
-46.122713
 20
-69.92128
 11
-46.122713
 21
-70.042937
  0
LINE
  8
ボルト／ビス
  6
CONTINUOUS
 62
    64
 10
-46.026487
 20
-69.92128
 11
-46.026487
 21
-70.042937
  0
LINE
  8
ボルト／ビス
  6
CONTINUOUS
 62
    64
 10
-45.737813
 20
-69.92128
 11
-45.737813
 21
-70.042937
  0
LINE
  8
ボルト／ビス
  6
CONTINUOUS
 62
    64
 10
-45.834037
 20
-69.92128
 11
-45.834037
 21
-70.042937
  0
LINE
  8
ボルト／ビス
  6
CONTINUOUS
 10
-45.737813
 20
-70.042937
 11
-46.122713
 21
-70.042937
  0
LINE
  8
ボルト／ビス
  6
CONTINUOUS
 10
-45.730263
 20
-70.042937
 11
-45.730263
 21
-70.109605
  0
LINE
  8
ボルト／ビス
  6
CONTINUOUS
 10
-45.730263
 20
-70.042937
 11
-46.130263
 21
-70.042937
  0
LINE
  8
ボルト／ビス
  6
CONTINUOUS
 10
-46.130263
 20
-70.042937
 11
-46.130263
 21
-70.109605
  0
ENDBLK
  0
BLOCK
  2
*GRP_0011
 70
    65
 10
0.0
 20
0.0
  0
LINE
  8
ボルト／ビス
  6
CONTINUOUS
 10
22.069737
 20
-70.209605
 11
22.069737
 21
-69.742937
  0
LINE
  8
ボルト／ビス
  6
CONTINUOUS
 10
22.436405
 20
-70.209605
 11
22.436405
 21
-70.142937
  0
LINE
  8
ボルト／ビス
  6
CONTINUOUS
 10
22.436405
 20
-70.142937
 11
21.70307
 21
-70.142937
  0
LINE
  8
ボルト／ビス
  6
CONTINUOUS
 10
21.70307
 20
-70.142937
 11
21.70307
 21
-70.209605
  0
LINE
  8
ボルト／ビス
  6
CONTINUOUS
 10
22.436405
 20
-70.209605
 11
21.70307
 21
-70.209605
  0
LINE
  8
ボルト／ビス
  6
CONTINUOUS
 10
22.369737
 20
-70.109605
 11
22.369737
 21
-70.142937
  0
LINE
  8
ボルト／ビス
  6
CONTINUOUS
 10
22.369737
 20
-70.109605
 11
21.769737
 21
-70.109605
  0
LINE
  8
ボルト／ビス
  6
CONTINUOUS
 10
21.769737
 20
-70.109605
 11
21.769737
 21
-70.142937
  0
LINE
  8
ボルト／ビス
  6
CONTINUOUS
 62
    64
 10
22.230112
 20
-69.909605
 11
22.262188
 21
-69.92128
  0
ARC
  8
ボルト／ビス
  6
CONTINUOUS
 62
    64
 10
22.214075
 20
-70.014585
 40
0.104978
 50
90.0
 51
117.278033
  0
ARC
  8
ボルト／ビス
  6
CONTINUOUS
 62
    64
 10
22.069737
 20
-70.312009
 40
0.402402
 50
76.165015
 51
103.834998
  0
LINE
  8
ボルト／ビス
  6
CONTINUOUS
 62
    64
 10
21.909362
 20
-69.909605
 11
21.877288
 21
-69.92128
  0
ARC
  8
ボルト／ビス
  6
CONTINUOUS
 62
    64
 10
21.9254
 20
-70.014585
 40
0.104978
 50
62.721967
 51
90.0
  0
LINE
  8
ボルト／ビス
  6
CONTINUOUS
 62
    64
 10
22.230112
 20
-69.909605
 11
21.909362
 21
-69.909605
  0
LINE
  8
ボルト／ビス
  6
CONTINUOUS
 62
    64
 10
21.877288
 20
-69.92128
 11
21.877288
 21
-70.042937
  0
LINE
  8
ボルト／ビス
  6
CONTINUOUS
 62
    64
 10
21.973512
 20
-69.92128
 11
21.973512
 21
-70.042937
  0
LINE
  8
ボルト／ビス
  6
CONTINUOUS
 62
    64
 10
22.262188
 20
-69.92128
 11
22.262188
 21
-70.042937
  0
LINE
  8
ボルト／ビス
  6
CONTINUOUS
 62
    64
 10
22.165963
 20
-69.92128
 11
22.165963
 21
-70.042937
  0
LINE
  8
ボルト／ビス
  6
CONTINUOUS
 10
22.262188
 20
-70.042937
 11
21.877288
 21
-70.042937
  0
LINE
  8
ボルト／ビス
  6
CONTINUOUS
 10
22.269737
 20
-70.042937
 11
22.269737
 21
-70.109605
  0
LINE
  8
ボルト／ビス
  6
CONTINUOUS
 10
22.269737
 20
-70.042937
 11
21.869737
 21
-70.042937
  0
LINE
  8
ボルト／ビス
  6
CONTINUOUS
 10
21.869737
 20
-70.042937
 11
21.869737
 21
-70.109605
  0
ENDBLK
  0
BLOCK
  2
*DIM_0012
 70
    65
 10
0.0
 20
0.0
  0
LINE
  8
寸法
  6
BYBLOCK
 62
     0
 10
-28.596933
 20
15.360733
 11
-28.596933
 21
10.03341
  0
LINE
  8
寸法
  6
BYBLOCK
 62
     0
 10
4.736403
 20
15.360733
 11
4.736403
 21
10.03341
  0
LINE
  8
寸法
  6
BYBLOCK
 62
     0
 10
-28.596933
 20
10.03341
 11
4.736403
 21
10.03341
  0
POINT
  8
寸法
 62
     0
 10
-28.596933
 20
10.03341
  0
POINT
  8
寸法
 62
     0
 10
4.736403
 20
10.03341
  0
TEXT
  7
TextStyle03
  8
寸法
  6
CONTINUOUS
 62
     0
 10
-15.23125
 20
10.425
  1
1000
 40
3.0
 72
     5
 11
-8.66875
 21
10.425
  0
ENDBLK
  0
BLOCK
  2
*DIM_0013
 70
    65
 10
0.0
 20
0.0
  0
LINE
  8
寸法
  6
CONTINUOUS
 10
27.903082
 20
-75.376282
 11
27.903082
 21
-13.121378
  0
LINE
  8
寸法
  6
CONTINUOUS
 10
21.403067
 20
-13.121378
 11
27.903082
 21
-13.121378
  0
POINT
  8
寸法
 10
21.403067
 20
-13.121378
  0
POINT
  8
寸法
 10
27.903082
 20
-13.121378
  0
TEXT
  7
TextStyle03
  8
寸法
  6
CONTINUOUS
 10
23.15
 20
-12.75
  1
※
 40
3.0
 72
     5
 11
26.15
 21
-12.75
  0
ENDBLK
  0
BLOCK
  2
*DIM_0014
 70
    65
 10
0.0
 20
0.0
  0
LINE
  8
寸法
  6
CONTINUOUS
 10
-51.763615
 20
-75.376282
 11
-51.763615
 21
-13.511205
  0
LINE
  8
寸法
  6
CONTINUOUS
 10
-45.2636
 20
-13.511205
 11
-51.763615
 21
-13.511205
  0
POINT
  8
寸法
 10
-45.2636
 20
-13.511205
  0
POINT
  8
寸法
 10
-51.763615
 20
-13.511205
  0
TEXT
  7
TextStyle03
  8
寸法
  6
CONTINUOUS
 10
-50.025
 20
-13.15
  1
※
 40
3.0
 72
     5
 11
-47.025
 21
-13.15
  0
ENDBLK
  0
BLOCK
  2
*DIM_0015
 70
    65
 10
0.0
 20
0.0
  0
LINE
  8
寸法
  6
CONTINUOUS
 10
24.069735
 20
-70.209613
 11
36.471868
 21
-70.209613
  0
LINE
  8
寸法
  6
CONTINUOUS
 10
23.403082
 20
-75.709613
 11
36.471868
 21
-75.709613
  0
LINE
  8
寸法
  6
CONTINUOUS
 10
36.471868
 20
-70.209613
 11
36.471868
 21
-75.709613
  0
POINT
  8
寸法
 10
36.471868
 20
-70.209613
  0
POINT
  8
寸法
 10
36.471868
 20
-75.709613
  0
TEXT
  7
TextStyle03
  8
寸法
  6
CONTINUOUS
 10
36.075
 20
-75.4125
  1
165
 40
3.0
 50
90.0
 72
     5
 11
36.075
 21
-70.5375
  0
ENDBLK
  0
BLOCK
  2
*DIM_0016
 70
    65
 10
0.0
 20
0.0
  0
LINE
  8
寸法
  6
CONTINUOUS
 10
28.903082
 20
-78.709613
 11
36.471868
 21
-78.709613
  0
LINE
  8
寸法
  6
CONTINUOUS
 10
36.471868
 20
-75.709613
 11
36.471868
 21
-78.709613
  0
POINT
  8
寸法
 10
36.471868
 20
-78.709613
  0
TEXT
  7
TextStyle03
  8
寸法
  6
CONTINUOUS
 10
36.075
 20
-78.725
  1
※
 40
3.0
 50
90.0
 72
     5
 11
36.075
 21
-75.725
  0
ENDBLK
  0
BLOCK
  2
*GRP_0017
 70
    65
 10
0.0
 20
0.0
  0
LINE
  8
型材断面
  6
DOT
 62
    47
 10
112.024208
 20
55.286867
 11
113.367737
 21
53.943338
  0
LINE
  8
型材断面
  6
DOT
 62
    47
 10
89.39677
 20
32.659427
 11
90.7403
 21
31.315898
  0
LINE
  8
型材断面
  6
DOT
 10
90.7403
 20
31.315898
 11
113.367737
 21
53.943338
  0
LINE
  8
別途部材
  6
DOT
 62
    96
 10
111.788495
 20
56.465367
 11
112.778445
 21
56.041105
  0
INSERT
  2
*GRP_0027
  8
別途部材
  6
DOT
 10
0.0
 20
0.0
  0
LINE
  8
別途部材
  6
DOT
 62
    96
 10
88.218267
 20
32.89514
 11
88.642533
 21
31.905192
  0
INSERT
  2
*GRP_0028
  8
別途部材
  6
DOT
 10
0.0
 20
0.0
  0
LINE
  8
別途部材
  6
DOT
 10
88.642533
 20
31.905192
 11
112.778445
 21
56.041105
  0
LINE
  8
別途部材
  6
DOT
 62
    96
 10
88.218267
 20
32.89514
 11
111.788495
 21
56.465367
  0
ARC
  8
別途部材
  6
DOT
 10
106.603044
 20
38.080592
 40
17.666667
 50
76.890792
 51
193.109208
  0
ENDBLK
  0
BLOCK
  2
*DIM_0018
 70
    65
 10
0.0
 20
0.0
  0
LINE
  8
寸法
  6
CONTINUOUS
 10
70.09911
 20
22.814033
 11
70.09911
 21
52.814033
  0
POINT
  8
寸法
 10
70.09911
 20
22.814033
 50
-90.0
  0
POINT
  8
寸法
 10
70.09911
 20
52.814033
 50
-90.0
  0
TEXT
  7
TextStyle03
  8
寸法
  6
CONTINUOUS
 10
69.75
 20
26.925
  1
呼称寸法　900
 40
3.0
 50
90.0
 72
     5
 11
69.75
 21
48.675
  0
ENDBLK
  0
BLOCK
  2
*DIM_0019
 70
    65
 10
0.0
 20
0.0
  0
LINE
  8
寸法
  6
CONTINUOUS
 10
115.7465
 20
16.314018
 11
70.09911
 21
16.314018
  0
LINE
  8
寸法
  6
CONTINUOUS
 10
70.09911
 20
22.814033
 11
70.09911
 21
16.314018
  0
POINT
  8
寸法
 10
70.09911
 20
22.814033
  0
POINT
  8
寸法
 10
70.09911
 20
16.314018
  0
TEXT
  7
TextStyle03
  8
寸法
  6
CONTINUOUS
 10
69.725
 20
18.075
  1
※
 40
3.0
 50
90.0
 72
     5
 11
69.725
 21
21.075
  0
ENDBLK
  0
BLOCK
  2
*DIM_0020
 70
    65
 10
0.0
 20
0.0
  0
LINE
  8
寸法
  6
CONTINUOUS
 10
115.7465
 20
59.314048
 11
70.09911
 21
59.314048
  0
LINE
  8
寸法
  6
CONTINUOUS
 10
70.09911
 20
52.814033
 11
70.09911
 21
59.314048
  0
POINT
  8
寸法
 10
70.09911
 20
52.814033
  0
POINT
  8
寸法
 10
70.09911
 20
59.314048
  0
TEXT
  7
TextStyle03
  8
寸法
  6
CONTINUOUS
 10
69.725
 20
54.575
  1
※
 40
3.0
 50
90.0
 72
     5
 11
69.725
 21
57.575
  0
ENDBLK
  0
BLOCK
  2
*DIM_0021
 70
    65
 10
0.0
 20
0.0
  0
LINE
  8
寸法
  6
CONTINUOUS
 10
102.246498
 20
38.814033
 11
102.246498
 21
75.913455
  0
LINE
  8
寸法
  6
CONTINUOUS
 10
110.57983
 20
55.480703
 11
110.57983
 21
75.913455
  0
LINE
  8
寸法
  6
CONTINUOUS
 10
102.246498
 20
75.913455
 11
110.57983
 21
75.913455
  0
POINT
  8
寸法
 10
102.246498
 20
75.913455
  0
POINT
  8
寸法
 10
110.57983
 20
75.913455
  0
TEXT
  7
TextStyle03
  8
寸法
  6
CONTINUOUS
 10
103.9875
 20
76.3
  1
250
 40
3.0
 72
     5
 11
108.8625
 21
76.3
  0
ENDBLK
  0
BLOCK
  2
*DIM_0022
 70
    65
 10
0.0
 20
0.0
  0
LINE
  8
寸法
  6
CONTINUOUS
 10
116.07983
 20
54.814048
 11
116.07983
 21
75.913455
  0
LINE
  8
寸法
  6
CONTINUOUS
 10
110.57983
 20
75.913455
 11
116.07983
 21
75.913455
  0
POINT
  8
寸法
 10
116.07983
 20
75.913455
  0
TEXT
  7
TextStyle03
  8
寸法
  6
CONTINUOUS
 10
110.8875
 20
76.3
  1
165
 40
3.0
 72
     5
 11
115.7625
 21
76.3
  0
ENDBLK
  0
BLOCK
  2
*DIM_0023
 70
    65
 10
0.0
 20
0.0
  0
LINE
  8
寸法
  6
CONTINUOUS
 10
119.07983
 20
60.314048
 11
119.07983
 21
75.913455
  0
LINE
  8
寸法
  6
CONTINUOUS
 10
116.07983
 20
75.913455
 11
119.07983
 21
75.913455
  0
POINT
  8
寸法
 10
119.07983
 20
75.913455
  0
TEXT
  7
TextStyle03
  8
寸法
  6
CONTINUOUS
 10
116.075
 20
76.3
  1
※
 40
3.0
 72
     5
 11
119.075
 21
76.3
  0
ENDBLK
  0
BLOCK
  2
*GRP_0024
 70
    65
 10
0.0
 20
0.0
  0
LINE
  8
ボルト／ビス
  6
CONTINUOUS
 10
110.579832
 20
53.480703
 11
110.113165
 21
53.480703
  0
LINE
  8
ボルト／ビス
  6
CONTINUOUS
 10
110.579832
 20
53.84737
 11
110.513165
 21
53.84737
  0
LINE
  8
ボルト／ビス
  6
CONTINUOUS
 10
110.513165
 20
53.84737
 11
110.513165
 21
53.114035
  0
LINE
  8
ボルト／ビス
  6
CONTINUOUS
 10
110.513165
 20
53.114035
 11
110.579832
 21
53.114035
  0
LINE
  8
ボルト／ビス
  6
CONTINUOUS
 10
110.579832
 20
53.84737
 11
110.579832
 21
53.114035
  0
LINE
  8
ボルト／ビス
  6
CONTINUOUS
 10
110.479832
 20
53.780703
 11
110.513165
 21
53.780703
  0
LINE
  8
ボルト／ビス
  6
CONTINUOUS
 10
110.479832
 20
53.780703
 11
110.479832
 21
53.180703
  0
LINE
  8
ボルト／ビス
  6
CONTINUOUS
 10
110.479832
 20
53.180703
 11
110.513165
 21
53.180703
  0
LINE
  8
ボルト／ビス
  6
CONTINUOUS
 62
    64
 10
110.279832
 20
53.641078
 11
110.291508
 21
53.673152
  0
ARC
  8
ボルト／ビス
  6
CONTINUOUS
 62
    64
 10
110.384812
 20
53.625043
 40
0.104978
 50
180.0
 51
207.278033
  0
ARC
  8
ボルト／ビス
  6
CONTINUOUS
 62
    64
 10
110.682236
 20
53.480706
 40
0.402402
 50
166.165015
 51
193.834998
  0
LINE
  8
ボルト／ビス
  6
CONTINUOUS
 62
    64
 10
110.279832
 20
53.320327
 11
110.291508
 21
53.288253
  0
ARC
  8
ボルト／ビス
  6
CONTINUOUS
 62
    64
 10
110.384812
 20
53.336368
 40
0.104978
 50
152.721967
 51
180.0
  0
LINE
  8
ボルト／ビス
  6
CONTINUOUS
 62
    64
 10
110.279832
 20
53.641078
 11
110.279832
 21
53.320327
  0
LINE
  8
ボルト／ビス
  6
CONTINUOUS
 62
    64
 10
110.291508
 20
53.288253
 11
110.413165
 21
53.288253
  0
LINE
  8
ボルト／ビス
  6
CONTINUOUS
 62
    64
 10
110.291508
 20
53.384477
 11
110.413165
 21
53.384477
  0
LINE
  8
ボルト／ビス
  6
CONTINUOUS
 62
    64
 10
110.291508
 20
53.673152
 11
110.413165
 21
53.673152
  0
LINE
  8
ボルト／ビス
  6
CONTINUOUS
 62
    64
 10
110.291508
 20
53.576928
 11
110.413165
 21
53.576928
  0
LINE
  8
ボルト／ビス
  6
CONTINUOUS
 10
110.413165
 20
53.673152
 11
110.413165
 21
53.288253
  0
LINE
  8
ボルト／ビス
  6
CONTINUOUS
 10
110.413165
 20
53.680703
 11
110.479832
 21
53.680703
  0
LINE
  8
ボルト／ビス
  6
CONTINUOUS
 10
110.413165
 20
53.680703
 11
110.413165
 21
53.280703
  0
LINE
  8
ボルト／ビス
  6
CONTINUOUS
 10
110.413165
 20
53.280703
 11
110.479832
 21
53.280703
  0
ENDBLK
  0
BLOCK
  2
*GRP_0025
 70
    65
 10
0.0
 20
0.0
  0
LINE
  8
ボルト／ビス
  6
CONTINUOUS
 10
110.579832
 20
22.147365
 11
110.113165
 21
22.147365
  0
LINE
  8
ボルト／ビス
  6
CONTINUOUS
 10
110.579832
 20
21.780697
 11
110.513165
 21
21.780697
  0
LINE
  8
ボルト／ビス
  6
CONTINUOUS
 10
110.513165
 20
21.780697
 11
110.513165
 21
22.514033
  0
LINE
  8
ボルト／ビス
  6
CONTINUOUS
 10
110.513165
 20
22.514033
 11
110.579832
 21
22.514033
  0
LINE
  8
ボルト／ビス
  6
CONTINUOUS
 10
110.579832
 20
21.780697
 11
110.579832
 21
22.514033
  0
LINE
  8
ボルト／ビス
  6
CONTINUOUS
 10
110.479832
 20
21.847365
 11
110.513165
 21
21.847365
  0
LINE
  8
ボルト／ビス
  6
CONTINUOUS
 10
110.479832
 20
21.847365
 11
110.479832
 21
22.447365
  0
LINE
  8
ボルト／ビス
  6
CONTINUOUS
 10
110.479832
 20
22.447365
 11
110.513165
 21
22.447365
  0
LINE
  8
ボルト／ビス
  6
CONTINUOUS
 62
    64
 10
110.279832
 20
21.98699
 11
110.291508
 21
21.954915
  0
ARC
  8
ボルト／ビス
  6
CONTINUOUS
 62
    64
 10
110.384812
 20
22.003029
 40
0.104978
 50
152.721967
 51
180.0
  0
ARC
  8
ボルト／ビス
  6
CONTINUOUS
 62
    64
 10
110.682236
 20
22.147367
 40
0.402402
 50
166.165002
 51
193.834985
  0
LINE
  8
ボルト／ビス
  6
CONTINUOUS
 62
    64
 10
110.279832
 20
22.30774
 11
110.291508
 21
22.339815
  0
ARC
  8
ボルト／ビス
  6
CONTINUOUS
 62
    64
 10
110.384812
 20
22.291705
 40
0.104978
 50
180.0
 51
207.278033
  0
LINE
  8
ボルト／ビス
  6
CONTINUOUS
 62
    64
 10
110.279832
 20
21.98699
 11
110.279832
 21
22.30774
  0
LINE
  8
ボルト／ビス
  6
CONTINUOUS
 62
    64
 10
110.291508
 20
22.339815
 11
110.413165
 21
22.339815
  0
LINE
  8
ボルト／ビス
  6
CONTINUOUS
 62
    64
 10
110.291508
 20
22.24359
 11
110.413165
 21
22.24359
  0
LINE
  8
ボルト／ビス
  6
CONTINUOUS
 62
    64
 10
110.291508
 20
21.954915
 11
110.413165
 21
21.954915
  0
LINE
  8
ボルト／ビス
  6
CONTINUOUS
 62
    64
 10
110.291508
 20
22.05114
 11
110.413165
 21
22.05114
  0
LINE
  8
ボルト／ビス
  6
CONTINUOUS
 10
110.413165
 20
21.954915
 11
110.413165
 21
22.339815
  0
LINE
  8
ボルト／ビス
  6
CONTINUOUS
 10
110.413165
 20
21.947365
 11
110.479832
 21
21.947365
  0
LINE
  8
ボルト／ビス
  6
CONTINUOUS
 10
110.413165
 20
21.947365
 11
110.413165
 21
22.347365
  0
LINE
  8
ボルト／ビス
  6
CONTINUOUS
 10
110.413165
 20
22.347365
 11
110.479832
 21
22.347365
  0
ENDBLK
  0
BLOCK
  2
*GRP_0026
 70
    65
 10
0.0
 20
0.0
  0
INSERT
  2
*GRP_0029
  8
補助線
  6
CONTINUOUS
 10
0.0
 20
0.0
  0
CIRCLE
  8
別途部材
  6
CONTINUOUS
 10
113.57987
 20
54.014048
 40
0.2
  0
CIRCLE
  8
別途部材
  6
CONTINUOUS
 10
113.57987
 20
54.014048
 40
0.1
  0
LINE
  8
別途部材
  6
CONTINUOUS
 10
112.17987
 20
53.914048
 11
112.17987
 21
53.814048
  0
LINE
  8
別途部材
  6
CONTINUOUS
 10
113.57987
 20
53.814048
 11
112.17987
 21
53.814048
  0
LINE
  8
別途部材
  6
CONTINUOUS
 10
112.17987
 20
53.914048
 11
113.406665
 21
53.914048
  0
LINE
  8
別途部材
  6
CONTINUOUS
 10
114.97987
 20
53.914048
 11
114.97987
 21
53.814048
  0
LINE
  8
別途部材
  6
CONTINUOUS
 10
113.57987
 20
53.814048
 11
114.97987
 21
53.814048
  0
LINE
  8
別途部材
  6
CONTINUOUS
 10
114.97987
 20
53.914048
 11
113.753075
 21
53.914048
  0
LINE
  8
別途部材
  6
CONTINUOUS
 10
112.446535
 20
53.914048
 11
112.446535
 21
53.814048
  0
LINE
  8
別途部材
  6
CONTINUOUS
 10
112.7132
 20
53.914048
 11
112.7132
 21
53.814048
  0
LINE
  8
別途部材
  6
CONTINUOUS
 10
112.97987
 20
53.914048
 11
112.97987
 21
53.814048
  0
LINE
  8
別途部材
  6
CONTINUOUS
 10
114.7132
 20
53.914048
 11
114.7132
 21
53.814048
  0
LINE
  8
別途部材
  6
CONTINUOUS
 10
114.446535
 20
53.914048
 11
114.446535
 21
53.814048
  0
LINE
  8
別途部材
  6
CONTINUOUS
 10
114.17987
 20
53.914048
 11
114.17987
 21
53.814048
  0
ENDBLK
  0
BLOCK
  2
*GRP_0027
 70
    65
 10
0.0
 20
0.0
  0
LINE
  8
ボルト／ビス
  6
DOT
 10
111.08139
 20
55.758262
 11
110.751407
 21
56.088245
  0
LINE
  8
ボルト／ビス
  6
DOT
 10
111.340665
 20
56.017535
 11
111.293522
 21
56.064677
  0
LINE
  8
ボルト／ビス
  6
DOT
 10
111.293522
 20
56.064677
 11
110.774978
 21
55.54613
  0
LINE
  8
ボルト／ビス
  6
DOT
 10
110.774978
 20
55.54613
 11
110.82212
 21
55.498987
  0
LINE
  8
ボルト／ビス
  6
DOT
 10
111.340665
 20
56.017535
 11
110.82212
 21
55.498987
  0
LINE
  8
ボルト／ビス
  6
DOT
 10
111.222812
 20
56.041102
 11
111.24638
 21
56.017535
  0
LINE
  8
ボルト／ビス
  6
DOT
 10
111.222812
 20
56.041102
 11
110.798547
 21
55.61684
  0
LINE
  8
ボルト／ビス
  6
DOT
 10
110.798547
 20
55.61684
 11
110.822118
 21
55.59327
  0
LINE
  8
ボルト／ビス
  6
DOT
 62
    64
 10
110.98266
 20
56.083795
 11
111.013597
 21
56.09822
  0
ARC
  8
ボルト／ビス
  6
DOT
 62
    64
 10
111.045555
 20
55.998227
 40
0.104978
 50
135.0
 51
162.278033
  0
ARC
  8
ボルト／ビス
  6
DOT
 62
    64
 10
111.153803
 20
55.685854
 40
0.402402
 50
121.165015
 51
148.834998
  0
LINE
  8
ボルト／ビス
  6
DOT
 62
    64
 10
110.755857
 20
55.856992
 11
110.741432
 21
55.826055
  0
ARC
  8
ボルト／ビス
  6
DOT
 62
    64
 10
110.84143
 20
55.794103
 40
0.104978
 50
107.721967
 51
135.0
  0
LINE
  8
ボルト／ビス
  6
DOT
 62
    64
 10
110.98266
 20
56.083795
 11
110.755857
 21
55.856992
  0
LINE
  8
ボルト／ビス
  6
DOT
 62
    64
 10
110.741432
 20
55.826055
 11
110.827455
 21
55.74003
  0
LINE
  8
ボルト／ビス
  6
DOT
 62
    64
 10
110.809473
 20
55.894097
 11
110.895498
 21
55.808072
  0
LINE
  8
ボルト／ビス
  6
DOT
 62
    64
 10
111.013597
 20
56.09822
 11
111.09962
 21
56.012197
  0
LINE
  8
ボルト／ビス
  6
DOT
 62
    64
 10
110.945555
 20
56.030177
 11
111.03158
 21
55.944155
  0
LINE
  8
ボルト／ビス
  6
DOT
 10
111.09962
 20
56.012197
 11
110.827455
 21
55.74003
  0
LINE
  8
ボルト／ビス
  6
DOT
 10
111.10496
 20
56.017535
 11
111.152103
 21
55.970392
  0
LINE
  8
ボルト／ビス
  6
DOT
 10
111.10496
 20
56.017535
 11
110.822118
 21
55.734692
  0
LINE
  8
ボルト／ビス
  6
DOT
 10
110.822118
 20
55.734692
 11
110.86926
 21
55.68755
  0
ENDBLK
  0
BLOCK
  2
*GRP_0028
 70
    65
 10
0.0
 20
0.0
  0
LINE
  8
ボルト／ビス
  6
DOT
 10
88.925375
 20
33.602247
 11
88.595392
 21
33.93223
  0
LINE
  8
ボルト／ビス
  6
DOT
 10
88.666102
 20
33.342972
 11
88.61896
 21
33.390115
  0
LINE
  8
ボルト／ビス
  6
DOT
 10
88.61896
 20
33.390115
 11
89.137507
 21
33.90866
  0
LINE
  8
ボルト／ビス
  6
DOT
 10
89.137507
 20
33.90866
 11
89.18465
 21
33.861518
  0
LINE
  8
ボルト／ビス
  6
DOT
 10
88.666102
 20
33.342972
 11
89.18465
 21
33.861518
  0
LINE
  8
ボルト／ビス
  6
DOT
 10
88.642535
 20
33.460825
 11
88.666102
 21
33.437255
  0
LINE
  8
ボルト／ビス
  6
DOT
 10
88.642535
 20
33.460825
 11
89.066798
 21
33.885088
  0
LINE
  8
ボルト／ビス
  6
DOT
 10
89.066798
 20
33.885088
 11
89.090365
 21
33.86152
  0
LINE
  8
ボルト／ビス
  6
DOT
 62
    64
 10
88.599842
 20
33.700978
 11
88.585418
 21
33.67004
  0
ARC
  8
ボルト／ビス
  6
DOT
 62
    64
 10
88.685414
 20
33.638086
 40
0.104978
 50
107.721967
 51
135.0
  0
ARC
  8
ボルト／ビス
  6
DOT
 62
    64
 10
88.997787
 20
33.529838
 40
0.402402
 50
121.165002
 51
148.834985
  0
LINE
  8
ボルト／ビス
  6
DOT
 62
    64
 10
88.826645
 20
33.92778
 11
88.857582
 21
33.942205
  0
ARC
  8
ボルト／ビス
  6
DOT
 62
    64
 10
88.889538
 20
33.84221
 40
0.104978
 50
135.0
 51
162.278033
  0
LINE
  8
ボルト／ビス
  6
DOT
 62
    64
 10
88.599842
 20
33.700978
 11
88.826645
 21
33.92778
  0
LINE
  8
ボルト／ビス
  6
DOT
 62
    64
 10
88.857582
 20
33.942205
 11
88.943605
 21
33.856183
  0
LINE
  8
ボルト／ビス
  6
DOT
 62
    64
 10
88.78954
 20
33.874163
 11
88.875565
 21
33.78814
  0
LINE
  8
ボルト／ビス
  6
DOT
 62
    64
 10
88.585418
 20
33.67004
 11
88.67144
 21
33.584017
  0
LINE
  8
ボルト／ビス
  6
DOT
 62
    64
 10
88.653457
 20
33.738083
 11
88.739482
 21
33.652058
  0
LINE
  8
ボルト／ビス
  6
DOT
 10
88.67144
 20
33.584017
 11
88.943605
 21
33.856183
  0
LINE
  8
ボルト／ビス
  6
DOT
 10
88.666102
 20
33.578678
 11
88.713245
 21
33.531535
  0
LINE
  8
ボルト／ビス
  6
DOT
 10
88.666102
 20
33.578678
 11
88.948945
 21
33.86152
  0
LINE
  8
ボルト／ビス
  6
DOT
 10
88.948945
 20
33.86152
 11
88.996088
 21
33.814378
  0
ENDBLK
  0
BLOCK
  2
*GRP_0029
 70
    65
 10
0.0
 20
0.0
  0
LINE
  8
補助線
  6
BYBLOCK
 62
     0
 10
113.57987
 20
53.84738
 11
113.57987
 21
54.180712
  0
LINE
  8
補助線
  6
BYBLOCK
 62
     0
 10
113.4132
 20
54.014048
 11
113.746535
 21
54.014048
  0
ENDBLK
  0
BLOCK
  2
*DIM_0030
 70
    65
 10
0.0
 20
0.0
  0
LINE
  8
寸法
  6
CONTINUOUS
 10
117.33246
 20
-42.523355
 11
124.726445
 21
-42.523355
  0
LINE
  8
寸法
  6
CONTINUOUS
 10
117.33246
 20
-72.523355
 11
124.726445
 21
-72.523355
  0
LINE
  8
寸法
  6
CONTINUOUS
 10
124.726445
 20
-42.523355
 11
124.726445
 21
-72.523355
  0
POINT
  8
寸法
 10
124.726445
 20
-42.523355
  0
POINT
  8
寸法
 10
124.726445
 20
-72.523355
  0
TEXT
  7
TextStyle03
  8
寸法
  6
CONTINUOUS
 10
124.35
 20
-59.9625
  1
900
 40
3.0
 50
90.0
 72
     5
 11
124.35
 21
-55.0875
  0
ENDBLK
  0
BLOCK
  2
*DIM_0031
 70
    65
 10
0.0
 20
0.0
  0
LINE
  8
寸法
  6
CONTINUOUS
 10
116.33246
 20
-41.523355
 11
116.33246
 21
-32.550385
  0
LINE
  8
寸法
  6
CONTINUOUS
 10
83.749128
 20
-41.523355
 11
83.749128
 21
-32.550385
  0
LINE
  8
寸法
  6
CONTINUOUS
 10
116.33246
 20
-32.550385
 11
83.749128
 21
-32.550385
  0
POINT
  8
寸法
 10
116.33246
 20
-32.550385
  0
POINT
  8
寸法
 10
83.749128
 20
-32.550385
  0
TEXT
  7
TextStyle03
  8
寸法
  6
CONTINUOUS
 10
95.9
 20
-32.2
  1
977.5
 40
3.0
 72
     5
 11
104.15
 21
-32.2
  0
ENDBLK
  0
ENDSEC
  0
SECTION
  2
ENTITIES
  0
POLYLINE
  8
通り芯
  6
CONTINUOUS
 66
     1
 70
     1
  0
VERTEX
  8
通り芯
 10
-210.0
 20
-148.5
  0
VERTEX
  8
通り芯
 10
210.0
 20
-148.5
  0
VERTEX
  8
通り芯
 10
210.0
 20
148.5
  0
VERTEX
  8
通り芯
 10
-210.0
 20
148.5
  0
SEQEND
  0
INSERT
  2
*GRP_0001
  8
型材断面
  6
CONTINUOUS
 10
0.0
 20
0.0
  0
LINE
  8
型材断面
  6
DASHDOT
 10
21.403067
 20
-77.836442
 11
21.403067
 21
52.814033
  0
LINE
  8
型材断面
  6
DASHDOT
 10
-11.930265
 20
-77.836442
 11
-11.930265
 21
52.814033
  0
LINE
  8
型材断面
  6
DASHDOT
 10
-45.2636
 20
-77.836442
 11
-45.2636
 21
52.814033
  0
LINE
  8
型材断面
  6
DASHDOT
 10
119.07983
 20
52.814033
 11
-45.2636
 21
52.814033
  0
LINE
  8
型材断面
  6
DASHDOT
 10
119.07983
 20
37.814033
 11
-45.2636
 21
37.814033
  0
LINE
  8
型材断面
  6
DASHDOT
 10
119.07983
 20
22.814033
 11
-45.2636
 21
22.814033
  0
LINE
  8
型材断面
  6
CONTINUOUS
 10
-28.596933
 20
55.444162
 11
-30.092562
 21
58.03467
  0
LINE
  8
型材断面
  6
CONTINUOUS
 10
-28.596933
 20
55.444162
 11
-27.101303
 21
58.03467
  0
LINE
  8
型材断面
  6
CONTINUOUS
 10
-27.101303
 20
58.03467
 11
-30.092562
 21
58.03467
  0
LINE
  8
型材断面
  6
CONTINUOUS
 10
-47.89373
 20
37.814033
 11
-50.484238
 21
39.309663
  0
LINE
  8
型材断面
  6
CONTINUOUS
 10
-47.89373
 20
37.814033
 11
-50.484238
 21
36.318403
  0
LINE
  8
型材断面
  6
CONTINUOUS
 10
-50.484238
 20
36.318403
 11
-50.484238
 21
39.309663
  0
LINE
  8
型材断面
  6
CONTINUOUS
 10
-28.596933
 20
20.183902
 11
-30.092562
 21
17.593395
  0
LINE
  8
型材断面
  6
CONTINUOUS
 10
-28.596933
 20
20.183902
 11
-27.101303
 21
17.593395
  0
LINE
  8
型材断面
  6
CONTINUOUS
 10
-27.101303
 20
17.593395
 11
-30.092562
 21
17.593395
  0
LINE
  8
型材断面
  6
CONTINUOUS
 10
-99.142122
 20
90.791505
 11
-98.546068
 21
88.200998
  0
LINE
  8
型材断面
  6
CONTINUOUS
 10
-99.142122
 20
90.791505
 11
-99.73818
 21
88.200998
  0
LINE
  8
型材断面
  6
CONTINUOUS
 10
-99.73818
 20
88.200998
 11
-98.546068
 21
88.200998
  0
LINE
  8
型材断面
  6
CONTINUOUS
 10
-105.16471
 20
84.922105
 11
-58.922933
 21
84.922105
  0
LINE
  8
型材断面
  6
CONTINUOUS
 10
-99.142122
 20
97.32138
 11
-100.637752
 21
94.730873
  0
LINE
  8
型材断面
  6
CONTINUOUS
 10
-99.142122
 20
97.32138
 11
-97.646493
 21
94.730873
  0
LINE
  8
型材断面
  6
CONTINUOUS
 10
-97.646493
 20
94.730873
 11
-100.637752
 21
94.730873
  0
LINE
  8
型材断面
  6
CONTINUOUS
 10
-105.16471
 20
93.792277
 11
-58.922933
 21
93.792277
  0
LINE
  8
型材断面
  6
CONTINUOUS
 10
-105.16471
 20
79.134073
 11
-58.922933
 21
79.134073
  0
LINE
  8
型材断面
  6
CONTINUOUS
 10
4.736403
 20
55.444162
 11
6.232033
 21
58.03467
  0
LINE
  8
型材断面
  6
CONTINUOUS
 10
4.736403
 20
55.444162
 11
3.240772
 21
58.03467
  0
LINE
  8
型材断面
  6
CONTINUOUS
 10
3.240772
 20
58.03467
 11
6.232033
 21
58.03467
  0
LINE
  8
型材断面
  6
CONTINUOUS
 10
24.0332
 20
37.814033
 11
26.623707
 21
39.309663
  0
LINE
  8
型材断面
  6
CONTINUOUS
 10
24.0332
 20
37.814033
 11
26.623707
 21
36.318403
  0
LINE
  8
型材断面
  6
CONTINUOUS
 10
26.623707
 20
36.318403
 11
26.623707
 21
39.309663
  0
LINE
  8
型材断面
  6
CONTINUOUS
 10
4.736403
 20
20.183902
 11
6.232033
 21
17.593395
  0
LINE
  8
型材断面
  6
CONTINUOUS
 10
4.736403
 20
20.183902
 11
3.240772
 21
17.593395
  0
LINE
  8
型材断面
  6
CONTINUOUS
 10
3.240772
 20
17.593395
 11
6.232033
 21
17.593395
  0
LINE
  8
型材断面
  6
CONTINUOUS
 10
19.403067
 20
20.20722
 11
18.80701
 21
17.616715
  0
LINE
  8
型材断面
  6
CONTINUOUS
 10
19.403067
 20
20.20722
 11
19.999125
 21
17.616715
  0
LINE
  8
型材断面
  6
CONTINUOUS
 10
19.999125
 20
17.616715
 11
18.80701
 21
17.616715
  0
LINE
  8
型材断面
  6
CONTINUOUS
 10
-43.263598
 20
20.20722
 11
-42.66754
 21
17.616715
  0
LINE
  8
型材断面
  6
CONTINUOUS
 10
-43.263598
 20
20.20722
 11
-43.859655
 21
17.616715
  0
LINE
  8
型材断面
  6
CONTINUOUS
 10
-43.859655
 20
17.616715
 11
-42.66754
 21
17.616715
  0
LINE
  8
型材断面
  6
CONTINUOUS
 10
-51.763615
 20
16.314018
 11
-47.33027
 21
20.747363
  0
LINE
  8
型材断面
  6
CONTINUOUS
 10
23.469737
 20
20.747363
 11
27.903082
 21
16.314018
  0
LINE
  8
型材断面
  6
CONTINUOUS
 10
27.903082
 20
16.314018
 11
-51.763615
 21
16.314018
  0
LINE
  8
型材断面
  6
CONTINUOUS
 10
-47.33027
 20
54.880703
 11
-51.763615
 21
59.314048
  0
LINE
  8
型材断面
  6
CONTINUOUS
 10
-51.763615
 20
16.314018
 11
-51.763615
 21
59.314048
  0
LINE
  8
型材断面
  6
CONTINUOUS
 10
23.469737
 20
54.880703
 11
27.903082
 21
59.314048
  0
LINE
  8
型材断面
  6
CONTINUOUS
 10
27.903082
 20
59.314048
 11
27.903082
 21
16.314018
  0
LINE
  8
型材断面
  6
CONTINUOUS
 10
27.903082
 20
59.314048
 11
-51.763615
 21
59.314048
  0
POLYLINE
  8
型材断面
  6
DASHDOT
 66
     1
  0
VERTEX
  8
型材断面
 10
-45.2636
 20
22.814033
  0
VERTEX
  8
型材断面
 10
-11.930265
 20
52.814033
  0
VERTEX
  8
型材断面
 10
21.403067
 20
22.814033
  0
SEQEND
  0
LINE
  8
型材断面
  6
DOT
 10
-13.096933
 20
52.814033
 11
-13.096933
 21
22.814033
  0
LINE
  8
型材断面
  6
DOT
 10
-10.763598
 20
52.814033
 11
-10.763598
 21
22.814033
  0
LINE
  8
型材断面
  6
DASHDOT
 10
-11.930265
 20
52.814033
 11
-11.930265
 21
22.814033
  0
LINE
  8
型材断面
  6
CONTINUOUS
 62
    47
 10
-46.263615
 20
-71.209613
 11
-46.263615
 21
-73.109652
  0
LINE
  8
型材断面
  6
CONTINUOUS
 10
-46.263615
 20
-73.309652
 11
-46.263615
 21
-75.709613
  0
LINE
  8
型材断面
  6
CONTINUOUS
 10
-46.263615
 20
-75.709613
 11
-51.763615
 21
-76.376282
  0
LINE
  8
型材断面
  6
CONTINUOUS
 10
-51.763615
 20
-78.709613
 11
-51.763615
 21
-76.376282
  0
LINE
  8
型材断面
  6
CONTINUOUS
 62
    47
 10
22.403082
 20
-71.209613
 11
22.403082
 21
-73.109652
  0
LINE
  8
型材断面
  6
CONTINUOUS
 10
22.403082
 20
-73.309652
 11
22.403082
 21
-75.709613
  0
LINE
  8
型材断面
  6
CONTINUOUS
 10
22.403082
 20
-75.709613
 11
27.903082
 21
-76.376282
  0
LINE
  8
型材断面
  6
CONTINUOUS
 10
27.903082
 20
-78.709613
 11
27.903082
 21
-76.376282
  0
LINE
  8
型材断面
  6
CONTINUOUS
 10
-51.763615
 20
-78.709613
 11
27.903082
 21
-78.709613
  0
LINE
  8
型材断面
  6
CONTINUOUS
 10
-51.763615
 20
-76.376282
 11
27.903082
 21
-76.376282
  0
LINE
  8
型材断面
  6
CONTINUOUS
 10
22.403082
 20
-73.109652
 11
-46.263615
 21
-73.109652
  0
LINE
  8
型材断面
  6
CONTINUOUS
 10
22.403082
 20
-73.309652
 11
-46.263615
 21
-73.309652
  0
LINE
  8
型材断面
  6
CONTINUOUS
 10
22.403082
 20
-75.709613
 11
-46.263615
 21
-75.709613
  0
LINE
  8
型材断面
  6
CONTINUOUS
 62
    47
 10
111.57983
 20
53.814048
 11
113.47987
 21
53.814048
  0
LINE
  8
型材断面
  6
CONTINUOUS
 10
113.67987
 20
53.814048
 11
116.07983
 21
53.814048
  0
LINE
  8
型材断面
  6
CONTINUOUS
 10
116.07983
 20
53.814048
 11
116.7465
 21
59.314048
  0
LINE
  8
型材断面
  6
CONTINUOUS
 10
119.07983
 20
59.314048
 11
116.7465
 21
59.314048
  0
LINE
  8
型材断面
  6
CONTINUOUS
 62
    47
 10
111.57983
 20
21.814018
 11
113.47987
 21
21.814018
  0
LINE
  8
型材断面
  6
CONTINUOUS
 10
113.67987
 20
21.814018
 11
116.07983
 21
21.814018
  0
LINE
  8
型材断面
  6
CONTINUOUS
 10
116.07983
 20
21.814018
 11
116.7465
 21
16.314018
  0
LINE
  8
型材断面
  6
CONTINUOUS
 10
119.07983
 20
16.314018
 11
116.7465
 21
16.314018
  0
LINE
  8
型材断面
  6
CONTINUOUS
 10
119.07983
 20
59.314048
 11
119.07983
 21
16.314018
  0
LINE
  8
型材断面
  6
CONTINUOUS
 10
116.7465
 20
59.314048
 11
116.7465
 21
16.314018
  0
LINE
  8
型材断面
  6
CONTINUOUS
 10
113.47987
 20
21.814018
 11
113.47987
 21
53.814048
  0
LINE
  8
型材断面
  6
CONTINUOUS
 10
113.67987
 20
21.814018
 11
113.67987
 21
53.814048
  0
LINE
  8
型材断面
  6
CONTINUOUS
 10
116.07983
 20
21.814018
 11
116.07983
 21
53.814048
  0
INSERT
  2
*GRP_0017
  8
型材断面
  6
DASHDOT
 10
0.0
 20
0.0
  0
ARC
  8
型材断面
  6
DASHDOT
 10
113.579869
 20
54.014048
 40
33.003318
 50
219.78455
 51
264.78455
  0
LINE
  8
ガラス
  6
CONTINUOUS
 10
116.33246
 20
-42.523355
 11
83.749128
 21
-42.523355
  0
LINE
  8
ガラス
  6
CONTINUOUS
 10
83.749128
 20
-42.523355
 11
83.749128
 21
-72.523355
  0
LINE
  8
ガラス
  6
CONTINUOUS
 10
83.749128
 20
-72.523355
 11
116.33246
 21
-72.523355
  0
LINE
  8
ガラス
  6
CONTINUOUS
 10
116.33246
 20
-42.523355
 11
116.33246
 21
-72.523355
  0
TEXT
  7
TextStyle03
  8
文字
  6
CONTINUOUS
 10
-96.375
 20
94.925
  1
は排水穴位置を示す
 40
3.0
 72
     5
 11
-66.375
 21
94.925
  0
TEXT
  7
TextStyle03
  8
文字
  6
CONTINUOUS
 10
97.975
 20
-65.475
  1
網入り6.8t
 40
3.0
 72
     5
 11
114.6625
 21
-65.475
  0
TEXT
  7
TextStyle03
  8
文字
  6
CONTINUOUS
 10
104.65
 20
-70.15
  1
×２枚
 40
3.0
 72
     5
 11
114.4
 21
-70.15
  0
TEXT
  7
TextStyle03
  8
文字
  6
CONTINUOUS
 10
-96.375
 20
89.4
  1
はケーシング位置を示す
 40
3.0
 72
     5
 11
-59.625
 21
89.4
  0
TEXT
  7
TextStyle03
  8
文字
  6
CONTINUOUS
 10
-96.375
 20
86.025
  1
２ヶ所中1ヶ所に設定
 40
3.0
 72
     5
 11
-64.6875
 21
86.025
  0
TEXT
  7
TextStyle03
  8
文字
  6
CONTINUOUS
 10
-66.275
 20
16.275
  1
アンカーピッチ
 40
3.0
 50
90.0
 72
     5
 11
-66.275
 21
39.525
  0
TEXT
  7
TextStyle03
  8
文字
  6
CONTINUOUS
 10
-37.825
 20
89.675
  1
アンカーピッチ
 40
3.0
 72
     5
 11
-14.575
 21
89.675
  0
TEXT
  7
TextStyle03
  8
文字
  6
CONTINUOUS
 10
-100.1
 20
80.05
  1
アンカー数量　１０ヶ所
 40
3.0
 72
     5
 11
-63.35
 21
80.05
  0
TEXT
  7
TextStyle03
  8
文字
  6
CONTINUOUS
 10
78.1
 20
125.25
  1
シリーズ：ＳＴＤＨＬ
 40
5.0
 72
     5
 11
133.725
 21
125.25
  0
TEXT
  7
TextStyle03
  8
文字
  6
CONTINUOUS
 10
78.1
 20
119.625
  1
　　　　　（片側開閉）900×2000タイプ
 40
5.0
 72
     5
 11
181.5375
 21
119.625
  0
TEXT
  7
TextStyle03
  8
文字
  6
CONTINUOUS
 10
78.1
 20
114.0
  1
図面名　：外観姿図
 40
5.0
 72
     5
 11
128.1
 21
114.0
  0
TEXT
  7
TextStyle03
  8
文字
  6
CONTINUOUS
 10
78.1
 20
108.375
  1
　　　　　　
 40
5.0
 72
     5
 11
111.225
 21
108.375
  0
TEXT
  7
TextStyle03
  8
文字
  6
CONTINUOUS
 10
77.425
 20
103.975
  1
ＮＳコード：ＮＳＨＳＬ
 40
5.0
 72
     5
 11
138.675
 21
103.975
  0
TEXT
  7
TextStyle03
  8
文字
  6
CONTINUOUS
 10
24.725
 20
-89.025
  1
※は物件対応寸法
 40
3.0
 72
     5
 11
51.35
 21
-89.025
  0
TEXT
  7
TextStyle03
  8
文字
  6
CONTINUOUS
 10
98.175
 20
17.775
  1
45°
 40
3.0
 50
90.0
 72
     5
 11
98.175
 21
24.15
  0
INSERT
  2
*DIM_0002
  8
寸法
  6
CONTINUOUS
 10
0.0
 20
0.0
  0
INSERT
  2
*DIM_0003
  8
寸法
  6
CONTINUOUS
 10
0.0
 20
0.0
  0
INSERT
  2
*DIM_0004
  8
寸法
  6
CONTINUOUS
 10
0.0
 20
0.0
  0
INSERT
  2
*DIM_0005
  8
寸法
  6
CONTINUOUS
 10
0.0
 20
0.0
  0
INSERT
  2
*DIM_0006
  8
寸法
  6
CONTINUOUS
 10
0.0
 20
0.0
  0
INSERT
  2
*DIM_0007
  8
寸法
  6
CONTINUOUS
 10
0.0
 20
0.0
  0
INSERT
  2
*DIM_0008
  8
寸法
  6
CONTINUOUS
 10
0.0
 20
0.0
  0
INSERT
  2
*DIM_0012
  8
寸法
  6
CONTINUOUS
 10
0.0
 20
0.0
  0
INSERT
  2
*DIM_0013
  8
寸法
  6
CONTINUOUS
 10
0.0
 20
0.0
  0
INSERT
  2
*DIM_0014
  8
寸法
  6
CONTINUOUS
 10
0.0
 20
0.0
  0
INSERT
  2
*DIM_0015
  8
寸法
  6
CONTINUOUS
 10
0.0
 20
0.0
  0
INSERT
  2
*DIM_0016
  8
寸法
  6
CONTINUOUS
 10
0.0
 20
0.0
  0
INSERT
  2
*DIM_0018
  8
寸法
  6
CONTINUOUS
 10
0.0
 20
0.0
  0
INSERT
  2
*DIM_0019
  8
寸法
  6
CONTINUOUS
 10
0.0
 20
0.0
  0
INSERT
  2
*DIM_0020
  8
寸法
  6
CONTINUOUS
 10
0.0
 20
0.0
  0
INSERT
  2
*DIM_0021
  8
寸法
  6
CONTINUOUS
 10
0.0
 20
0.0
  0
INSERT
  2
*DIM_0022
  8
寸法
  6
CONTINUOUS
 10
0.0
 20
0.0
  0
INSERT
  2
*DIM_0023
  8
寸法
  6
CONTINUOUS
 10
0.0
 20
0.0
  0
INSERT
  2
*DIM_0030
  8
寸法
  6
CONTINUOUS
 10
0.0
 20
0.0
  0
INSERT
  2
*DIM_0031
  8
寸法
  6
CONTINUOUS
 10
0.0
 20
0.0
  0
INSERT
  2
*GRP_0009
  8
別途部材
  6
CONTINUOUS
 10
0.0
 20
0.0
  0
INSERT
  2
*GRP_0010
  8
別途部材
  6
DOT
 10
0.0
 20
0.0
  0
INSERT
  2
*GRP_0011
  8
別途部材
  6
DOT
 10
0.0
 20
0.0
  0
LINE
  8
別途部材
  6
CONTINUOUS
 10
-47.33027
 20
20.747363
 11
-45.2636
 21
22.814033
  0
LINE
  8
別途部材
  6
CONTINUOUS
 10
-45.2636
 20
22.814033
 11
-41.356005
 21
26.721628
  0
LINE
  8
別途部材
  6
CONTINUOUS
 10
21.403067
 20
22.814033
 11
23.469737
 21
20.747363
  0
LINE
  8
別途部材
  6
CONTINUOUS
 10
21.403067
 20
22.814033
 11
-45.2636
 21
22.814033
  0
LINE
  8
別途部材
  6
CONTINUOUS
 10
23.069737
 20
21.147363
 11
-46.93027
 21
21.147363
  0
LINE
  8
別途部材
  6
CONTINUOUS
 10
23.469737
 20
20.747363
 11
-47.33027
 21
20.747363
  0
LINE
  8
別途部材
  6
CONTINUOUS
 10
21.403067
 20
22.814033
 11
17.495472
 21
26.721628
  0
LINE
  8
別途部材
  6
CONTINUOUS
 10
-47.33027
 20
54.880703
 11
-45.2636
 21
52.814033
  0
LINE
  8
別途部材
  6
CONTINUOUS
 10
-45.2636
 20
52.814033
 11
-45.2636
 21
22.814033
  0
LINE
  8
別途部材
  6
CONTINUOUS
 10
-46.93027
 20
54.480703
 11
-46.93027
 21
21.147363
  0
LINE
  8
別途部材
  6
CONTINUOUS
 10
-47.33027
 20
54.880703
 11
-47.33027
 21
20.747363
  0
LINE
  8
別途部材
  6
CONTINUOUS
 10
-45.2636
 20
52.814033
 11
-41.356005
 21
48.906437
  0
LINE
  8
別途部材
  6
CONTINUOUS
 10
21.403067
 20
52.814033
 11
23.469737
 21
54.880703
  0
LINE
  8
別途部材
  6
CONTINUOUS
 10
21.403067
 20
52.814033
 11
21.403067
 21
22.814033
  0
LINE
  8
別途部材
  6
CONTINUOUS
 10
23.069737
 20
54.480703
 11
23.069737
 21
21.147363
  0
LINE
  8
別途部材
  6
CONTINUOUS
 10
23.469737
 20
54.880703
 11
23.469737
 21
20.747363
  0
LINE
  8
別途部材
  6
CONTINUOUS
 10
-45.2636
 20
52.814033
 11
21.403067
 21
52.814033
  0
LINE
  8
別途部材
  6
CONTINUOUS
 10
-46.93027
 20
54.480703
 11
23.069737
 21
54.480703
  0
LINE
  8
別途部材
  6
CONTINUOUS
 10
-47.33027
 20
54.880703
 11
23.469737
 21
54.880703
  0
LINE
  8
別途部材
  6
CONTINUOUS
 10
21.403067
 20
52.814033
 11
17.495472
 21
48.906437
  0
LINE
  8
別途部材
  6
CONTINUOUS
 62
    96
 10
110.57983
 20
54.480703
 11
111.57983
 21
54.880703
  0
INSERT
  2
*GRP_0024
  8
別途部材
  6
DOT
 10
0.0
 20
0.0
  0
LINE
  8
別途部材
  6
CONTINUOUS
 62
    96
 10
110.57983
 20
21.147365
 11
111.57983
 21
20.747365
  0
INSERT
  2
*GRP_0025
  8
別途部材
  6
DOT
 10
0.0
 20
0.0
  0
LINE
  8
別途部材
  6
CONTINUOUS
 10
111.57983
 20
20.747365
 11
111.57983
 21
54.880703
  0
LINE
  8
別途部材
  6
CONTINUOUS
 62
    96
 10
110.57983
 20
21.147365
 11
110.57983
 21
54.480703
  0
ARC
  8
別途部材
  6
CONTINUOUS
 10
119.913164
 20
37.814033
 40
17.666667
 50
121.890792
 51
238.109208
  0
INSERT
  2
*GRP_0026
  8
別途部材
  6
CONTINUOUS
 10
0.0
 20
0.0
  0
ENDSEC
  0
EOF
