  0
SECTION
  2
HEADER
  9
$EXTMIN
 10
-210.0
 20
-148.5
  9
$EXTMAX
 10
210.0
 20
148.5
  9
$PDMODE
 70
    32
  9
$PDSIZE
 40
1.5
  9
$LTSCALE
 40
10.0
  0
ENDSEC
  0
SECTION
  2
TABLES
  0
TABLE
  2
LTYPE
 70
    15
  0
LTYPE
  2
CONTINUOUS
 70
    64
  3
実線
 72
    65
 73
     0
 40
0.0
  0
LTYPE
  2
DASHED
 70
    64
  3
破線A
 72
    65
 73
     2
 40
0.6
 49
0.4
 49
-0.2
  0
LTYPE
  2
DASHEDX2
 70
    64
  3
破線B
 72
    65
 73
     2
 40
1.3
 49
0.9
 49
-0.4
  0
LTYPE
  2
DASHDOT
 70
    64
  3
１点鎖線A
 72
    65
 73
     4
 40
0.5375
 49
0.375
 49
-0.05
 49
0.0625
 49
-0.05
  0
LTYPE
  2
DASHDOTX2
 70
    64
  3
１点鎖線B
 72
    65
 73
     4
 40
1.075
 49
0.75
 49
-0.1
 49
0.125
 49
-0.1
  0
LTYPE
  2
DIVIDE2
 70
    64
  3
２点鎖線A
 72
    65
 73
     6
 40
0.5125
 49
0.3
 49
-0.0375
 49
0.05
 49
-0.0375
 49
0.05
 49
-0.0375
  0
LTYPE
  2
DIVIDE
 70
    64
  3
２点鎖線B
 72
    65
 73
     6
 40
1.05
 49
0.55
 49
-0.1
 49
0.1
 49
-0.1
 49
0.1
 49
-0.1
  0
LTYPE
  2
DOT
 70
    64
  3
点線A
 72
    65
 73
     2
 40
0.1125
 49
0.0625
 49
-0.05
  0
LTYPE
  2
DOTX2
 70
    64
  3
点線B
 72
    65
 73
     2
 40
0.275
 49
0.15
 49
-0.125
  0
LTYPE
  2
CONTINUOUS
 70
    64
  3
実線
 72
    65
 73
     0
 40
0.0
  0
LTYPE
  2
CONTINUOUS
 70
    64
  3
実線
 72
    65
 73
     0
 40
0.0
  0
LTYPE
  2
CONTINUOUS
 70
    64
  3
実線
 72
    65
 73
     0
 40
0.0
  0
LTYPE
  2
CONTINUOUS
 70
    64
  3
実線
 72
    65
 73
     0
 40
0.0
  0
LTYPE
  2
CONTINUOUS
 70
    64
  3
実線
 72
    65
 73
     0
 40
0.0
  0
LTYPE
  2
CONTINUOUS
 70
    64
  3
実線
 72
    65
 73
     0
 40
0.0
  0
ENDTAB
  0
TABLE
  2
LAYER
 70
    34
  0
LAYER
  2
通り芯
 70
     0
 62
    15
  6
CONTINUOUS
  0
LAYER
  2
補助線
 70
     0
 62
    16
  6
DOT
  0
LAYER
  2
躯体
 70
     0
 62
    31
  6
CONTINUOUS
  0
LAYER
  2
型材
 70
     0
 62
    32
  6
CONTINUOUS
  0
LAYER
  2
型材断面
 70
     0
 62
    47
  6
CONTINUOUS
  0
LAYER
  2
ガラス
 70
     0
 62
    48
  6
CONTINUOUS
  0
LAYER
  2
ゴム等
 70
     0
 62
    63
  6
CONTINUOUS
  0
LAYER
  2
ボルト／ビス
 70
     0
 62
    64
  6
CONTINUOUS
  0
LAYER
  2
文字
 70
     0
 62
    79
  6
CONTINUOUS
  0
LAYER
  2
寸法
 70
     0
 62
    80
  6
CONTINUOUS
  0
LAYER
  2
ﾊｯﾁﾝｸﾞ
 70
     0
 62
    95
  6
CONTINUOUS
  0
LAYER
  2
別途部材
 70
     0
 62
    96
  6
CONTINUOUS
  0
LAYER
  2
曲げ物
 70
     0
 62
   111
  6
CONTINUOUS
  0
LAYER
  2
鉄骨等
 70
     0
 62
   112
  6
CONTINUOUS
  0
LAYER
  2
St
 70
     0
 62
   127
  6
CONTINUOUS
  0
LAYER
  2
その他部品等
 70
     0
 62
   128
  6
CONTINUOUS
  0
LAYER
  2
ｶﾞｽｹｯﾄ
 70
     0
 62
   143
  6
CONTINUOUS
  0
LAYER
  2
ｽｹｯﾁ
 70
     0
 62
    14
  6
CONTINUOUS
  0
LAYER
  2
0
 70
     0
 62
    17
  6
CONTINUOUS
  0
LAYER
  2
1
 70
     0
 62
    30
  6
CONTINUOUS
  0
LAYER
  2
4
 70
     0
 62
    33
  6
CONTINUOUS
  0
LAYER
  2
ﾚｲﾔ3
 70
     0
 62
    46
  6
CONTINUOUS
  0
LAYER
  2
外形線
 70
     0
 62
    49
  6
CONTINUOUS
  0
LAYER
  2
部品
 70
     0
 62
    14
  6
CONTINUOUS
  0
LAYER
  2
サッシ芯
 70
     0
 62
    17
  6
DASHDOTX2
  0
LAYER
  2
寸法線
 70
     0
 62
    62
  6
CONTINUOUS
  0
LAYER
  2
姿図外形線
 70
     0
 62
    65
  6
CONTINUOUS
  0
LAYER
  2
姿補助線
 70
     0
 62
    30
  6
CONTINUOUS
  0
LAYER
  2
透視線
 70
     0
 62
    78
  6
DOT
  0
LAYER
  2
用紙
 70
     0
 62
    81
  6
CONTINUOUS
  0
LAYER
  2
実線図枠
 70
     0
 62
    94
  6
CONTINUOUS
  0
LAYER
  2
補助図枠
 70
     0
 62
    97
  6
CONTINUOUS
  0
LAYER
  2
建具記号
 70
     0
 62
   110
  6
CONTINUOUS
  0
LAYER
  2
補助文字
 70
     0
 62
   113
  6
CONTINUOUS
  0
ENDTAB
  0
TABLE
  2
STYLE
 70
    10
  0
STYLE
  2
STANDARD
 70
     0
 40
1.0
 41
1.0
 42
1.0
 50
0.0
 71
     0
  3
TXT
  4
BIGFONT
  0
STYLE
  2
TATE
 70
     4
 40
1.0
 41
1.0
 42
1.0
 50
0.0
 71
     0
  3
TXT
  4
BIGFONT
  0
STYLE
  2
TextStyle03
 70
     0
 40
1.0
 41
1.0
 42
1.0
 50
0.0
 71
     0
  3
MONOTXT
  4
BIGFONT
  0
STYLE
  2
TextStyle04
 70
     0
 40
1.0
 41
1.0
 42
1.0
 50
0.0
 71
     0
  3
MONOTXT
  4
BIGFONT
  0
STYLE
  2
TextStyle05
 70
     0
 40
1.0
 41
1.0
 42
1.0
 50
0.0
 71
     0
  3
MONOTXT
  4
BIGFONT
  0
STYLE
  2
TextStyle06
 70
     0
 40
1.0
 41
1.0
 42
1.0
 50
0.0
 71
     0
  3
MONOTXT
  4
BIGFONT
  0
STYLE
  2
TextStyle07
 70
     0
 40
1.0
 41
1.0
 42
1.0
 50
0.0
 71
     0
  3
MONOTXT
  4
BIGFONT
  0
STYLE
  2
TextStyle08
 70
     0
 40
1.0
 41
1.0
 42
1.0
 50
0.0
 71
     0
  3
MONOTXT
  4
BIGFONT
  0
STYLE
  2
TextStyle09
 70
     0
 40
1.0
 41
1.0
 42
1.0
 50
0.0
 71
     0
  3
MONOTXT
  4
BIGFONT
  0
STYLE
  2
TextStyle10
 70
     0
 40
1.0
 41
1.0
 42
1.0
 50
0.0
 71
     0
  3
MONOTXT
  4
BIGFONT
  0
ENDTAB
  0
ENDSEC
  0
SECTION
  2
BLOCKS
  0
BLOCK
  2
*GRP_0001
 70
    65
 10
0.0
 20
0.0
  0
LINE
  8
型材断面
  6
CONTINUOUS
 10
195.0
 20
133.5
 11
195.0
 21
-133.5
  0
LINE
  8
型材断面
  6
CONTINUOUS
 10
195.0
 20
-133.5
 11
-185.0
 21
-133.5
  0
LINE
  8
型材断面
  6
CONTINUOUS
 10
-185.0
 20
-133.5
 11
-185.0
 21
133.5
  0
LINE
  8
型材断面
  6
CONTINUOUS
 10
195.0
 20
133.5
 11
-185.0
 21
133.5
  0
LINE
  8
型材断面
  6
CONTINUOUS
 10
145.0
 20
-133.5
 11
145.0
 21
-118.5
  0
LINE
  8
型材断面
  6
CONTINUOUS
 10
195.0
 20
-118.5
 11
145.0
 21
-118.5
  0
ENDBLK
  0
BLOCK
  2
*DIM_0002
 70
    65
 10
0.0
 20
0.0
  0
LINE
  8
寸法
  6
BYBLOCK
 62
     0
 10
-75.342895
 20
-13.511205
 11
-75.342895
 21
-13.121378
  0
LINE
  8
寸法
  6
BYBLOCK
 62
     0
 10
57.990438
 20
-13.121378
 11
-75.342895
 21
-13.121378
  0
POINT
  8
寸法
 62
     0
 10
57.990438
 20
-13.121378
  0
POINT
  8
寸法
 62
     0
 10
-75.342895
 20
-13.121378
  0
TEXT
  7
TextStyle03
  8
寸法
  6
CONTINUOUS
 62
     0
 10
-20.41875
 20
-12.75
  1
呼称寸法　4000
 40
3.0
 72
     5
 11
3.01875
 21
-12.75
  0
ENDBLK
  0
BLOCK
  2
*DIM_0003
 70
    65
 10
0.0
 20
0.0
  0
LINE
  8
寸法
  6
BYBLOCK
 62
     0
 10
55.990438
 20
17.20722
 11
55.990438
 21
14.182178
  0
LINE
  8
寸法
  6
BYBLOCK
 62
     0
 10
57.990438
 20
14.182178
 11
55.990438
 21
14.182178
  0
POINT
  8
寸法
 62
     0
 10
57.990438
 20
14.182178
  0
POINT
  8
寸法
 62
     0
 10
55.990438
 20
14.182178
  0
TEXT
  7
TextStyle03
  8
寸法
  6
CONTINUOUS
 62
     0
 10
54.08125
 20
10.4
  1
60
 40
3.0
 72
     5
 11
57.26875
 21
10.4
  0
ENDBLK
  0
BLOCK
  2
*DIM_0004
 70
    65
 10
0.0
 20
0.0
  0
LINE
  8
寸法
  6
BYBLOCK
 62
     0
 10
-73.342897
 20
17.20722
 11
-73.342897
 21
14.182178
  0
LINE
  8
寸法
  6
BYBLOCK
 62
     0
 10
-75.342897
 20
14.182178
 11
-73.342897
 21
14.182178
  0
POINT
  8
寸法
 62
     0
 10
-75.342897
 20
14.182178
  0
POINT
  8
寸法
 62
     0
 10
-73.342897
 20
14.182178
  0
TEXT
  7
TextStyle03
  8
寸法
  6
CONTINUOUS
 62
     0
 10
-74.61875
 20
10.4
  1
60
 40
3.0
 72
     5
 11
-71.43125
 21
10.4
  0
ENDBLK
  0
BLOCK
  2
*DIM_0005
 70
    65
 10
0.0
 20
0.0
  0
LINE
  8
寸法
  6
BYBLOCK
 62
     0
 10
-78.342895
 20
47.814033
 11
-91.635732
 21
47.814033
  0
LINE
  8
寸法
  6
BYBLOCK
 62
     0
 10
-78.342895
 20
27.814033
 11
-91.635732
 21
27.814033
  0
LINE
  8
寸法
  6
BYBLOCK
 62
     0
 10
-91.635732
 20
47.814033
 11
-91.635732
 21
27.814033
  0
POINT
  8
寸法
 62
     0
 10
-91.635732
 20
47.814033
  0
POINT
  8
寸法
 62
     0
 10
-91.635732
 20
27.814033
  0
TEXT
  7
TextStyle03
  8
寸法
  6
CONTINUOUS
 62
     0
 10
-91.975
 20
35.3625
  1
600
 40
3.0
 50
90.0
 72
     5
 11
-91.975
 21
40.2375
  0
ENDBLK
  0
BLOCK
  2
*DIM_0011
 70
    65
 10
0.0
 20
0.0
  0
LINE
  8
寸法
  6
BYBLOCK
 62
     0
 10
45.518668
 20
-61.87628
 11
73.059235
 21
-61.87628
  0
LINE
  8
寸法
  6
BYBLOCK
 62
     0
 10
73.059235
 20
-70.209613
 11
73.059235
 21
-61.87628
  0
POINT
  8
寸法
 62
     0
 10
73.059235
 20
-61.87628
  0
TEXT
  7
TextStyle03
  8
寸法
  6
CONTINUOUS
 62
     0
 10
72.65
 20
-68.5125
  1
250
 40
3.0
 50
90.0
 72
     5
 11
72.65
 21
-63.6375
  0
ENDBLK
  0
BLOCK
  2
*GRP_0012
 70
    65
 10
0.0
 20
0.0
  0
LINE
  8
別途部材
  6
CONTINUOUS
 62
    96
 10
-77.009562
 20
-70.209613
 11
-77.409562
 21
-71.209613
  0
ARC
  8
別途部材
  6
CONTINUOUS
 10
-60.342897
 20
-79.542947
 40
17.666667
 50
90.0
 51
148.109204
  0
LINE
  8
別途部材
  6
CONTINUOUS
 62
    96
 10
-77.009562
 20
-70.209613
 11
-8.676228
 21
-70.209613
  0
LINE
  8
別途部材
  6
CONTINUOUS
 10
-77.409562
 20
-71.209613
 11
-8.676228
 21
-71.209613
  0
LINE
  8
別途部材
  6
CONTINUOUS
 10
-9.176228
 20
-60.87628
 11
-10.176228
 21
-61.87628
  0
LINE
  8
別途部材
  6
CONTINUOUS
 10
-11.176228
 20
-61.87628
 11
-12.176228
 21
-60.87628
  0
LINE
  8
別途部材
  6
CONTINUOUS
 10
-13.176228
 20
-60.87628
 11
-14.176228
 21
-61.87628
  0
LINE
  8
別途部材
  6
CONTINUOUS
 10
-12.176228
 20
-60.87628
 11
-13.176228
 21
-60.87628
  0
LINE
  8
別途部材
  6
CONTINUOUS
 10
-9.176228
 20
-60.87628
 11
-8.676228
 21
-60.87628
  0
LINE
  8
別途部材
  6
CONTINUOUS
 10
-15.176228
 20
-61.87628
 11
-16.176228
 21
-60.87628
  0
LINE
  8
別途部材
  6
CONTINUOUS
 10
-17.176228
 20
-60.87628
 11
-18.176228
 21
-61.87628
  0
LINE
  8
別途部材
  6
CONTINUOUS
 10
-16.176228
 20
-60.87628
 11
-17.176228
 21
-60.87628
  0
LINE
  8
別途部材
  6
CONTINUOUS
 10
-19.176228
 20
-61.87628
 11
-20.176228
 21
-60.87628
  0
LINE
  8
別途部材
  6
CONTINUOUS
 10
-21.176228
 20
-60.87628
 11
-22.176228
 21
-61.87628
  0
LINE
  8
別途部材
  6
CONTINUOUS
 10
-20.176228
 20
-60.87628
 11
-21.176228
 21
-60.87628
  0
LINE
  8
別途部材
  6
CONTINUOUS
 10
-23.176228
 20
-61.87628
 11
-24.176228
 21
-60.87628
  0
LINE
  8
別途部材
  6
CONTINUOUS
 10
-25.176228
 20
-60.87628
 11
-26.176228
 21
-61.87628
  0
LINE
  8
別途部材
  6
CONTINUOUS
 10
-24.176228
 20
-60.87628
 11
-25.176228
 21
-60.87628
  0
LINE
  8
別途部材
  6
CONTINUOUS
 10
-27.176228
 20
-61.87628
 11
-28.176228
 21
-60.87628
  0
LINE
  8
別途部材
  6
CONTINUOUS
 10
-29.176228
 20
-60.87628
 11
-30.176228
 21
-61.87628
  0
LINE
  8
別途部材
  6
CONTINUOUS
 10
-28.176228
 20
-60.87628
 11
-29.176228
 21
-60.87628
  0
LINE
  8
別途部材
  6
CONTINUOUS
 10
-31.176228
 20
-61.87628
 11
-32.176228
 21
-60.87628
  0
LINE
  8
別途部材
  6
CONTINUOUS
 10
-33.176228
 20
-60.87628
 11
-34.176228
 21
-61.87628
  0
LINE
  8
別途部材
  6
CONTINUOUS
 10
-32.176228
 20
-60.87628
 11
-33.176228
 21
-60.87628
  0
LINE
  8
別途部材
  6
CONTINUOUS
 10
-35.176228
 20
-61.87628
 11
-36.176228
 21
-60.87628
  0
LINE
  8
別途部材
  6
CONTINUOUS
 10
-37.176228
 20
-60.87628
 11
-38.176228
 21
-61.87628
  0
LINE
  8
別途部材
  6
CONTINUOUS
 10
-36.176228
 20
-60.87628
 11
-37.176228
 21
-60.87628
  0
LINE
  8
別途部材
  6
CONTINUOUS
 10
-39.176228
 20
-61.87628
 11
-40.176228
 21
-60.87628
  0
LINE
  8
別途部材
  6
CONTINUOUS
 10
-41.176228
 20
-60.87628
 11
-42.176228
 21
-61.87628
  0
LINE
  8
別途部材
  6
CONTINUOUS
 10
-40.176228
 20
-60.87628
 11
-41.176228
 21
-60.87628
  0
LINE
  8
別途部材
  6
CONTINUOUS
 10
-43.176228
 20
-61.87628
 11
-44.176228
 21
-60.87628
  0
LINE
  8
別途部材
  6
CONTINUOUS
 10
-45.176228
 20
-60.87628
 11
-46.176228
 21
-61.87628
  0
LINE
  8
別途部材
  6
CONTINUOUS
 10
-44.176228
 20
-60.87628
 11
-45.176228
 21
-60.87628
  0
LINE
  8
別途部材
  6
CONTINUOUS
 10
-47.176228
 20
-61.87628
 11
-48.176228
 21
-60.87628
  0
LINE
  8
別途部材
  6
CONTINUOUS
 10
-49.176228
 20
-60.87628
 11
-50.176228
 21
-61.87628
  0
LINE
  8
別途部材
  6
CONTINUOUS
 10
-48.176228
 20
-60.87628
 11
-49.176228
 21
-60.87628
  0
LINE
  8
別途部材
  6
CONTINUOUS
 10
-51.176228
 20
-61.87628
 11
-52.176228
 21
-60.87628
  0
LINE
  8
別途部材
  6
CONTINUOUS
 10
-53.176228
 20
-60.87628
 11
-54.176228
 21
-61.87628
  0
LINE
  8
別途部材
  6
CONTINUOUS
 10
-52.176228
 20
-60.87628
 11
-53.176228
 21
-60.87628
  0
LINE
  8
別途部材
  6
CONTINUOUS
 10
-50.176228
 20
-61.87628
 11
-51.176228
 21
-61.87628
  0
LINE
  8
別途部材
  6
CONTINUOUS
 10
-46.176228
 20
-61.87628
 11
-47.176228
 21
-61.87628
  0
LINE
  8
別途部材
  6
CONTINUOUS
 10
-42.176228
 20
-61.87628
 11
-43.176228
 21
-61.87628
  0
LINE
  8
別途部材
  6
CONTINUOUS
 10
-38.176228
 20
-61.87628
 11
-39.176228
 21
-61.87628
  0
LINE
  8
別途部材
  6
CONTINUOUS
 10
-34.176228
 20
-61.87628
 11
-35.176228
 21
-61.87628
  0
LINE
  8
別途部材
  6
CONTINUOUS
 10
-30.176228
 20
-61.87628
 11
-31.176228
 21
-61.87628
  0
LINE
  8
別途部材
  6
CONTINUOUS
 10
-26.176228
 20
-61.87628
 11
-27.176228
 21
-61.87628
  0
LINE
  8
別途部材
  6
CONTINUOUS
 10
-22.176228
 20
-61.87628
 11
-23.176228
 21
-61.87628
  0
LINE
  8
別途部材
  6
CONTINUOUS
 10
-18.176228
 20
-61.87628
 11
-19.176228
 21
-61.87628
  0
LINE
  8
別途部材
  6
CONTINUOUS
 10
-14.176228
 20
-61.87628
 11
-15.176228
 21
-61.87628
  0
LINE
  8
別途部材
  6
CONTINUOUS
 10
-11.176228
 20
-61.87628
 11
-10.176228
 21
-61.87628
  0
LINE
  8
別途部材
  6
CONTINUOUS
 10
-55.176228
 20
-61.87628
 11
-56.176228
 21
-60.87628
  0
LINE
  8
別途部材
  6
CONTINUOUS
 10
-57.176228
 20
-60.87628
 11
-58.176228
 21
-61.87628
  0
LINE
  8
別途部材
  6
CONTINUOUS
 10
-56.176228
 20
-60.87628
 11
-57.176228
 21
-60.87628
  0
LINE
  8
別途部材
  6
CONTINUOUS
 10
-54.176228
 20
-61.87628
 11
-55.176228
 21
-61.87628
  0
LINE
  8
別途部材
  6
CONTINUOUS
 10
-53.176228
 20
-60.87628
 11
-53.176228
 21
-70.209613
  0
LINE
  8
別途部材
  6
CONTINUOUS
 10
-49.176228
 20
-60.87628
 11
-49.176228
 21
-70.209613
  0
LINE
  8
別途部材
  6
CONTINUOUS
 10
-47.176228
 20
-61.87628
 11
-47.176228
 21
-70.209613
  0
LINE
  8
別途部材
  6
CONTINUOUS
 10
-52.176228
 20
-60.87628
 11
-52.176228
 21
-70.209613
  0
LINE
  8
別途部材
  6
CONTINUOUS
 10
-56.176228
 20
-60.87628
 11
-56.176228
 21
-70.209613
  0
LINE
  8
別途部材
  6
CONTINUOUS
 10
-58.176228
 20
-61.87628
 11
-58.176228
 21
-70.209613
  0
LINE
  8
別途部材
  6
CONTINUOUS
 10
-57.176228
 20
-60.87628
 11
-57.176228
 21
-70.209613
  0
LINE
  8
別途部材
  6
CONTINUOUS
 10
-55.176228
 20
-61.87628
 11
-55.176228
 21
-70.209613
  0
LINE
  8
別途部材
  6
CONTINUOUS
 10
-54.176228
 20
-61.87628
 11
-54.176228
 21
-70.209613
  0
LINE
  8
別途部材
  6
CONTINUOUS
 10
-51.176228
 20
-61.87628
 11
-51.176228
 21
-70.209613
  0
LINE
  8
別途部材
  6
CONTINUOUS
 10
-50.176228
 20
-61.87628
 11
-50.176228
 21
-70.209613
  0
LINE
  8
別途部材
  6
CONTINUOUS
 10
-48.176228
 20
-60.87628
 11
-48.176228
 21
-70.209613
  0
LINE
  8
別途部材
  6
CONTINUOUS
 10
-45.176228
 20
-60.87628
 11
-45.176228
 21
-70.209613
  0
LINE
  8
別途部材
  6
CONTINUOUS
 10
-46.176228
 20
-61.87628
 11
-46.176228
 21
-70.209613
  0
LINE
  8
別途部材
  6
CONTINUOUS
 10
-44.176228
 20
-60.87628
 11
-44.176228
 21
-70.209613
  0
LINE
  8
別途部材
  6
CONTINUOUS
 10
-43.176228
 20
-61.87628
 11
-43.176228
 21
-70.209613
  0
LINE
  8
別途部材
  6
CONTINUOUS
 10
-42.176228
 20
-61.87628
 11
-42.176228
 21
-70.209613
  0
LINE
  8
別途部材
  6
CONTINUOUS
 10
-41.176228
 20
-60.87628
 11
-41.176228
 21
-70.209613
  0
LINE
  8
別途部材
  6
CONTINUOUS
 10
-39.176228
 20
-61.87628
 11
-39.176228
 21
-70.209613
  0
LINE
  8
別途部材
  6
CONTINUOUS
 10
-40.176228
 20
-60.87628
 11
-40.176228
 21
-70.209613
  0
LINE
  8
別途部材
  6
CONTINUOUS
 10
-37.176228
 20
-60.87628
 11
-37.176228
 21
-70.209613
  0
LINE
  8
別途部材
  6
CONTINUOUS
 10
-38.176228
 20
-61.87628
 11
-38.176228
 21
-70.209613
  0
LINE
  8
別途部材
  6
CONTINUOUS
 10
-34.176228
 20
-61.87628
 11
-34.176228
 21
-70.209613
  0
LINE
  8
別途部材
  6
CONTINUOUS
 10
-33.176228
 20
-60.87628
 11
-33.176228
 21
-70.209613
  0
LINE
  8
別途部材
  6
CONTINUOUS
 10
-32.176228
 20
-60.87628
 11
-32.176228
 21
-70.209613
  0
LINE
  8
別途部材
  6
CONTINUOUS
 10
-35.176228
 20
-61.87628
 11
-35.176228
 21
-70.209613
  0
LINE
  8
別途部材
  6
CONTINUOUS
 10
-36.176228
 20
-60.87628
 11
-36.176228
 21
-70.209613
  0
LINE
  8
別途部材
  6
CONTINUOUS
 10
-28.176228
 20
-60.87628
 11
-28.176228
 21
-70.209613
  0
LINE
  8
別途部材
  6
CONTINUOUS
 10
-30.176228
 20
-61.87628
 11
-30.176228
 21
-70.209613
  0
LINE
  8
別途部材
  6
CONTINUOUS
 10
-31.176228
 20
-61.87628
 11
-31.176228
 21
-70.209613
  0
LINE
  8
別途部材
  6
CONTINUOUS
 10
-29.176228
 20
-60.87628
 11
-29.176228
 21
-70.209613
  0
LINE
  8
別途部材
  6
CONTINUOUS
 10
-27.176228
 20
-61.87628
 11
-27.176228
 21
-70.209613
  0
LINE
  8
別途部材
  6
CONTINUOUS
 10
-25.176228
 20
-60.87628
 11
-25.176228
 21
-70.209613
  0
LINE
  8
別途部材
  6
CONTINUOUS
 10
-24.176228
 20
-60.87628
 11
-24.176228
 21
-70.209613
  0
LINE
  8
別途部材
  6
CONTINUOUS
 10
-22.176228
 20
-61.87628
 11
-22.176228
 21
-70.209613
  0
LINE
  8
別途部材
  6
CONTINUOUS
 10
-23.176228
 20
-61.87628
 11
-23.176228
 21
-70.209613
  0
LINE
  8
別途部材
  6
CONTINUOUS
 10
-26.176228
 20
-61.87628
 11
-26.176228
 21
-70.209613
  0
LINE
  8
別途部材
  6
CONTINUOUS
 10
-21.176228
 20
-60.87628
 11
-21.176228
 21
-70.209613
  0
LINE
  8
別途部材
  6
CONTINUOUS
 10
-19.176228
 20
-61.87628
 11
-19.176228
 21
-70.209613
  0
LINE
  8
別途部材
  6
CONTINUOUS
 10
-20.176228
 20
-60.87628
 11
-20.176228
 21
-70.209613
  0
LINE
  8
別途部材
  6
CONTINUOUS
 10
-18.176228
 20
-61.87628
 11
-18.176228
 21
-70.209613
  0
LINE
  8
別途部材
  6
CONTINUOUS
 10
-17.176228
 20
-60.87628
 11
-17.176228
 21
-70.209613
  0
LINE
  8
別途部材
  6
CONTINUOUS
 10
-15.176228
 20
-61.87628
 11
-15.176228
 21
-70.209613
  0
LINE
  8
別途部材
  6
CONTINUOUS
 10
-16.176228
 20
-60.87628
 11
-16.176228
 21
-70.209613
  0
LINE
  8
別途部材
  6
CONTINUOUS
 10
-14.176228
 20
-61.87628
 11
-14.176228
 21
-70.209613
  0
LINE
  8
別途部材
  6
CONTINUOUS
 10
-13.176228
 20
-60.87628
 11
-13.176228
 21
-70.209613
  0
LINE
  8
別途部材
  6
CONTINUOUS
 10
-11.176228
 20
-61.87628
 11
-11.176228
 21
-70.209613
  0
LINE
  8
別途部材
  6
CONTINUOUS
 10
-12.176228
 20
-60.87628
 11
-12.176228
 21
-70.209613
  0
LINE
  8
別途部材
  6
CONTINUOUS
 10
-10.176228
 20
-61.87628
 11
-10.176228
 21
-70.209613
  0
LINE
  8
別途部材
  6
CONTINUOUS
 10
-9.176228
 20
-60.87628
 11
-9.176228
 21
-70.209613
  0
LINE
  8
別途部材
  6
CONTINUOUS
 10
-58.176228
 20
-61.87628
 11
-60.342895
 21
-61.87628
  0
LINE
  8
別途部材
  6
CONTINUOUS
 62
    96
 10
59.657105
 20
-70.209613
 11
60.057105
 21
-71.209613
  0
ARC
  8
別途部材
  6
CONTINUOUS
 10
42.99044
 20
-79.542947
 40
17.666667
 50
31.890796
 51
90.0
  0
LINE
  8
別途部材
  6
CONTINUOUS
 62
    96
 10
59.657105
 20
-70.209613
 11
-8.676228
 21
-70.209613
  0
LINE
  8
別途部材
  6
CONTINUOUS
 10
60.057105
 20
-71.209613
 11
-8.676228
 21
-71.209613
  0
LINE
  8
別途部材
  6
CONTINUOUS
 10
-8.176228
 20
-60.87628
 11
-7.176228
 21
-61.87628
  0
LINE
  8
別途部材
  6
CONTINUOUS
 10
-6.176228
 20
-61.87628
 11
-5.176228
 21
-60.87628
  0
LINE
  8
別途部材
  6
CONTINUOUS
 10
-4.176228
 20
-60.87628
 11
-3.176228
 21
-61.87628
  0
LINE
  8
別途部材
  6
CONTINUOUS
 10
-5.176228
 20
-60.87628
 11
-4.176228
 21
-60.87628
  0
LINE
  8
別途部材
  6
CONTINUOUS
 10
-8.176228
 20
-60.87628
 11
-8.676228
 21
-60.87628
  0
LINE
  8
別途部材
  6
CONTINUOUS
 10
-2.176228
 20
-61.87628
 11
-1.176228
 21
-60.87628
  0
LINE
  8
別途部材
  6
CONTINUOUS
 10
-0.176228
 20
-60.87628
 11
0.823773
 21
-61.87628
  0
LINE
  8
別途部材
  6
CONTINUOUS
 10
-1.176228
 20
-60.87628
 11
-0.176228
 21
-60.87628
  0
LINE
  8
別途部材
  6
CONTINUOUS
 10
1.823773
 20
-61.87628
 11
2.823773
 21
-60.87628
  0
LINE
  8
別途部材
  6
CONTINUOUS
 10
3.823773
 20
-60.87628
 11
4.823773
 21
-61.87628
  0
LINE
  8
別途部材
  6
CONTINUOUS
 10
2.823773
 20
-60.87628
 11
3.823773
 21
-60.87628
  0
LINE
  8
別途部材
  6
CONTINUOUS
 10
5.823773
 20
-61.87628
 11
6.823773
 21
-60.87628
  0
LINE
  8
別途部材
  6
CONTINUOUS
 10
7.823773
 20
-60.87628
 11
8.823773
 21
-61.87628
  0
LINE
  8
別途部材
  6
CONTINUOUS
 10
6.823773
 20
-60.87628
 11
7.823773
 21
-60.87628
  0
LINE
  8
別途部材
  6
CONTINUOUS
 10
9.823773
 20
-61.87628
 11
10.823773
 21
-60.87628
  0
LINE
  8
別途部材
  6
CONTINUOUS
 10
11.823773
 20
-60.87628
 11
12.823773
 21
-61.87628
  0
LINE
  8
別途部材
  6
CONTINUOUS
 10
10.823773
 20
-60.87628
 11
11.823773
 21
-60.87628
  0
LINE
  8
別途部材
  6
CONTINUOUS
 10
13.823773
 20
-61.87628
 11
14.823773
 21
-60.87628
  0
LINE
  8
別途部材
  6
CONTINUOUS
 10
15.823773
 20
-60.87628
 11
16.823773
 21
-61.87628
  0
LINE
  8
別途部材
  6
CONTINUOUS
 10
14.823773
 20
-60.87628
 11
15.823773
 21
-60.87628
  0
LINE
  8
別途部材
  6
CONTINUOUS
 10
17.823773
 20
-61.87628
 11
18.823773
 21
-60.87628
  0
LINE
  8
別途部材
  6
CONTINUOUS
 10
19.823773
 20
-60.87628
 11
20.823773
 21
-61.87628
  0
LINE
  8
別途部材
  6
CONTINUOUS
 10
18.823773
 20
-60.87628
 11
19.823773
 21
-60.87628
  0
LINE
  8
別途部材
  6
CONTINUOUS
 10
21.823773
 20
-61.87628
 11
22.823773
 21
-60.87628
  0
LINE
  8
別途部材
  6
CONTINUOUS
 10
23.823773
 20
-60.87628
 11
24.823773
 21
-61.87628
  0
LINE
  8
別途部材
  6
CONTINUOUS
 10
22.823773
 20
-60.87628
 11
23.823773
 21
-60.87628
  0
LINE
  8
別途部材
  6
CONTINUOUS
 10
25.823773
 20
-61.87628
 11
26.823773
 21
-60.87628
  0
LINE
  8
別途部材
  6
CONTINUOUS
 10
27.823773
 20
-60.87628
 11
28.823773
 21
-61.87628
  0
LINE
  8
別途部材
  6
CONTINUOUS
 10
26.823773
 20
-60.87628
 11
27.823773
 21
-60.87628
  0
LINE
  8
別途部材
  6
CONTINUOUS
 10
29.823773
 20
-61.87628
 11
30.823773
 21
-60.87628
  0
LINE
  8
別途部材
  6
CONTINUOUS
 10
31.823773
 20
-60.87628
 11
32.823773
 21
-61.87628
  0
LINE
  8
別途部材
  6
CONTINUOUS
 10
30.823773
 20
-60.87628
 11
31.823773
 21
-60.87628
  0
LINE
  8
別途部材
  6
CONTINUOUS
 10
33.823773
 20
-61.87628
 11
34.823773
 21
-60.87628
  0
LINE
  8
別途部材
  6
CONTINUOUS
 10
35.823773
 20
-60.87628
 11
36.823773
 21
-61.87628
  0
LINE
  8
別途部材
  6
CONTINUOUS
 10
34.823773
 20
-60.87628
 11
35.823773
 21
-60.87628
  0
LINE
  8
別途部材
  6
CONTINUOUS
 10
32.823773
 20
-61.87628
 11
33.823773
 21
-61.87628
  0
LINE
  8
別途部材
  6
CONTINUOUS
 10
28.823773
 20
-61.87628
 11
29.823773
 21
-61.87628
  0
LINE
  8
別途部材
  6
CONTINUOUS
 10
24.823773
 20
-61.87628
 11
25.823773
 21
-61.87628
  0
LINE
  8
別途部材
  6
CONTINUOUS
 10
20.823773
 20
-61.87628
 11
21.823773
 21
-61.87628
  0
LINE
  8
別途部材
  6
CONTINUOUS
 10
16.823773
 20
-61.87628
 11
17.823773
 21
-61.87628
  0
LINE
  8
別途部材
  6
CONTINUOUS
 10
12.823773
 20
-61.87628
 11
13.823773
 21
-61.87628
  0
LINE
  8
別途部材
  6
CONTINUOUS
 10
8.823773
 20
-61.87628
 11
9.823773
 21
-61.87628
  0
LINE
  8
別途部材
  6
CONTINUOUS
 10
4.823773
 20
-61.87628
 11
5.823773
 21
-61.87628
  0
LINE
  8
別途部材
  6
CONTINUOUS
 10
0.823773
 20
-61.87628
 11
1.823773
 21
-61.87628
  0
LINE
  8
別途部材
  6
CONTINUOUS
 10
-3.176228
 20
-61.87628
 11
-2.176228
 21
-61.87628
  0
LINE
  8
別途部材
  6
CONTINUOUS
 10
-6.176228
 20
-61.87628
 11
-7.176228
 21
-61.87628
  0
LINE
  8
別途部材
  6
CONTINUOUS
 10
37.823773
 20
-61.87628
 11
38.823773
 21
-60.87628
  0
LINE
  8
別途部材
  6
CONTINUOUS
 10
39.823773
 20
-60.87628
 11
40.823773
 21
-61.87628
  0
LINE
  8
別途部材
  6
CONTINUOUS
 10
38.823773
 20
-60.87628
 11
39.823773
 21
-60.87628
  0
LINE
  8
別途部材
  6
CONTINUOUS
 10
36.823773
 20
-61.87628
 11
37.823773
 21
-61.87628
  0
LINE
  8
別途部材
  6
CONTINUOUS
 10
35.823773
 20
-60.87628
 11
35.823773
 21
-70.209613
  0
LINE
  8
別途部材
  6
CONTINUOUS
 10
31.823773
 20
-60.87628
 11
31.823773
 21
-70.209613
  0
LINE
  8
別途部材
  6
CONTINUOUS
 10
29.823773
 20
-61.87628
 11
29.823773
 21
-70.209613
  0
LINE
  8
別途部材
  6
CONTINUOUS
 10
34.823773
 20
-60.87628
 11
34.823773
 21
-70.209613
  0
LINE
  8
別途部材
  6
CONTINUOUS
 10
38.823773
 20
-60.87628
 11
38.823773
 21
-70.209613
  0
LINE
  8
別途部材
  6
CONTINUOUS
 10
40.823773
 20
-61.87628
 11
40.823773
 21
-70.209613
  0
LINE
  8
別途部材
  6
CONTINUOUS
 10
39.823773
 20
-60.87628
 11
39.823773
 21
-70.209613
  0
LINE
  8
別途部材
  6
CONTINUOUS
 10
37.823773
 20
-61.87628
 11
37.823773
 21
-70.209613
  0
LINE
  8
別途部材
  6
CONTINUOUS
 10
36.823773
 20
-61.87628
 11
36.823773
 21
-70.209613
  0
LINE
  8
別途部材
  6
CONTINUOUS
 10
33.823773
 20
-61.87628
 11
33.823773
 21
-70.209613
  0
LINE
  8
別途部材
  6
CONTINUOUS
 10
32.823773
 20
-61.87628
 11
32.823773
 21
-70.209613
  0
LINE
  8
別途部材
  6
CONTINUOUS
 10
30.823773
 20
-60.87628
 11
30.823773
 21
-70.209613
  0
LINE
  8
別途部材
  6
CONTINUOUS
 10
27.823773
 20
-60.87628
 11
27.823773
 21
-70.209613
  0
LINE
  8
別途部材
  6
CONTINUOUS
 10
28.823773
 20
-61.87628
 11
28.823773
 21
-70.209613
  0
LINE
  8
別途部材
  6
CONTINUOUS
 10
26.823773
 20
-60.87628
 11
26.823773
 21
-70.209613
  0
LINE
  8
別途部材
  6
CONTINUOUS
 10
25.823773
 20
-61.87628
 11
25.823773
 21
-70.209613
  0
LINE
  8
別途部材
  6
CONTINUOUS
 10
24.823773
 20
-61.87628
 11
24.823773
 21
-70.209613
  0
LINE
  8
別途部材
  6
CONTINUOUS
 10
23.823773
 20
-60.87628
 11
23.823773
 21
-70.209613
  0
LINE
  8
別途部材
  6
CONTINUOUS
 10
21.823773
 20
-61.87628
 11
21.823773
 21
-70.209613
  0
LINE
  8
別途部材
  6
CONTINUOUS
 10
22.823773
 20
-60.87628
 11
22.823773
 21
-70.209613
  0
LINE
  8
別途部材
  6
CONTINUOUS
 10
19.823773
 20
-60.87628
 11
19.823773
 21
-70.209613
  0
LINE
  8
別途部材
  6
CONTINUOUS
 10
20.823773
 20
-61.87628
 11
20.823773
 21
-70.209613
  0
LINE
  8
別途部材
  6
CONTINUOUS
 10
16.823773
 20
-61.87628
 11
16.823773
 21
-70.209613
  0
LINE
  8
別途部材
  6
CONTINUOUS
 10
15.823773
 20
-60.87628
 11
15.823773
 21
-70.209613
  0
LINE
  8
別途部材
  6
CONTINUOUS
 10
14.823773
 20
-60.87628
 11
14.823773
 21
-70.209613
  0
LINE
  8
別途部材
  6
CONTINUOUS
 10
17.823773
 20
-61.87628
 11
17.823773
 21
-70.209613
  0
LINE
  8
別途部材
  6
CONTINUOUS
 10
18.823773
 20
-60.87628
 11
18.823773
 21
-70.209613
  0
LINE
  8
別途部材
  6
CONTINUOUS
 10
10.823773
 20
-60.87628
 11
10.823773
 21
-70.209613
  0
LINE
  8
別途部材
  6
CONTINUOUS
 10
12.823773
 20
-61.87628
 11
12.823773
 21
-70.209613
  0
LINE
  8
別途部材
  6
CONTINUOUS
 10
13.823773
 20
-61.87628
 11
13.823773
 21
-70.209613
  0
LINE
  8
別途部材
  6
CONTINUOUS
 10
11.823773
 20
-60.87628
 11
11.823773
 21
-70.209613
  0
LINE
  8
別途部材
  6
CONTINUOUS
 10
9.823773
 20
-61.87628
 11
9.823773
 21
-70.209613
  0
LINE
  8
別途部材
  6
CONTINUOUS
 10
7.823773
 20
-60.87628
 11
7.823773
 21
-70.209613
  0
LINE
  8
別途部材
  6
CONTINUOUS
 10
6.823773
 20
-60.87628
 11
6.823773
 21
-70.209613
  0
LINE
  8
別途部材
  6
CONTINUOUS
 10
4.823773
 20
-61.87628
 11
4.823773
 21
-70.209613
  0
LINE
  8
別途部材
  6
CONTINUOUS
 10
5.823773
 20
-61.87628
 11
5.823773
 21
-70.209613
  0
LINE
  8
別途部材
  6
CONTINUOUS
 10
8.823773
 20
-61.87628
 11
8.823773
 21
-70.209613
  0
LINE
  8
別途部材
  6
CONTINUOUS
 10
3.823773
 20
-60.87628
 11
3.823773
 21
-70.209613
  0
LINE
  8
別途部材
  6
CONTINUOUS
 10
1.823773
 20
-61.87628
 11
1.823773
 21
-70.209613
  0
LINE
  8
別途部材
  6
CONTINUOUS
 10
2.823773
 20
-60.87628
 11
2.823773
 21
-70.209613
  0
LINE
  8
別途部材
  6
CONTINUOUS
 10
0.823773
 20
-61.87628
 11
0.823773
 21
-70.209613
  0
LINE
  8
別途部材
  6
CONTINUOUS
 10
-0.176228
 20
-60.87628
 11
-0.176228
 21
-70.209613
  0
LINE
  8
別途部材
  6
CONTINUOUS
 10
-2.176228
 20
-61.87628
 11
-2.176228
 21
-70.209613
  0
LINE
  8
別途部材
  6
CONTINUOUS
 10
-1.176228
 20
-60.87628
 11
-1.176228
 21
-70.209613
  0
LINE
  8
別途部材
  6
CONTINUOUS
 10
-3.176228
 20
-61.87628
 11
-3.176228
 21
-70.209613
  0
LINE
  8
別途部材
  6
CONTINUOUS
 10
-4.176228
 20
-60.87628
 11
-4.176228
 21
-70.209613
  0
LINE
  8
別途部材
  6
CONTINUOUS
 10
-6.176228
 20
-61.87628
 11
-6.176228
 21
-70.209613
  0
LINE
  8
別途部材
  6
CONTINUOUS
 10
-5.176228
 20
-60.87628
 11
-5.176228
 21
-70.209613
  0
LINE
  8
別途部材
  6
CONTINUOUS
 10
-7.176228
 20
-61.87628
 11
-7.176228
 21
-70.209613
  0
LINE
  8
別途部材
  6
CONTINUOUS
 10
-8.176228
 20
-60.87628
 11
-8.176228
 21
-70.209613
  0
LINE
  8
別途部材
  6
CONTINUOUS
 10
40.823773
 20
-61.87628
 11
42.990438
 21
-61.87628
  0
ENDBLK
  0
BLOCK
  2
*GRP_0013
 70
    65
 10
0.0
 20
0.0
  0
LINE
  8
ボルト／ビス
  6
CONTINUOUS
 10
-76.009562
 20
-70.2096
 11
-76.009562
 21
-69.742933
  0
LINE
  8
ボルト／ビス
  6
CONTINUOUS
 10
-75.642895
 20
-70.2096
 11
-75.642895
 21
-70.142933
  0
LINE
  8
ボルト／ビス
  6
CONTINUOUS
 10
-75.642895
 20
-70.142933
 11
-76.37623
 21
-70.142933
  0
LINE
  8
ボルト／ビス
  6
CONTINUOUS
 10
-76.37623
 20
-70.142933
 11
-76.37623
 21
-70.2096
  0
LINE
  8
ボルト／ビス
  6
CONTINUOUS
 10
-75.642895
 20
-70.2096
 11
-76.37623
 21
-70.2096
  0
LINE
  8
ボルト／ビス
  6
CONTINUOUS
 10
-75.709562
 20
-70.1096
 11
-75.709562
 21
-70.142933
  0
LINE
  8
ボルト／ビス
  6
CONTINUOUS
 10
-75.709562
 20
-70.1096
 11
-76.309562
 21
-70.1096
  0
LINE
  8
ボルト／ビス
  6
CONTINUOUS
 10
-76.309562
 20
-70.1096
 11
-76.309562
 21
-70.142933
  0
LINE
  8
ボルト／ビス
  6
CONTINUOUS
 62
    64
 10
-75.849187
 20
-69.9096
 11
-75.817112
 21
-69.921275
  0
ARC
  8
ボルト／ビス
  6
CONTINUOUS
 62
    64
 10
-75.865224
 20
-70.01458
 40
0.104978
 50
90.0
 51
117.278033
  0
ARC
  8
ボルト／ビス
  6
CONTINUOUS
 62
    64
 10
-76.009562
 20
-70.312004
 40
0.402402
 50
76.165015
 51
103.834998
  0
LINE
  8
ボルト／ビス
  6
CONTINUOUS
 62
    64
 10
-76.169938
 20
-69.9096
 11
-76.202012
 21
-69.921275
  0
ARC
  8
ボルト／ビス
  6
CONTINUOUS
 62
    64
 10
-76.153899
 20
-70.01458
 40
0.104978
 50
62.721967
 51
90.0
  0
LINE
  8
ボルト／ビス
  6
CONTINUOUS
 62
    64
 10
-75.849187
 20
-69.9096
 11
-76.169938
 21
-69.9096
  0
LINE
  8
ボルト／ビス
  6
CONTINUOUS
 62
    64
 10
-76.202012
 20
-69.921275
 11
-76.202012
 21
-70.042933
  0
LINE
  8
ボルト／ビス
  6
CONTINUOUS
 62
    64
 10
-76.105788
 20
-69.921275
 11
-76.105788
 21
-70.042933
  0
LINE
  8
ボルト／ビス
  6
CONTINUOUS
 62
    64
 10
-75.817112
 20
-69.921275
 11
-75.817112
 21
-70.042933
  0
LINE
  8
ボルト／ビス
  6
CONTINUOUS
 62
    64
 10
-75.913338
 20
-69.921275
 11
-75.913338
 21
-70.042933
  0
LINE
  8
ボルト／ビス
  6
CONTINUOUS
 10
-75.817112
 20
-70.042933
 11
-76.202012
 21
-70.042933
  0
LINE
  8
ボルト／ビス
  6
CONTINUOUS
 10
-75.809562
 20
-70.042933
 11
-75.809562
 21
-70.1096
  0
LINE
  8
ボルト／ビス
  6
CONTINUOUS
 10
-75.809562
 20
-70.042933
 11
-76.209562
 21
-70.042933
  0
LINE
  8
ボルト／ビス
  6
CONTINUOUS
 10
-76.209562
 20
-70.042933
 11
-76.209562
 21
-70.1096
  0
ENDBLK
  0
BLOCK
  2
*GRP_0014
 70
    65
 10
0.0
 20
0.0
  0
LINE
  8
ボルト／ビス
  6
CONTINUOUS
 10
58.657107
 20
-70.209605
 11
58.657107
 21
-69.742937
  0
LINE
  8
ボルト／ビス
  6
CONTINUOUS
 10
59.023775
 20
-70.209605
 11
59.023775
 21
-70.142937
  0
LINE
  8
ボルト／ビス
  6
CONTINUOUS
 10
59.023775
 20
-70.142937
 11
58.29044
 21
-70.142937
  0
LINE
  8
ボルト／ビス
  6
CONTINUOUS
 10
58.29044
 20
-70.142937
 11
58.29044
 21
-70.209605
  0
LINE
  8
ボルト／ビス
  6
CONTINUOUS
 10
59.023775
 20
-70.209605
 11
58.29044
 21
-70.209605
  0
LINE
  8
ボルト／ビス
  6
CONTINUOUS
 10
58.957107
 20
-70.109605
 11
58.957107
 21
-70.142937
  0
LINE
  8
ボルト／ビス
  6
CONTINUOUS
 10
58.957107
 20
-70.109605
 11
58.357107
 21
-70.109605
  0
LINE
  8
ボルト／ビス
  6
CONTINUOUS
 10
58.357107
 20
-70.109605
 11
58.357107
 21
-70.142937
  0
LINE
  8
ボルト／ビス
  6
CONTINUOUS
 62
    64
 10
58.817483
 20
-69.909605
 11
58.849558
 21
-69.92128
  0
ARC
  8
ボルト／ビス
  6
CONTINUOUS
 62
    64
 10
58.801446
 20
-70.014585
 40
0.104978
 50
90.0
 51
117.278033
  0
ARC
  8
ボルト／ビス
  6
CONTINUOUS
 62
    64
 10
58.657108
 20
-70.312009
 40
0.402402
 50
76.165015
 51
103.834998
  0
LINE
  8
ボルト／ビス
  6
CONTINUOUS
 62
    64
 10
58.496732
 20
-69.909605
 11
58.464658
 21
-69.92128
  0
ARC
  8
ボルト／ビス
  6
CONTINUOUS
 62
    64
 10
58.512771
 20
-70.014585
 40
0.104978
 50
62.721967
 51
90.0
  0
LINE
  8
ボルト／ビス
  6
CONTINUOUS
 62
    64
 10
58.817483
 20
-69.909605
 11
58.496732
 21
-69.909605
  0
LINE
  8
ボルト／ビス
  6
CONTINUOUS
 62
    64
 10
58.464658
 20
-69.92128
 11
58.464658
 21
-70.042937
  0
LINE
  8
ボルト／ビス
  6
CONTINUOUS
 62
    64
 10
58.560882
 20
-69.92128
 11
58.560882
 21
-70.042937
  0
LINE
  8
ボルト／ビス
  6
CONTINUOUS
 62
    64
 10
58.849558
 20
-69.92128
 11
58.849558
 21
-70.042937
  0
LINE
  8
ボルト／ビス
  6
CONTINUOUS
 62
    64
 10
58.753333
 20
-69.92128
 11
58.753333
 21
-70.042937
  0
LINE
  8
ボルト／ビス
  6
CONTINUOUS
 10
58.849558
 20
-70.042937
 11
58.464658
 21
-70.042937
  0
LINE
  8
ボルト／ビス
  6
CONTINUOUS
 10
58.857107
 20
-70.042937
 11
58.857107
 21
-70.109605
  0
LINE
  8
ボルト／ビス
  6
CONTINUOUS
 10
58.857107
 20
-70.042937
 11
58.457107
 21
-70.042937
  0
LINE
  8
ボルト／ビス
  6
CONTINUOUS
 10
58.457107
 20
-70.042937
 11
58.457107
 21
-70.109605
  0
ENDBLK
  0
BLOCK
  2
*DIM_0015
 70
    65
 10
0.0
 20
0.0
  0
LINE
  8
寸法
  6
BYBLOCK
 62
     0
 10
-58.676228
 20
14.380432
 11
-58.676228
 21
9.329425
  0
LINE
  8
寸法
  6
BYBLOCK
 62
     0
 10
41.323768
 20
14.380432
 11
41.323768
 21
9.329425
  0
LINE
  8
寸法
  6
BYBLOCK
 62
     0
 10
-58.676228
 20
9.329425
 11
41.323768
 21
9.329425
  0
POINT
  8
寸法
 62
     0
 10
-58.676228
 20
9.329425
  0
POINT
  8
寸法
 62
     0
 10
41.323768
 20
9.329425
  0
TEXT
  7
TextStyle03
  8
寸法
  6
CONTINUOUS
 62
     0
 10
-11.98125
 20
9.725
  1
3000
 40
3.0
 72
     5
 11
-5.41875
 21
9.725
  0
ENDBLK
  0
BLOCK
  2
*DIM_0016
 70
    65
 10
0.0
 20
0.0
  0
LINE
  8
寸法
  6
CONTINUOUS
 10
60.657105
 20
-70.209613
 11
73.059235
 21
-70.209613
  0
LINE
  8
寸法
  6
CONTINUOUS
 10
59.990452
 20
-75.709613
 11
73.059235
 21
-75.709613
  0
LINE
  8
寸法
  6
CONTINUOUS
 10
73.059235
 20
-70.209613
 11
73.059235
 21
-75.709613
  0
POINT
  8
寸法
 10
73.059235
 20
-70.209613
  0
POINT
  8
寸法
 10
73.059235
 20
-75.709613
  0
TEXT
  7
TextStyle03
  8
寸法
  6
CONTINUOUS
 10
72.675
 20
-75.4125
  1
165
 40
3.0
 50
90.0
 72
     5
 11
72.675
 21
-70.5375
  0
ENDBLK
  0
BLOCK
  2
*DIM_0017
 70
    65
 10
0.0
 20
0.0
  0
LINE
  8
寸法
  6
CONTINUOUS
 10
65.490452
 20
-78.709613
 11
73.059235
 21
-78.709613
  0
LINE
  8
寸法
  6
CONTINUOUS
 10
73.059235
 20
-75.709613
 11
73.059235
 21
-78.709613
  0
POINT
  8
寸法
 10
73.059235
 20
-78.709613
  0
TEXT
  7
TextStyle03
  8
寸法
  6
CONTINUOUS
 10
72.675
 20
-78.725
  1
※
 40
3.0
 50
90.0
 72
     5
 11
72.675
 21
-75.725
  0
ENDBLK
  0
BLOCK
  2
*DIM_0018
 70
    65
 10
0.0
 20
0.0
  0
LINE
  8
寸法
  6
CONTINUOUS
 10
-81.842905
 20
-75.376282
 11
-81.842905
 21
-13.121378
  0
LINE
  8
寸法
  6
CONTINUOUS
 10
-75.342895
 20
-13.121378
 11
-81.842905
 21
-13.121378
  0
POINT
  8
寸法
 10
-75.342895
 20
-13.121378
  0
POINT
  8
寸法
 10
-81.842905
 20
-13.121378
  0
TEXT
  7
TextStyle03
  8
寸法
  6
CONTINUOUS
 10
-80.1
 20
-12.75
  1
※
 40
3.0
 72
     5
 11
-77.1
 21
-12.75
  0
ENDBLK
  0
BLOCK
  2
*DIM_0019
 70
    65
 10
0.0
 20
0.0
  0
LINE
  8
寸法
  6
CONTINUOUS
 10
64.490452
 20
-75.376282
 11
64.490452
 21
-13.121378
  0
LINE
  8
寸法
  6
CONTINUOUS
 10
57.990438
 20
-13.121378
 11
64.490452
 21
-13.121378
  0
POINT
  8
寸法
 10
57.990438
 20
-13.121378
  0
POINT
  8
寸法
 10
64.490452
 20
-13.121378
  0
TEXT
  7
TextStyle03
  8
寸法
  6
CONTINUOUS
 10
59.725
 20
-12.75
  1
※
 40
3.0
 72
     5
 11
62.725
 21
-12.75
  0
ENDBLK
  0
BLOCK
  2
*GRP_0020
 70
    65
 10
0.0
 20
0.0
  0
LINE
  8
型材断面
  6
DOT
 62
    47
 10
148.611578
 20
55.286867
 11
149.955107
 21
53.943338
  0
LINE
  8
型材断面
  6
DOT
 62
    47
 10
125.98414
 20
32.659427
 11
127.32767
 21
31.315898
  0
LINE
  8
型材断面
  6
DOT
 10
127.32767
 20
31.315898
 11
149.955107
 21
53.943338
  0
LINE
  8
別途部材
  6
DOT
 62
    96
 10
148.375865
 20
56.465367
 11
149.365815
 21
56.041105
  0
INSERT
  2
*GRP_0030
  8
別途部材
  6
DOT
 10
0.0
 20
0.0
  0
LINE
  8
別途部材
  6
DOT
 62
    96
 10
124.805638
 20
32.89514
 11
125.229903
 21
31.905192
  0
INSERT
  2
*GRP_0031
  8
別途部材
  6
DOT
 10
0.0
 20
0.0
  0
LINE
  8
別途部材
  6
DOT
 10
125.229903
 20
31.905192
 11
149.365815
 21
56.041105
  0
LINE
  8
別途部材
  6
DOT
 62
    96
 10
124.805638
 20
32.89514
 11
148.375865
 21
56.465367
  0
ARC
  8
別途部材
  6
DOT
 10
143.190413
 20
38.080593
 40
17.666667
 50
76.890792
 51
193.109208
  0
ENDBLK
  0
BLOCK
  2
*DIM_0021
 70
    65
 10
0.0
 20
0.0
  0
LINE
  8
寸法
  6
CONTINUOUS
 10
106.68648
 20
22.814033
 11
106.68648
 21
52.814033
  0
POINT
  8
寸法
 10
106.68648
 20
22.814033
 50
-90.0
  0
POINT
  8
寸法
 10
106.68648
 20
52.814033
 50
-90.0
  0
TEXT
  7
TextStyle03
  8
寸法
  6
CONTINUOUS
 10
106.35
 20
26.95
  1
呼称寸法　900
 40
3.0
 50
90.0
 72
     5
 11
106.35
 21
48.7
  0
ENDBLK
  0
BLOCK
  2
*DIM_0022
 70
    65
 10
0.0
 20
0.0
  0
LINE
  8
寸法
  6
CONTINUOUS
 10
152.33387
 20
16.314018
 11
106.68648
 21
16.314018
  0
LINE
  8
寸法
  6
CONTINUOUS
 10
106.68648
 20
22.814033
 11
106.68648
 21
16.314018
  0
POINT
  8
寸法
 10
106.68648
 20
22.814033
  0
POINT
  8
寸法
 10
106.68648
 20
16.314018
  0
TEXT
  7
TextStyle03
  8
寸法
  6
CONTINUOUS
 10
106.325
 20
18.1
  1
※
 40
3.0
 50
90.0
 72
     5
 11
106.325
 21
21.1
  0
ENDBLK
  0
BLOCK
  2
*DIM_0023
 70
    65
 10
0.0
 20
0.0
  0
LINE
  8
寸法
  6
CONTINUOUS
 10
152.33387
 20
59.314048
 11
106.68648
 21
59.314048
  0
LINE
  8
寸法
  6
CONTINUOUS
 10
106.68648
 20
52.814033
 11
106.68648
 21
59.314048
  0
POINT
  8
寸法
 10
106.68648
 20
52.814033
  0
POINT
  8
寸法
 10
106.68648
 20
59.314048
  0
TEXT
  7
TextStyle03
  8
寸法
  6
CONTINUOUS
 10
106.325
 20
54.6
  1
※
 40
3.0
 50
90.0
 72
     5
 11
106.325
 21
57.6
  0
ENDBLK
  0
BLOCK
  2
*DIM_0024
 70
    65
 10
0.0
 20
0.0
  0
LINE
  8
寸法
  6
CONTINUOUS
 10
138.833868
 20
38.814033
 11
138.833868
 21
75.913455
  0
LINE
  8
寸法
  6
CONTINUOUS
 10
147.1672
 20
55.480703
 11
147.1672
 21
75.913455
  0
LINE
  8
寸法
  6
CONTINUOUS
 10
138.833868
 20
75.913455
 11
147.1672
 21
75.913455
  0
POINT
  8
寸法
 10
138.833868
 20
75.913455
  0
POINT
  8
寸法
 10
147.1672
 20
75.913455
  0
TEXT
  7
TextStyle03
  8
寸法
  6
CONTINUOUS
 10
140.5875
 20
76.325
  1
250
 40
3.0
 72
     5
 11
145.4625
 21
76.325
  0
ENDBLK
  0
BLOCK
  2
*DIM_0025
 70
    65
 10
0.0
 20
0.0
  0
LINE
  8
寸法
  6
CONTINUOUS
 10
152.6672
 20
54.814048
 11
152.6672
 21
75.913455
  0
LINE
  8
寸法
  6
CONTINUOUS
 10
147.1672
 20
75.913455
 11
152.6672
 21
75.913455
  0
POINT
  8
寸法
 10
152.6672
 20
75.913455
  0
TEXT
  7
TextStyle03
  8
寸法
  6
CONTINUOUS
 10
147.4875
 20
76.325
  1
165
 40
3.0
 72
     5
 11
152.3625
 21
76.325
  0
ENDBLK
  0
BLOCK
  2
*DIM_0026
 70
    65
 10
0.0
 20
0.0
  0
LINE
  8
寸法
  6
CONTINUOUS
 10
155.6672
 20
60.314048
 11
155.6672
 21
75.913455
  0
LINE
  8
寸法
  6
CONTINUOUS
 10
152.6672
 20
75.913455
 11
155.6672
 21
75.913455
  0
POINT
  8
寸法
 10
155.6672
 20
75.913455
  0
TEXT
  7
TextStyle03
  8
寸法
  6
CONTINUOUS
 10
152.675
 20
76.325
  1
※
 40
3.0
 72
     5
 11
155.675
 21
76.325
  0
ENDBLK
  0
BLOCK
  2
*GRP_0027
 70
    65
 10
0.0
 20
0.0
  0
LINE
  8
ボルト／ビス
  6
CONTINUOUS
 10
147.167202
 20
53.480703
 11
146.700535
 21
53.480703
  0
LINE
  8
ボルト／ビス
  6
CONTINUOUS
 10
147.167202
 20
53.84737
 11
147.100535
 21
53.84737
  0
LINE
  8
ボルト／ビス
  6
CONTINUOUS
 10
147.100535
 20
53.84737
 11
147.100535
 21
53.114035
  0
LINE
  8
ボルト／ビス
  6
CONTINUOUS
 10
147.100535
 20
53.114035
 11
147.167202
 21
53.114035
  0
LINE
  8
ボルト／ビス
  6
CONTINUOUS
 10
147.167202
 20
53.84737
 11
147.167202
 21
53.114035
  0
LINE
  8
ボルト／ビス
  6
CONTINUOUS
 10
147.067202
 20
53.780703
 11
147.100535
 21
53.780703
  0
LINE
  8
ボルト／ビス
  6
CONTINUOUS
 10
147.067202
 20
53.780703
 11
147.067202
 21
53.180703
  0
LINE
  8
ボルト／ビス
  6
CONTINUOUS
 10
147.067202
 20
53.180703
 11
147.100535
 21
53.180703
  0
LINE
  8
ボルト／ビス
  6
CONTINUOUS
 62
    64
 10
146.867202
 20
53.641078
 11
146.878878
 21
53.673152
  0
ARC
  8
ボルト／ビス
  6
CONTINUOUS
 62
    64
 10
146.97218
 20
53.625044
 40
0.104978
 50
180.0
 51
207.278033
  0
ARC
  8
ボルト／ビス
  6
CONTINUOUS
 62
    64
 10
147.269604
 20
53.480707
 40
0.402402
 50
166.165015
 51
193.834998
  0
LINE
  8
ボルト／ビス
  6
CONTINUOUS
 62
    64
 10
146.867202
 20
53.320327
 11
146.878878
 21
53.288253
  0
ARC
  8
ボルト／ビス
  6
CONTINUOUS
 62
    64
 10
146.97218
 20
53.336369
 40
0.104978
 50
152.721967
 51
180.0
  0
LINE
  8
ボルト／ビス
  6
CONTINUOUS
 62
    64
 10
146.867202
 20
53.641078
 11
146.867202
 21
53.320327
  0
LINE
  8
ボルト／ビス
  6
CONTINUOUS
 62
    64
 10
146.878878
 20
53.288253
 11
147.000535
 21
53.288253
  0
LINE
  8
ボルト／ビス
  6
CONTINUOUS
 62
    64
 10
146.878878
 20
53.384477
 11
147.000535
 21
53.384477
  0
LINE
  8
ボルト／ビス
  6
CONTINUOUS
 62
    64
 10
146.878878
 20
53.673152
 11
147.000535
 21
53.673152
  0
LINE
  8
ボルト／ビス
  6
CONTINUOUS
 62
    64
 10
146.878878
 20
53.576928
 11
147.000535
 21
53.576928
  0
LINE
  8
ボルト／ビス
  6
CONTINUOUS
 10
147.000535
 20
53.673152
 11
147.000535
 21
53.288253
  0
LINE
  8
ボルト／ビス
  6
CONTINUOUS
 10
147.000535
 20
53.680703
 11
147.067202
 21
53.680703
  0
LINE
  8
ボルト／ビス
  6
CONTINUOUS
 10
147.000535
 20
53.680703
 11
147.000535
 21
53.280703
  0
LINE
  8
ボルト／ビス
  6
CONTINUOUS
 10
147.000535
 20
53.280703
 11
147.067202
 21
53.280703
  0
ENDBLK
  0
BLOCK
  2
*GRP_0028
 70
    65
 10
0.0
 20
0.0
  0
LINE
  8
ボルト／ビス
  6
CONTINUOUS
 10
147.167202
 20
22.147365
 11
146.700535
 21
22.147365
  0
LINE
  8
ボルト／ビス
  6
CONTINUOUS
 10
147.167202
 20
21.780697
 11
147.100535
 21
21.780697
  0
LINE
  8
ボルト／ビス
  6
CONTINUOUS
 10
147.100535
 20
21.780697
 11
147.100535
 21
22.514033
  0
LINE
  8
ボルト／ビス
  6
CONTINUOUS
 10
147.100535
 20
22.514033
 11
147.167202
 21
22.514033
  0
LINE
  8
ボルト／ビス
  6
CONTINUOUS
 10
147.167202
 20
21.780697
 11
147.167202
 21
22.514033
  0
LINE
  8
ボルト／ビス
  6
CONTINUOUS
 10
147.067202
 20
21.847365
 11
147.100535
 21
21.847365
  0
LINE
  8
ボルト／ビス
  6
CONTINUOUS
 10
147.067202
 20
21.847365
 11
147.067202
 21
22.447365
  0
LINE
  8
ボルト／ビス
  6
CONTINUOUS
 10
147.067202
 20
22.447365
 11
147.100535
 21
22.447365
  0
LINE
  8
ボルト／ビス
  6
CONTINUOUS
 62
    64
 10
146.867202
 20
21.98699
 11
146.878878
 21
21.954915
  0
ARC
  8
ボルト／ビス
  6
CONTINUOUS
 62
    64
 10
146.97218
 20
22.00303
 40
0.104978
 50
152.721967
 51
180.0
  0
ARC
  8
ボルト／ビス
  6
CONTINUOUS
 62
    64
 10
147.269604
 20
22.147368
 40
0.402402
 50
166.165002
 51
193.834985
  0
LINE
  8
ボルト／ビス
  6
CONTINUOUS
 62
    64
 10
146.867202
 20
22.30774
 11
146.878878
 21
22.339815
  0
ARC
  8
ボルト／ビス
  6
CONTINUOUS
 62
    64
 10
146.97218
 20
22.291705
 40
0.104978
 50
180.0
 51
207.278033
  0
LINE
  8
ボルト／ビス
  6
CONTINUOUS
 62
    64
 10
146.867202
 20
21.98699
 11
146.867202
 21
22.30774
  0
LINE
  8
ボルト／ビス
  6
CONTINUOUS
 62
    64
 10
146.878878
 20
22.339815
 11
147.000535
 21
22.339815
  0
LINE
  8
ボルト／ビス
  6
CONTINUOUS
 62
    64
 10
146.878878
 20
22.24359
 11
147.000535
 21
22.24359
  0
LINE
  8
ボルト／ビス
  6
CONTINUOUS
 62
    64
 10
146.878878
 20
21.954915
 11
147.000535
 21
21.954915
  0
LINE
  8
ボルト／ビス
  6
CONTINUOUS
 62
    64
 10
146.878878
 20
22.05114
 11
147.000535
 21
22.05114
  0
LINE
  8
ボルト／ビス
  6
CONTINUOUS
 10
147.000535
 20
21.954915
 11
147.000535
 21
22.339815
  0
LINE
  8
ボルト／ビス
  6
CONTINUOUS
 10
147.000535
 20
21.947365
 11
147.067202
 21
21.947365
  0
LINE
  8
ボルト／ビス
  6
CONTINUOUS
 10
147.000535
 20
21.947365
 11
147.000535
 21
22.347365
  0
LINE
  8
ボルト／ビス
  6
CONTINUOUS
 10
147.000535
 20
22.347365
 11
147.067202
 21
22.347365
  0
ENDBLK
  0
BLOCK
  2
*GRP_0029
 70
    65
 10
0.0
 20
0.0
  0
INSERT
  2
*GRP_0032
  8
補助線
  6
CONTINUOUS
 10
0.0
 20
0.0
  0
CIRCLE
  8
別途部材
  6
CONTINUOUS
 10
150.16724
 20
54.014048
 40
0.2
  0
CIRCLE
  8
別途部材
  6
CONTINUOUS
 10
150.16724
 20
54.014048
 40
0.1
  0
LINE
  8
別途部材
  6
CONTINUOUS
 10
148.76724
 20
53.914048
 11
148.76724
 21
53.814048
  0
LINE
  8
別途部材
  6
CONTINUOUS
 10
150.16724
 20
53.814048
 11
148.76724
 21
53.814048
  0
LINE
  8
別途部材
  6
CONTINUOUS
 10
148.76724
 20
53.914048
 11
149.994035
 21
53.914048
  0
LINE
  8
別途部材
  6
CONTINUOUS
 10
151.56724
 20
53.914048
 11
151.56724
 21
53.814048
  0
LINE
  8
別途部材
  6
CONTINUOUS
 10
150.16724
 20
53.814048
 11
151.56724
 21
53.814048
  0
LINE
  8
別途部材
  6
CONTINUOUS
 10
151.56724
 20
53.914048
 11
150.340445
 21
53.914048
  0
LINE
  8
別途部材
  6
CONTINUOUS
 10
149.033905
 20
53.914048
 11
149.033905
 21
53.814048
  0
LINE
  8
別途部材
  6
CONTINUOUS
 10
149.30057
 20
53.914048
 11
149.30057
 21
53.814048
  0
LINE
  8
別途部材
  6
CONTINUOUS
 10
149.56724
 20
53.914048
 11
149.56724
 21
53.814048
  0
LINE
  8
別途部材
  6
CONTINUOUS
 10
151.30057
 20
53.914048
 11
151.30057
 21
53.814048
  0
LINE
  8
別途部材
  6
CONTINUOUS
 10
151.033905
 20
53.914048
 11
151.033905
 21
53.814048
  0
LINE
  8
別途部材
  6
CONTINUOUS
 10
150.76724
 20
53.914048
 11
150.76724
 21
53.814048
  0
ENDBLK
  0
BLOCK
  2
*GRP_0030
 70
    65
 10
0.0
 20
0.0
  0
LINE
  8
ボルト／ビス
  6
DOT
 10
147.66876
 20
55.758262
 11
147.338777
 21
56.088245
  0
LINE
  8
ボルト／ビス
  6
DOT
 10
147.928035
 20
56.017535
 11
147.880892
 21
56.064677
  0
LINE
  8
ボルト／ビス
  6
DOT
 10
147.880892
 20
56.064677
 11
147.362348
 21
55.54613
  0
LINE
  8
ボルト／ビス
  6
DOT
 10
147.362348
 20
55.54613
 11
147.40949
 21
55.498987
  0
LINE
  8
ボルト／ビス
  6
DOT
 10
147.928035
 20
56.017535
 11
147.40949
 21
55.498987
  0
LINE
  8
ボルト／ビス
  6
DOT
 10
147.810182
 20
56.041102
 11
147.83375
 21
56.017535
  0
LINE
  8
ボルト／ビス
  6
DOT
 10
147.810182
 20
56.041102
 11
147.385917
 21
55.61684
  0
LINE
  8
ボルト／ビス
  6
DOT
 10
147.385917
 20
55.61684
 11
147.409488
 21
55.59327
  0
LINE
  8
ボルト／ビス
  6
DOT
 62
    64
 10
147.57003
 20
56.083795
 11
147.600967
 21
56.09822
  0
ARC
  8
ボルト／ビス
  6
DOT
 62
    64
 10
147.632923
 20
55.998228
 40
0.104978
 50
135.0
 51
162.278033
  0
ARC
  8
ボルト／ビス
  6
DOT
 62
    64
 10
147.741171
 20
55.685855
 40
0.402402
 50
121.165015
 51
148.834998
  0
LINE
  8
ボルト／ビス
  6
DOT
 62
    64
 10
147.343227
 20
55.856992
 11
147.328802
 21
55.826055
  0
ARC
  8
ボルト／ビス
  6
DOT
 62
    64
 10
147.428799
 20
55.794104
 40
0.104978
 50
107.721967
 51
135.0
  0
LINE
  8
ボルト／ビス
  6
DOT
 62
    64
 10
147.57003
 20
56.083795
 11
147.343227
 21
55.856992
  0
LINE
  8
ボルト／ビス
  6
DOT
 62
    64
 10
147.328802
 20
55.826055
 11
147.414825
 21
55.74003
  0
LINE
  8
ボルト／ビス
  6
DOT
 62
    64
 10
147.396842
 20
55.894097
 11
147.482868
 21
55.808072
  0
LINE
  8
ボルト／ビス
  6
DOT
 62
    64
 10
147.600967
 20
56.09822
 11
147.68699
 21
56.012197
  0
LINE
  8
ボルト／ビス
  6
DOT
 62
    64
 10
147.532925
 20
56.030177
 11
147.61895
 21
55.944155
  0
LINE
  8
ボルト／ビス
  6
DOT
 10
147.68699
 20
56.012197
 11
147.414825
 21
55.74003
  0
LINE
  8
ボルト／ビス
  6
DOT
 10
147.69233
 20
56.017535
 11
147.739473
 21
55.970392
  0
LINE
  8
ボルト／ビス
  6
DOT
 10
147.69233
 20
56.017535
 11
147.409488
 21
55.734692
  0
LINE
  8
ボルト／ビス
  6
DOT
 10
147.409488
 20
55.734692
 11
147.45663
 21
55.68755
  0
ENDBLK
  0
BLOCK
  2
*GRP_0031
 70
    65
 10
0.0
 20
0.0
  0
LINE
  8
ボルト／ビス
  6
DOT
 10
125.512745
 20
33.602247
 11
125.182763
 21
33.93223
  0
LINE
  8
ボルト／ビス
  6
DOT
 10
125.253472
 20
33.342972
 11
125.20633
 21
33.390115
  0
LINE
  8
ボルト／ビス
  6
DOT
 10
125.20633
 20
33.390115
 11
125.724878
 21
33.90866
  0
LINE
  8
ボルト／ビス
  6
DOT
 10
125.724878
 20
33.90866
 11
125.77202
 21
33.861518
  0
LINE
  8
ボルト／ビス
  6
DOT
 10
125.253472
 20
33.342972
 11
125.77202
 21
33.861518
  0
LINE
  8
ボルト／ビス
  6
DOT
 10
125.229905
 20
33.460825
 11
125.253472
 21
33.437255
  0
LINE
  8
ボルト／ビス
  6
DOT
 10
125.229905
 20
33.460825
 11
125.654168
 21
33.885088
  0
LINE
  8
ボルト／ビス
  6
DOT
 10
125.654168
 20
33.885088
 11
125.677735
 21
33.86152
  0
LINE
  8
ボルト／ビス
  6
DOT
 62
    64
 10
125.187212
 20
33.700978
 11
125.172788
 21
33.67004
  0
ARC
  8
ボルト／ビス
  6
DOT
 62
    64
 10
125.272783
 20
33.638087
 40
0.104978
 50
107.721967
 51
135.0
  0
ARC
  8
ボルト／ビス
  6
DOT
 62
    64
 10
125.585155
 20
33.529839
 40
0.402402
 50
121.165002
 51
148.834985
  0
LINE
  8
ボルト／ビス
  6
DOT
 62
    64
 10
125.414015
 20
33.92778
 11
125.444953
 21
33.942205
  0
ARC
  8
ボルト／ビス
  6
DOT
 62
    64
 10
125.476907
 20
33.842211
 40
0.104978
 50
135.0
 51
162.278033
  0
LINE
  8
ボルト／ビス
  6
DOT
 62
    64
 10
125.187212
 20
33.700978
 11
125.414015
 21
33.92778
  0
LINE
  8
ボルト／ビス
  6
DOT
 62
    64
 10
125.444953
 20
33.942205
 11
125.530975
 21
33.856183
  0
LINE
  8
ボルト／ビス
  6
DOT
 62
    64
 10
125.37691
 20
33.874163
 11
125.462935
 21
33.78814
  0
LINE
  8
ボルト／ビス
  6
DOT
 62
    64
 10
125.172788
 20
33.67004
 11
125.25881
 21
33.584017
  0
LINE
  8
ボルト／ビス
  6
DOT
 62
    64
 10
125.240827
 20
33.738083
 11
125.326852
 21
33.652058
  0
LINE
  8
ボルト／ビス
  6
DOT
 10
125.25881
 20
33.584017
 11
125.530975
 21
33.856183
  0
LINE
  8
ボルト／ビス
  6
DOT
 10
125.253472
 20
33.578678
 11
125.300615
 21
33.531535
  0
LINE
  8
ボルト／ビス
  6
DOT
 10
125.253472
 20
33.578678
 11
125.536315
 21
33.86152
  0
LINE
  8
ボルト／ビス
  6
DOT
 10
125.536315
 20
33.86152
 11
125.583458
 21
33.814378
  0
ENDBLK
  0
BLOCK
  2
*GRP_0032
 70
    65
 10
0.0
 20
0.0
  0
LINE
  8
補助線
  6
BYBLOCK
 62
     0
 10
150.16724
 20
53.84738
 11
150.16724
 21
54.180712
  0
LINE
  8
補助線
  6
BYBLOCK
 62
     0
 10
150.00057
 20
54.014048
 11
150.333905
 21
54.014048
  0
ENDBLK
  0
BLOCK
  2
*DIM_0033
 70
    65
 10
0.0
 20
0.0
  0
LINE
  8
寸法
  6
CONTINUOUS
 10
138.035135
 20
-38.739412
 11
138.035135
 21
-29.399832
  0
LINE
  8
寸法
  6
CONTINUOUS
 10
105.825135
 20
-38.739412
 11
105.825135
 21
-29.399832
  0
LINE
  8
寸法
  6
CONTINUOUS
 10
138.035135
 20
-29.399832
 11
105.825135
 21
-29.399832
  0
POINT
  8
寸法
 10
138.035135
 20
-29.399832
  0
POINT
  8
寸法
 10
105.825135
 20
-29.399832
  0
TEXT
  7
TextStyle03
  8
寸法
  6
CONTINUOUS
 10
117.8
 20
-29.05
  1
966.3
 40
3.0
 72
     5
 11
126.05
 21
-29.05
  0
ENDBLK
  0
BLOCK
  2
*DIM_0034
 70
    65
 10
0.0
 20
0.0
  0
LINE
  8
寸法
  6
CONTINUOUS
 10
139.035135
 20
-39.739412
 11
148.010843
 21
-39.739412
  0
LINE
  8
寸法
  6
CONTINUOUS
 10
139.035135
 20
-69.739412
 11
148.010843
 21
-69.739412
  0
LINE
  8
寸法
  6
CONTINUOUS
 10
148.010843
 20
-39.739412
 11
148.010843
 21
-69.739412
  0
POINT
  8
寸法
 10
148.010843
 20
-39.739412
  0
POINT
  8
寸法
 10
148.010843
 20
-69.739412
  0
TEXT
  7
TextStyle03
  8
寸法
  6
CONTINUOUS
 10
147.625
 20
-57.1875
  1
900
 40
3.0
 50
90.0
 72
     5
 11
147.625
 21
-52.3125
  0
ENDBLK
  0
BLOCK
  2
*DIM_0035
 70
    65
 10
0.0
 20
0.0
  0
LINE
  8
寸法
  6
BYBLOCK
 62
     0
 10
-67.009562
 20
61.793605
 11
-67.009562
 21
90.901678
  0
LINE
  8
寸法
  6
BYBLOCK
 62
     0
 10
-43.67623
 20
61.793605
 11
-43.67623
 21
90.901678
  0
LINE
  8
寸法
  6
BYBLOCK
 62
     0
 10
-67.009562
 20
90.901678
 11
-43.67623
 21
90.901678
  0
POINT
  8
寸法
 62
     0
 10
-67.009562
 20
90.901678
  0
POINT
  8
寸法
 62
     0
 10
-43.67623
 20
90.901678
  0
TEXT
  7
TextStyle03
  8
寸法
  6
CONTINUOUS
 62
     0
 10
-57.7875
 20
91.25
  1
700
 40
3.0
 72
     5
 11
-52.9125
 21
91.25
  0
ENDBLK
  0
BLOCK
  2
*DIM_0036
 70
    65
 10
0.0
 20
0.0
  0
LINE
  8
寸法
  6
BYBLOCK
 62
     0
 10
-20.342897
 20
61.793605
 11
-20.342897
 21
90.901678
  0
LINE
  8
寸法
  6
BYBLOCK
 62
     0
 10
-43.67623
 20
90.901678
 11
-20.342897
 21
90.901678
  0
POINT
  8
寸法
 62
     0
 10
-20.342897
 20
90.901678
  0
TEXT
  7
TextStyle03
  8
寸法
  6
CONTINUOUS
 62
     0
 10
-34.4625
 20
91.25
  1
700
 40
3.0
 72
     5
 11
-29.5875
 21
91.25
  0
ENDBLK
  0
BLOCK
  2
*DIM_0037
 70
    65
 10
0.0
 20
0.0
  0
LINE
  8
寸法
  6
BYBLOCK
 62
     0
 10
2.990438
 20
61.793605
 11
2.990438
 21
90.901678
  0
LINE
  8
寸法
  6
BYBLOCK
 62
     0
 10
-20.342897
 20
90.901678
 11
2.990438
 21
90.901678
  0
POINT
  8
寸法
 62
     0
 10
2.990438
 20
90.901678
  0
TEXT
  7
TextStyle03
  8
寸法
  6
CONTINUOUS
 62
     0
 10
-11.1375
 20
91.25
  1
700
 40
3.0
 72
     5
 11
-6.2625
 21
91.25
  0
ENDBLK
  0
BLOCK
  2
*DIM_0038
 70
    65
 10
0.0
 20
0.0
  0
LINE
  8
寸法
  6
BYBLOCK
 62
     0
 10
26.32377
 20
61.793605
 11
26.32377
 21
90.901678
  0
LINE
  8
寸法
  6
BYBLOCK
 62
     0
 10
2.990438
 20
90.901678
 11
26.32377
 21
90.901678
  0
POINT
  8
寸法
 62
     0
 10
26.32377
 20
90.901678
  0
TEXT
  7
TextStyle03
  8
寸法
  6
CONTINUOUS
 62
     0
 10
12.2125
 20
91.25
  1
700
 40
3.0
 72
     5
 11
17.0875
 21
91.25
  0
ENDBLK
  0
BLOCK
  2
*DIM_0039
 70
    65
 10
0.0
 20
0.0
  0
LINE
  8
寸法
  6
BYBLOCK
 62
     0
 10
49.657102
 20
61.793605
 11
49.657102
 21
90.901678
  0
LINE
  8
寸法
  6
BYBLOCK
 62
     0
 10
26.32377
 20
90.901678
 11
49.657102
 21
90.901678
  0
POINT
  8
寸法
 62
     0
 10
49.657102
 20
90.901678
  0
TEXT
  7
TextStyle03
  8
寸法
  6
CONTINUOUS
 62
     0
 10
35.5375
 20
91.25
  1
700
 40
3.0
 72
     5
 11
40.4125
 21
91.25
  0
ENDBLK
  0
ENDSEC
  0
SECTION
  2
ENTITIES
  0
POLYLINE
  8
通り芯
  6
CONTINUOUS
 66
     1
 70
     1
  0
VERTEX
  8
通り芯
 10
-210.0
 20
-148.5
  0
VERTEX
  8
通り芯
 10
210.0
 20
-148.5
  0
VERTEX
  8
通り芯
 10
210.0
 20
148.5
  0
VERTEX
  8
通り芯
 10
-210.0
 20
148.5
  0
SEQEND
  0
INSERT
  2
*GRP_0001
  8
型材断面
  6
CONTINUOUS
 10
0.0
 20
0.0
  0
LINE
  8
型材断面
  6
DASHDOT
 10
57.990438
 20
-77.836442
 11
57.990438
 21
52.814033
  0
LINE
  8
型材断面
  6
DASHDOT
 10
-8.67623
 20
-77.836442
 11
-8.67623
 21
52.814033
  0
LINE
  8
型材断面
  6
DASHDOT
 10
-75.342895
 20
-77.836442
 11
-75.342895
 21
52.814033
  0
LINE
  8
型材断面
  6
DASHDOT
 10
155.6672
 20
52.814033
 11
-75.342895
 21
52.814033
  0
LINE
  8
型材断面
  6
DASHDOT
 10
155.6672
 20
37.814033
 11
-75.342895
 21
37.814033
  0
LINE
  8
型材断面
  6
DASHDOT
 10
155.6672
 20
22.814033
 11
-75.342895
 21
22.814033
  0
LINE
  8
型材断面
  6
CONTINUOUS
 10
-58.676228
 20
55.444162
 11
-60.171857
 21
58.03467
  0
LINE
  8
型材断面
  6
CONTINUOUS
 10
-58.676228
 20
55.444162
 11
-57.180598
 21
58.03467
  0
LINE
  8
型材断面
  6
CONTINUOUS
 10
-57.180598
 20
58.03467
 11
-60.171857
 21
58.03467
  0
LINE
  8
型材断面
  6
CONTINUOUS
 10
-77.973025
 20
37.814033
 11
-80.563533
 21
39.309663
  0
LINE
  8
型材断面
  6
CONTINUOUS
 10
-77.973025
 20
37.814033
 11
-80.563533
 21
36.318403
  0
LINE
  8
型材断面
  6
CONTINUOUS
 10
-80.563533
 20
36.318403
 11
-80.563533
 21
39.309663
  0
LINE
  8
型材断面
  6
CONTINUOUS
 10
-58.676228
 20
20.183902
 11
-60.171857
 21
17.593395
  0
LINE
  8
型材断面
  6
CONTINUOUS
 10
-58.676228
 20
20.183902
 11
-57.180598
 21
17.593395
  0
LINE
  8
型材断面
  6
CONTINUOUS
 10
-57.180598
 20
17.593395
 11
-60.171857
 21
17.593395
  0
LINE
  8
型材断面
  6
CONTINUOUS
 10
41.323768
 20
55.444162
 11
42.819398
 21
58.03467
  0
LINE
  8
型材断面
  6
CONTINUOUS
 10
41.323768
 20
55.444162
 11
39.828138
 21
58.03467
  0
LINE
  8
型材断面
  6
CONTINUOUS
 10
39.828138
 20
58.03467
 11
42.819398
 21
58.03467
  0
LINE
  8
型材断面
  6
CONTINUOUS
 10
41.323768
 20
20.183902
 11
42.819398
 21
17.593395
  0
LINE
  8
型材断面
  6
CONTINUOUS
 10
41.323768
 20
20.183902
 11
39.828138
 21
17.593395
  0
LINE
  8
型材断面
  6
CONTINUOUS
 10
39.828138
 20
17.593395
 11
42.819398
 21
17.593395
  0
LINE
  8
型材断面
  6
CONTINUOUS
 10
-129.221418
 20
90.791505
 11
-128.625363
 21
88.200998
  0
LINE
  8
型材断面
  6
CONTINUOUS
 10
-129.221418
 20
90.791505
 11
-129.817475
 21
88.200998
  0
LINE
  8
型材断面
  6
CONTINUOUS
 10
-129.817475
 20
88.200998
 11
-128.625363
 21
88.200998
  0
LINE
  8
型材断面
  6
CONTINUOUS
 10
-135.244005
 20
84.922105
 11
-89.002228
 21
84.922105
  0
LINE
  8
型材断面
  6
CONTINUOUS
 10
-129.221418
 20
97.32138
 11
-130.717047
 21
94.730873
  0
LINE
  8
型材断面
  6
CONTINUOUS
 10
-129.221418
 20
97.32138
 11
-127.725788
 21
94.730873
  0
LINE
  8
型材断面
  6
CONTINUOUS
 10
-127.725788
 20
94.730873
 11
-130.717047
 21
94.730873
  0
LINE
  8
型材断面
  6
CONTINUOUS
 10
-135.244005
 20
93.792277
 11
-89.002228
 21
93.792277
  0
LINE
  8
型材断面
  6
CONTINUOUS
 10
-135.244005
 20
79.134073
 11
-89.002228
 21
79.134073
  0
LINE
  8
型材断面
  6
CONTINUOUS
 10
60.620565
 20
37.814033
 11
63.211073
 21
39.309663
  0
LINE
  8
型材断面
  6
CONTINUOUS
 10
60.620565
 20
37.814033
 11
63.211073
 21
36.318403
  0
LINE
  8
型材断面
  6
CONTINUOUS
 10
63.211073
 20
36.318403
 11
63.211073
 21
39.309663
  0
LINE
  8
型材断面
  6
CONTINUOUS
 10
55.990438
 20
20.20722
 11
55.39438
 21
17.616715
  0
LINE
  8
型材断面
  6
CONTINUOUS
 10
55.990438
 20
20.20722
 11
56.586495
 21
17.616715
  0
LINE
  8
型材断面
  6
CONTINUOUS
 10
56.586495
 20
17.616715
 11
55.39438
 21
17.616715
  0
LINE
  8
型材断面
  6
CONTINUOUS
 10
-73.342897
 20
20.20722
 11
-72.74684
 21
17.616715
  0
LINE
  8
型材断面
  6
CONTINUOUS
 10
-73.342897
 20
20.20722
 11
-73.938955
 21
17.616715
  0
LINE
  8
型材断面
  6
CONTINUOUS
 10
-73.938955
 20
17.616715
 11
-72.74684
 21
17.616715
  0
LINE
  8
型材断面
  6
CONTINUOUS
 10
-81.84291
 20
16.314018
 11
-77.409565
 21
20.747363
  0
LINE
  8
型材断面
  6
CONTINUOUS
 10
60.057102
 20
20.747363
 11
64.490447
 21
16.314018
  0
LINE
  8
型材断面
  6
CONTINUOUS
 10
64.490447
 20
16.314018
 11
-81.84291
 21
16.314018
  0
LINE
  8
型材断面
  6
CONTINUOUS
 10
-77.409565
 20
54.880703
 11
-81.84291
 21
59.314048
  0
LINE
  8
型材断面
  6
CONTINUOUS
 10
-81.84291
 20
16.314018
 11
-81.84291
 21
59.314048
  0
LINE
  8
型材断面
  6
CONTINUOUS
 10
60.057102
 20
54.880703
 11
64.490447
 21
59.314048
  0
LINE
  8
型材断面
  6
CONTINUOUS
 10
64.490447
 20
59.314048
 11
64.490447
 21
16.314018
  0
LINE
  8
型材断面
  6
CONTINUOUS
 10
64.490447
 20
59.314048
 11
-81.84291
 21
59.314048
  0
POLYLINE
  8
型材断面
  6
DASHDOT
 66
     1
  0
VERTEX
  8
型材断面
 10
-75.342895
 20
22.814033
  0
VERTEX
  8
型材断面
 10
-8.67623
 20
52.814033
  0
VERTEX
  8
型材断面
 10
57.990432
 20
22.814033
  0
SEQEND
  0
LINE
  8
型材断面
  6
DOT
 10
-7.509562
 20
52.814033
 11
-7.509562
 21
22.814033
  0
LINE
  8
型材断面
  6
DASHDOT
 10
-8.67623
 20
52.814033
 11
-8.67623
 21
22.814033
  0
LINE
  8
型材断面
  6
DOT
 10
-9.842897
 20
52.814033
 11
-9.842897
 21
22.814033
  0
LINE
  8
型材断面
  6
DOT
 10
-41.217895
 20
52.814033
 11
-41.217895
 21
22.814033
  0
LINE
  8
型材断面
  6
DASHDOT
 10
-42.384562
 20
52.814033
 11
-42.384562
 21
22.814033
  0
LINE
  8
型材断面
  6
DOT
 10
-43.55123
 20
52.814033
 11
-43.55123
 21
22.814033
  0
LINE
  8
型材断面
  6
DOT
 10
23.865435
 20
52.814033
 11
23.865435
 21
22.814033
  0
LINE
  8
型材断面
  6
DASHDOT
 10
25.032102
 20
52.814033
 11
25.032102
 21
22.814033
  0
LINE
  8
型材断面
  6
DOT
 10
26.19877
 20
52.814033
 11
26.19877
 21
22.814033
  0
LINE
  8
型材断面
  6
DASHDOT
 10
-8.67623
 20
52.814033
 11
-8.67623
 21
22.814033
  0
LINE
  8
型材断面
  6
CONTINUOUS
 10
-8.676232
 20
59.314048
 11
-8.676232
 21
54.880703
  0
LINE
  8
型材断面
  6
CONTINUOUS
 10
-8.67623
 20
16.314018
 11
-8.67623
 21
20.747363
  0
LINE
  8
型材断面
  6
CONTINUOUS
 62
    47
 10
-76.342905
 20
-71.209613
 11
-76.342905
 21
-73.109652
  0
LINE
  8
型材断面
  6
CONTINUOUS
 10
-76.342905
 20
-73.309652
 11
-76.342905
 21
-75.709613
  0
LINE
  8
型材断面
  6
CONTINUOUS
 10
-76.342905
 20
-75.709613
 11
-81.842905
 21
-76.376282
  0
LINE
  8
型材断面
  6
CONTINUOUS
 10
-81.842905
 20
-78.709613
 11
-81.842905
 21
-76.376282
  0
LINE
  8
型材断面
  6
CONTINUOUS
 62
    47
 10
58.990452
 20
-71.209613
 11
58.990452
 21
-73.109652
  0
LINE
  8
型材断面
  6
CONTINUOUS
 10
58.990452
 20
-73.309652
 11
58.990452
 21
-75.709613
  0
LINE
  8
型材断面
  6
CONTINUOUS
 10
58.990452
 20
-75.709613
 11
64.490452
 21
-76.376282
  0
LINE
  8
型材断面
  6
CONTINUOUS
 10
64.490452
 20
-78.709613
 11
64.490452
 21
-76.376282
  0
LINE
  8
型材断面
  6
CONTINUOUS
 10
-81.842905
 20
-78.709613
 11
64.490452
 21
-78.709613
  0
LINE
  8
型材断面
  6
CONTINUOUS
 10
-81.842905
 20
-76.376282
 11
64.490452
 21
-76.376282
  0
LINE
  8
型材断面
  6
CONTINUOUS
 10
58.990452
 20
-73.109652
 11
-76.342905
 21
-73.109652
  0
LINE
  8
型材断面
  6
CONTINUOUS
 10
58.990452
 20
-73.309652
 11
-76.342905
 21
-73.309652
  0
LINE
  8
型材断面
  6
CONTINUOUS
 10
58.990452
 20
-75.709613
 11
-76.342905
 21
-75.709613
  0
LINE
  8
型材断面
  6
CONTINUOUS
 62
    47
 10
148.1672
 20
53.814048
 11
150.06724
 21
53.814048
  0
LINE
  8
型材断面
  6
CONTINUOUS
 10
150.26724
 20
53.814048
 11
152.6672
 21
53.814048
  0
LINE
  8
型材断面
  6
CONTINUOUS
 10
152.6672
 20
53.814048
 11
153.33387
 21
59.314048
  0
LINE
  8
型材断面
  6
CONTINUOUS
 10
155.6672
 20
59.314048
 11
153.33387
 21
59.314048
  0
LINE
  8
型材断面
  6
CONTINUOUS
 62
    47
 10
148.1672
 20
21.814018
 11
150.06724
 21
21.814018
  0
LINE
  8
型材断面
  6
CONTINUOUS
 10
150.26724
 20
21.814018
 11
152.6672
 21
21.814018
  0
LINE
  8
型材断面
  6
CONTINUOUS
 10
152.6672
 20
21.814018
 11
153.33387
 21
16.314018
  0
LINE
  8
型材断面
  6
CONTINUOUS
 10
155.6672
 20
16.314018
 11
153.33387
 21
16.314018
  0
LINE
  8
型材断面
  6
CONTINUOUS
 10
155.6672
 20
59.314048
 11
155.6672
 21
16.314018
  0
LINE
  8
型材断面
  6
CONTINUOUS
 10
153.33387
 20
59.314048
 11
153.33387
 21
16.314018
  0
LINE
  8
型材断面
  6
CONTINUOUS
 10
150.06724
 20
21.814018
 11
150.06724
 21
53.814048
  0
LINE
  8
型材断面
  6
CONTINUOUS
 10
150.26724
 20
21.814018
 11
150.26724
 21
53.814048
  0
LINE
  8
型材断面
  6
CONTINUOUS
 10
152.6672
 20
21.814018
 11
152.6672
 21
53.814048
  0
INSERT
  2
*GRP_0020
  8
型材断面
  6
DASHDOT
 10
0.0
 20
0.0
  0
ARC
  8
型材断面
  6
DASHDOT
 10
150.167238
 20
54.014049
 40
33.003318
 50
219.78455
 51
264.78455
  0
LINE
  8
ガラス
  6
CONTINUOUS
 10
138.035135
 20
-39.739412
 11
105.825135
 21
-39.739412
  0
LINE
  8
ガラス
  6
CONTINUOUS
 10
138.035135
 20
-39.739412
 11
138.035135
 21
-69.739412
  0
LINE
  8
ガラス
  6
CONTINUOUS
 10
105.825135
 20
-39.739412
 11
105.825135
 21
-69.739412
  0
LINE
  8
ガラス
  6
CONTINUOUS
 10
138.035135
 20
-69.739412
 11
105.825135
 21
-69.739412
  0
TEXT
  7
TextStyle03
  8
文字
  6
CONTINUOUS
 10
-126.45
 20
94.925
  1
は排水穴位置を示す
 40
3.0
 72
     5
 11
-96.45
 21
94.925
  0
TEXT
  7
TextStyle03
  8
文字
  6
CONTINUOUS
 10
-126.45
 20
89.4
  1
はケーシング位置を示す
 40
3.0
 72
     5
 11
-89.7
 21
89.4
  0
TEXT
  7
TextStyle03
  8
文字
  6
CONTINUOUS
 10
-126.45
 20
86.025
  1
２ヶ所中1ヶ所に設定
 40
3.0
 72
     5
 11
-94.7625
 21
86.025
  0
TEXT
  7
TextStyle03
  8
文字
  6
CONTINUOUS
 10
-96.3
 20
16.275
  1
アンカーピッチ
 40
3.0
 50
90.0
 72
     5
 11
-96.3
 21
39.525
  0
TEXT
  7
TextStyle03
  8
文字
  6
CONTINUOUS
 10
-130.175
 20
80.05
  1
アンカー数量　１６ヶ所
 40
3.0
 72
     5
 11
-93.425
 21
80.05
  0
TEXT
  7
TextStyle03
  8
文字
  6
CONTINUOUS
 10
78.1
 20
125.25
  1
シリーズ：ＳＴＤＨＬ
 40
5.0
 72
     5
 11
133.725
 21
125.25
  0
TEXT
  7
TextStyle03
  8
文字
  6
CONTINUOUS
 10
78.1
 20
119.625
  1
　　　　　（片側開閉）900×4000タイプ
 40
5.0
 72
     5
 11
181.5375
 21
119.625
  0
TEXT
  7
TextStyle03
  8
文字
  6
CONTINUOUS
 10
78.1
 20
114.0
  1
図面名　：外観姿図
 40
5.0
 72
     5
 11
128.1
 21
114.0
  0
TEXT
  7
TextStyle03
  8
文字
  6
CONTINUOUS
 10
78.1
 20
108.375
  1
　　　　　　
 40
5.0
 72
     5
 11
111.225
 21
108.375
  0
TEXT
  7
TextStyle03
  8
文字
  6
CONTINUOUS
 10
77.425
 20
103.975
  1
ＮＳコード：ＮＳＨＳＬ
 40
5.0
 72
     5
 11
138.675
 21
103.975
  0
TEXT
  7
TextStyle03
  8
文字
  6
CONTINUOUS
 10
61.35
 20
-88.975
  1
※は物件対応寸法
 40
3.0
 72
     5
 11
87.975
 21
-88.975
  0
TEXT
  7
TextStyle03
  8
文字
  6
CONTINUOUS
 10
134.775
 20
17.8
  1
45°
 40
3.0
 50
90.0
 72
     5
 11
134.775
 21
24.175
  0
TEXT
  7
TextStyle03
  8
文字
  6
CONTINUOUS
 10
119.2
 20
-62.75
  1
網入り6.8t
 40
3.0
 72
     5
 11
135.8875
 21
-62.75
  0
TEXT
  7
TextStyle03
  8
文字
  6
CONTINUOUS
 10
125.875
 20
-67.425
  1
×４枚
 40
3.0
 72
     5
 11
135.625
 21
-67.425
  0
TEXT
  7
TextStyle03
  8
文字
  6
CONTINUOUS
 10
-67.25
 20
96.8
  1
アンカーピッチ
 40
3.0
 72
     5
 11
-44.0
 21
96.8
  0
INSERT
  2
*DIM_0002
  8
寸法
  6
CONTINUOUS
 10
0.0
 20
0.0
  0
INSERT
  2
*DIM_0003
  8
寸法
  6
CONTINUOUS
 10
0.0
 20
0.0
  0
INSERT
  2
*DIM_0004
  8
寸法
  6
CONTINUOUS
 10
0.0
 20
0.0
  0
INSERT
  2
*DIM_0005
  8
寸法
  6
CONTINUOUS
 10
0.0
 20
0.0
  0
INSERT
  2
*DIM_0011
  8
寸法
  6
CONTINUOUS
 10
0.0
 20
0.0
  0
INSERT
  2
*DIM_0015
  8
寸法
  6
CONTINUOUS
 10
0.0
 20
0.0
  0
INSERT
  2
*DIM_0016
  8
寸法
  6
CONTINUOUS
 10
0.0
 20
0.0
  0
INSERT
  2
*DIM_0017
  8
寸法
  6
CONTINUOUS
 10
0.0
 20
0.0
  0
INSERT
  2
*DIM_0018
  8
寸法
  6
CONTINUOUS
 10
0.0
 20
0.0
  0
INSERT
  2
*DIM_0019
  8
寸法
  6
CONTINUOUS
 10
0.0
 20
0.0
  0
INSERT
  2
*DIM_0021
  8
寸法
  6
CONTINUOUS
 10
0.0
 20
0.0
  0
INSERT
  2
*DIM_0022
  8
寸法
  6
CONTINUOUS
 10
0.0
 20
0.0
  0
INSERT
  2
*DIM_0023
  8
寸法
  6
CONTINUOUS
 10
0.0
 20
0.0
  0
INSERT
  2
*DIM_0024
  8
寸法
  6
CONTINUOUS
 10
0.0
 20
0.0
  0
INSERT
  2
*DIM_0025
  8
寸法
  6
CONTINUOUS
 10
0.0
 20
0.0
  0
INSERT
  2
*DIM_0026
  8
寸法
  6
CONTINUOUS
 10
0.0
 20
0.0
  0
INSERT
  2
*DIM_0033
  8
寸法
  6
CONTINUOUS
 10
0.0
 20
0.0
  0
INSERT
  2
*DIM_0034
  8
寸法
  6
CONTINUOUS
 10
0.0
 20
0.0
  0
INSERT
  2
*DIM_0035
  8
寸法
  6
CONTINUOUS
 10
0.0
 20
0.0
  0
INSERT
  2
*DIM_0036
  8
寸法
  6
CONTINUOUS
 10
0.0
 20
0.0
  0
INSERT
  2
*DIM_0037
  8
寸法
  6
CONTINUOUS
 10
0.0
 20
0.0
  0
INSERT
  2
*DIM_0038
  8
寸法
  6
CONTINUOUS
 10
0.0
 20
0.0
  0
INSERT
  2
*DIM_0039
  8
寸法
  6
CONTINUOUS
 10
0.0
 20
0.0
  0
INSERT
  2
*GRP_0012
  8
別途部材
  6
CONTINUOUS
 10
0.0
 20
0.0
  0
INSERT
  2
*GRP_0013
  8
別途部材
  6
DOT
 10
0.0
 20
0.0
  0
INSERT
  2
*GRP_0014
  8
別途部材
  6
DOT
 10
0.0
 20
0.0
  0
LINE
  8
別途部材
  6
CONTINUOUS
 10
-77.409565
 20
20.747363
 11
-75.342895
 21
22.814033
  0
LINE
  8
別途部材
  6
CONTINUOUS
 10
-75.342895
 20
22.814033
 11
-71.4353
 21
26.721628
  0
LINE
  8
別途部材
  6
CONTINUOUS
 10
57.990432
 20
22.814033
 11
60.057102
 21
20.747363
  0
LINE
  8
別途部材
  6
CONTINUOUS
 10
57.990432
 20
22.814033
 11
54.082837
 21
26.721628
  0
LINE
  8
別途部材
  6
CONTINUOUS
 10
57.990432
 20
22.814033
 11
-75.342895
 21
22.814033
  0
LINE
  8
別途部材
  6
CONTINUOUS
 10
59.657102
 20
21.147363
 11
-77.009565
 21
21.147363
  0
LINE
  8
別途部材
  6
CONTINUOUS
 10
60.057102
 20
20.747363
 11
-77.409565
 21
20.747363
  0
LINE
  8
別途部材
  6
CONTINUOUS
 10
-77.409565
 20
54.880703
 11
-75.342895
 21
52.814033
  0
LINE
  8
別途部材
  6
CONTINUOUS
 10
-75.342895
 20
52.814033
 11
-75.342895
 21
22.814033
  0
LINE
  8
別途部材
  6
CONTINUOUS
 10
-77.009565
 20
54.480703
 11
-77.009565
 21
21.147363
  0
LINE
  8
別途部材
  6
CONTINUOUS
 10
-77.409565
 20
54.880703
 11
-77.409565
 21
20.747363
  0
LINE
  8
別途部材
  6
CONTINUOUS
 10
-75.342895
 20
52.814033
 11
-71.4353
 21
48.906437
  0
LINE
  8
別途部材
  6
CONTINUOUS
 10
57.990432
 20
52.814033
 11
60.057102
 21
54.880703
  0
LINE
  8
別途部材
  6
CONTINUOUS
 10
57.990432
 20
52.814033
 11
57.990432
 21
22.814033
  0
LINE
  8
別途部材
  6
CONTINUOUS
 10
59.657102
 20
54.480703
 11
59.657102
 21
21.147363
  0
LINE
  8
別途部材
  6
CONTINUOUS
 10
60.057102
 20
54.880703
 11
60.057102
 21
20.747363
  0
LINE
  8
別途部材
  6
CONTINUOUS
 10
57.990432
 20
52.814033
 11
54.082837
 21
48.906437
  0
LINE
  8
別途部材
  6
CONTINUOUS
 10
-75.342895
 20
52.814033
 11
57.990432
 21
52.814033
  0
LINE
  8
別途部材
  6
CONTINUOUS
 10
-77.009565
 20
54.480703
 11
59.657102
 21
54.480703
  0
LINE
  8
別途部材
  6
CONTINUOUS
 10
-77.409565
 20
54.880703
 11
60.057102
 21
54.880703
  0
LINE
  8
別途部材
  6
CONTINUOUS
 62
    96
 10
147.1672
 20
54.480703
 11
148.1672
 21
54.880703
  0
INSERT
  2
*GRP_0027
  8
別途部材
  6
DOT
 10
0.0
 20
0.0
  0
LINE
  8
別途部材
  6
CONTINUOUS
 62
    96
 10
147.1672
 20
21.147365
 11
148.1672
 21
20.747365
  0
INSERT
  2
*GRP_0028
  8
別途部材
  6
DOT
 10
0.0
 20
0.0
  0
LINE
  8
別途部材
  6
CONTINUOUS
 10
148.1672
 20
20.747365
 11
148.1672
 21
54.880703
  0
LINE
  8
別途部材
  6
CONTINUOUS
 62
    96
 10
147.1672
 20
21.147365
 11
147.1672
 21
54.480703
  0
ARC
  8
別途部材
  6
CONTINUOUS
 10
156.500533
 20
37.814034
 40
17.666667
 50
121.890792
 51
238.109208
  0
INSERT
  2
*GRP_0029
  8
別途部材
  6
CONTINUOUS
 10
0.0
 20
0.0
  0
ENDSEC
  0
EOF
