  0
SECTION
  2
HEADER
  9
$EXTMIN
 10
-210.0
 20
-148.5
  9
$EXTMAX
 10
210.0
 20
148.5
  9
$PDMODE
 70
    32
  9
$PDSIZE
 40
1.5
  9
$LTSCALE
 40
10.0
  0
ENDSEC
  0
SECTION
  2
TABLES
  0
TABLE
  2
LTYPE
 70
    15
  0
LTYPE
  2
CONTINUOUS
 70
    64
  3
実線
 72
    65
 73
     0
 40
0.0
  0
LTYPE
  2
DASHED
 70
    64
  3
破線A
 72
    65
 73
     2
 40
0.6
 49
0.4
 49
-0.2
  0
LTYPE
  2
DASHEDX2
 70
    64
  3
破線B
 72
    65
 73
     2
 40
1.3
 49
0.9
 49
-0.4
  0
LTYPE
  2
DASHDOT
 70
    64
  3
１点鎖線A
 72
    65
 73
     4
 40
0.5375
 49
0.375
 49
-0.05
 49
0.0625
 49
-0.05
  0
LTYPE
  2
DASHDOTX2
 70
    64
  3
１点鎖線B
 72
    65
 73
     4
 40
1.075
 49
0.75
 49
-0.1
 49
0.125
 49
-0.1
  0
LTYPE
  2
DIVIDE2
 70
    64
  3
２点鎖線A
 72
    65
 73
     6
 40
0.5125
 49
0.3
 49
-0.0375
 49
0.05
 49
-0.0375
 49
0.05
 49
-0.0375
  0
LTYPE
  2
DIVIDE
 70
    64
  3
２点鎖線B
 72
    65
 73
     6
 40
1.05
 49
0.55
 49
-0.1
 49
0.1
 49
-0.1
 49
0.1
 49
-0.1
  0
LTYPE
  2
DOT
 70
    64
  3
点線A
 72
    65
 73
     2
 40
0.1125
 49
0.0625
 49
-0.05
  0
LTYPE
  2
DOTX2
 70
    64
  3
点線B
 72
    65
 73
     2
 40
0.275
 49
0.15
 49
-0.125
  0
LTYPE
  2
CONTINUOUS
 70
    64
  3
実線
 72
    65
 73
     0
 40
0.0
  0
LTYPE
  2
CONTINUOUS
 70
    64
  3
実線
 72
    65
 73
     0
 40
0.0
  0
LTYPE
  2
CONTINUOUS
 70
    64
  3
実線
 72
    65
 73
     0
 40
0.0
  0
LTYPE
  2
CONTINUOUS
 70
    64
  3
実線
 72
    65
 73
     0
 40
0.0
  0
LTYPE
  2
CONTINUOUS
 70
    64
  3
実線
 72
    65
 73
     0
 40
0.0
  0
LTYPE
  2
CONTINUOUS
 70
    64
  3
実線
 72
    65
 73
     0
 40
0.0
  0
ENDTAB
  0
TABLE
  2
LAYER
 70
    34
  0
LAYER
  2
通り芯
 70
     0
 62
    15
  6
CONTINUOUS
  0
LAYER
  2
補助線
 70
     0
 62
    16
  6
DOT
  0
LAYER
  2
躯体
 70
     0
 62
    31
  6
CONTINUOUS
  0
LAYER
  2
型材
 70
     0
 62
    32
  6
CONTINUOUS
  0
LAYER
  2
型材断面
 70
     0
 62
    47
  6
CONTINUOUS
  0
LAYER
  2
ガラス
 70
     0
 62
    48
  6
CONTINUOUS
  0
LAYER
  2
ゴム等
 70
     0
 62
    63
  6
CONTINUOUS
  0
LAYER
  2
ボルト／ビス
 70
     0
 62
    64
  6
CONTINUOUS
  0
LAYER
  2
文字
 70
     0
 62
    79
  6
CONTINUOUS
  0
LAYER
  2
寸法
 70
     0
 62
    80
  6
CONTINUOUS
  0
LAYER
  2
ﾊｯﾁﾝｸﾞ
 70
     0
 62
    95
  6
CONTINUOUS
  0
LAYER
  2
別途部材
 70
     0
 62
    96
  6
CONTINUOUS
  0
LAYER
  2
曲げ物
 70
     0
 62
   111
  6
CONTINUOUS
  0
LAYER
  2
鉄骨等
 70
     0
 62
   112
  6
CONTINUOUS
  0
LAYER
  2
St
 70
     0
 62
   127
  6
CONTINUOUS
  0
LAYER
  2
その他部品等
 70
     0
 62
   128
  6
CONTINUOUS
  0
LAYER
  2
ｶﾞｽｹｯﾄ
 70
     0
 62
   143
  6
CONTINUOUS
  0
LAYER
  2
ｽｹｯﾁ
 70
     0
 62
    14
  6
CONTINUOUS
  0
LAYER
  2
0
 70
     0
 62
    17
  6
CONTINUOUS
  0
LAYER
  2
1
 70
     0
 62
    30
  6
CONTINUOUS
  0
LAYER
  2
4
 70
     0
 62
    33
  6
CONTINUOUS
  0
LAYER
  2
ﾚｲﾔ3
 70
     0
 62
    46
  6
CONTINUOUS
  0
LAYER
  2
外形線
 70
     0
 62
    49
  6
CONTINUOUS
  0
LAYER
  2
部品
 70
     0
 62
    14
  6
CONTINUOUS
  0
LAYER
  2
サッシ芯
 70
     0
 62
    17
  6
DASHDOTX2
  0
LAYER
  2
寸法線
 70
     0
 62
    62
  6
CONTINUOUS
  0
LAYER
  2
姿図外形線
 70
     0
 62
    65
  6
CONTINUOUS
  0
LAYER
  2
姿補助線
 70
     0
 62
    30
  6
CONTINUOUS
  0
LAYER
  2
透視線
 70
     0
 62
    78
  6
DOT
  0
LAYER
  2
用紙
 70
     0
 62
    81
  6
CONTINUOUS
  0
LAYER
  2
実線図枠
 70
     0
 62
    94
  6
CONTINUOUS
  0
LAYER
  2
補助図枠
 70
     0
 62
    97
  6
CONTINUOUS
  0
LAYER
  2
建具記号
 70
     0
 62
   110
  6
CONTINUOUS
  0
LAYER
  2
補助文字
 70
     0
 62
   113
  6
CONTINUOUS
  0
ENDTAB
  0
TABLE
  2
STYLE
 70
    10
  0
STYLE
  2
STANDARD
 70
     0
 40
1.0
 41
1.0
 42
1.0
 50
0.0
 71
     0
  3
TXT
  4
BIGFONT
  0
STYLE
  2
TATE
 70
     4
 40
1.0
 41
1.0
 42
1.0
 50
0.0
 71
     0
  3
TXT
  4
BIGFONT
  0
STYLE
  2
TextStyle03
 70
     0
 40
1.0
 41
1.0
 42
1.0
 50
0.0
 71
     0
  3
MONOTXT
  4
BIGFONT
  0
STYLE
  2
TextStyle04
 70
     0
 40
1.0
 41
1.0
 42
1.0
 50
0.0
 71
     0
  3
MONOTXT
  4
BIGFONT
  0
STYLE
  2
TextStyle05
 70
     0
 40
1.0
 41
1.0
 42
1.0
 50
0.0
 71
     0
  3
MONOTXT
  4
BIGFONT
  0
STYLE
  2
TextStyle06
 70
     0
 40
1.0
 41
1.0
 42
1.0
 50
0.0
 71
     0
  3
MONOTXT
  4
BIGFONT
  0
STYLE
  2
TextStyle07
 70
     0
 40
1.0
 41
1.0
 42
1.0
 50
0.0
 71
     0
  3
MONOTXT
  4
BIGFONT
  0
STYLE
  2
TextStyle08
 70
     0
 40
1.0
 41
1.0
 42
1.0
 50
0.0
 71
     0
  3
MONOTXT
  4
BIGFONT
  0
STYLE
  2
TextStyle09
 70
     0
 40
1.0
 41
1.0
 42
1.0
 50
0.0
 71
     0
  3
MONOTXT
  4
BIGFONT
  0
STYLE
  2
TextStyle10
 70
     0
 40
1.0
 41
1.0
 42
1.0
 50
0.0
 71
     0
  3
MONOTXT
  4
BIGFONT
  0
ENDTAB
  0
ENDSEC
  0
SECTION
  2
BLOCKS
  0
BLOCK
  2
*GRP_0001
 70
    65
 10
0.0
 20
0.0
  0
LINE
  8
型材断面
  6
CONTINUOUS
 10
195.0
 20
133.5
 11
195.0
 21
-133.5
  0
LINE
  8
型材断面
  6
CONTINUOUS
 10
195.0
 20
-133.5
 11
-185.0
 21
-133.5
  0
LINE
  8
型材断面
  6
CONTINUOUS
 10
-185.0
 20
-133.5
 11
-185.0
 21
133.5
  0
LINE
  8
型材断面
  6
CONTINUOUS
 10
195.0
 20
133.5
 11
-185.0
 21
133.5
  0
LINE
  8
型材断面
  6
CONTINUOUS
 10
145.0
 20
-133.5
 11
145.0
 21
-118.5
  0
LINE
  8
型材断面
  6
CONTINUOUS
 10
195.0
 20
-118.5
 11
145.0
 21
-118.5
  0
ENDBLK
  0
BLOCK
  2
*DIM_0002
 70
    65
 10
0.0
 20
0.0
  0
LINE
  8
寸法
  6
BYBLOCK
 62
     0
 10
-92.435405
 20
-16.126177
 11
-47.435405
 21
-16.126177
  0
POINT
  8
寸法
 62
     0
 10
-92.435405
 20
-16.126177
  0
POINT
  8
寸法
 62
     0
 10
-47.435405
 20
-16.126177
  0
TEXT
  7
TextStyle03
  8
寸法
  6
CONTINUOUS
 62
     0
 10
-80.85
 20
-15.775
  1
呼称寸法　900
 40
3.0
 72
     5
 11
-59.1
 21
-15.775
  0
ENDBLK
  0
BLOCK
  2
*DIM_0003
 70
    65
 10
0.0
 20
0.0
  0
LINE
  8
寸法
  6
BYBLOCK
 62
     0
 10
-84.935405
 20
57.66027
 11
-84.935405
 21
75.599285
  0
LINE
  8
寸法
  6
BYBLOCK
 62
     0
 10
-54.935405
 20
57.66027
 11
-54.935405
 21
75.599285
  0
LINE
  8
寸法
  6
BYBLOCK
 62
     0
 10
-84.935405
 20
75.599285
 11
-54.935405
 21
75.599285
  0
POINT
  8
寸法
 62
     0
 10
-84.935405
 20
75.599285
  0
POINT
  8
寸法
 62
     0
 10
-54.935405
 20
75.599285
  0
TEXT
  7
TextStyle03
  8
寸法
  6
CONTINUOUS
 62
     0
 10
-72.3875
 20
75.95
  1
600
 40
3.0
 72
     5
 11
-67.5125
 21
75.95
  0
ENDBLK
  0
BLOCK
  2
*DIM_0004
 70
    65
 10
0.0
 20
0.0
  0
LINE
  8
寸法
  6
BYBLOCK
 62
     0
 10
-93.435405
 20
56.66027
 11
-116.343648
 21
56.66027
  0
LINE
  8
寸法
  6
BYBLOCK
 62
     0
 10
-93.435405
 20
34.16027
 11
-116.343648
 21
34.16027
  0
LINE
  8
寸法
  6
BYBLOCK
 62
     0
 10
-116.343648
 20
56.66027
 11
-116.343648
 21
34.16027
  0
POINT
  8
寸法
 62
     0
 10
-116.343648
 20
56.66027
  0
POINT
  8
寸法
 62
     0
 10
-116.343648
 20
34.16027
  0
TEXT
  7
TextStyle03
  8
寸法
  6
CONTINUOUS
 62
     0
 10
-116.725
 20
42.9375
  1
450
 40
3.0
 50
90.0
 72
     5
 11
-116.725
 21
47.8125
  0
ENDBLK
  0
BLOCK
  2
*DIM_0005
 70
    65
 10
0.0
 20
0.0
  0
LINE
  8
寸法
  6
BYBLOCK
 62
     0
 10
-93.435405
 20
11.66027
 11
-116.343648
 21
11.66027
  0
LINE
  8
寸法
  6
BYBLOCK
 62
     0
 10
-116.343648
 20
34.16027
 11
-116.343648
 21
11.66027
  0
POINT
  8
寸法
 62
     0
 10
-116.343648
 20
11.66027
  0
TEXT
  7
TextStyle03
  8
寸法
  6
CONTINUOUS
 62
     0
 10
-116.725
 20
20.4375
  1
450
 40
3.0
 50
90.0
 72
     5
 11
-116.725
 21
25.3125
  0
ENDBLK
  0
BLOCK
  2
*DIM_0006
 70
    65
 10
0.0
 20
0.0
  0
LINE
  8
寸法
  6
BYBLOCK
 62
     0
 10
-46.435405
 20
56.66027
 11
-31.752115
 21
56.66027
  0
LINE
  8
寸法
  6
BYBLOCK
 62
     0
 10
-38.411528
 20
53.66027
 11
-31.752115
 21
53.66027
  0
LINE
  8
寸法
  6
BYBLOCK
 62
     0
 10
-31.752115
 20
56.66027
 11
-31.752115
 21
53.66027
  0
POINT
  8
寸法
 62
     0
 10
-31.752115
 20
56.66027
  0
POINT
  8
寸法
 62
     0
 10
-31.752115
 20
53.66027
  0
TEXT
  7
TextStyle03
  8
寸法
  6
CONTINUOUS
 62
     0
 10
-28.775
 20
53.53125
  1
60
 40
3.0
 50
90.0
 72
     5
 11
-28.775
 21
56.71875
  0
ENDBLK
  0
BLOCK
  2
*DIM_0007
 70
    65
 10
0.0
 20
0.0
  0
LINE
  8
寸法
  6
BYBLOCK
 62
     0
 10
-46.435405
 20
11.66027
 11
-31.752115
 21
11.66027
  0
LINE
  8
寸法
  6
BYBLOCK
 62
     0
 10
-38.411528
 20
14.66027
 11
-31.752115
 21
14.66027
  0
LINE
  8
寸法
  6
BYBLOCK
 62
     0
 10
-31.752115
 20
11.66027
 11
-31.752115
 21
14.66027
  0
POINT
  8
寸法
 62
     0
 10
-31.752115
 20
11.66027
  0
POINT
  8
寸法
 62
     0
 10
-31.752115
 20
14.66027
  0
TEXT
  7
TextStyle03
  8
寸法
  6
CONTINUOUS
 62
     0
 10
-28.775
 20
11.55625
  1
60
 40
3.0
 50
90.0
 72
     5
 11
-28.775
 21
14.74375
  0
ENDBLK
  0
BLOCK
  2
*GRP_0008
 70
    65
 10
0.0
 20
0.0
  0
INSERT
  2
*GRP_0020
  8
補助線
  6
CONTINUOUS
 10
0.0
 20
0.0
  0
LINE
  8
ボルト／ビス
  6
CONTINUOUS
 10
-84.935405
 20
10.371595
 11
-84.685405
 21
10.515933
  0
LINE
  8
ボルト／ビス
  6
CONTINUOUS
 10
-84.935405
 20
10.371595
 11
-85.185405
 21
10.515933
  0
LINE
  8
ボルト／ビス
  6
CONTINUOUS
 10
-84.685405
 20
10.804608
 11
-84.935405
 21
10.948945
  0
LINE
  8
ボルト／ビス
  6
CONTINUOUS
 10
-85.185405
 20
10.804608
 11
-84.935405
 21
10.948945
  0
CIRCLE
  8
ボルト／ビス
  6
CONTINUOUS
 10
-84.935405
 20
10.66027
 40
0.25
  0
LINE
  8
ボルト／ビス
  6
CONTINUOUS
 10
-85.185405
 20
10.515933
 11
-85.185405
 21
10.804608
  0
LINE
  8
ボルト／ビス
  6
CONTINUOUS
 10
-84.685405
 20
10.804608
 11
-84.685405
 21
10.515933
  0
ENDBLK
  0
BLOCK
  2
*GRP_0009
 70
    65
 10
0.0
 20
0.0
  0
INSERT
  2
*GRP_0021
  8
補助線
  6
CONTINUOUS
 10
0.0
 20
0.0
  0
LINE
  8
ボルト／ビス
  6
CONTINUOUS
 10
-69.935405
 20
10.371595
 11
-69.685405
 21
10.515933
  0
LINE
  8
ボルト／ビス
  6
CONTINUOUS
 10
-69.935405
 20
10.371595
 11
-70.185405
 21
10.515933
  0
LINE
  8
ボルト／ビス
  6
CONTINUOUS
 10
-69.685405
 20
10.804608
 11
-69.935405
 21
10.948945
  0
LINE
  8
ボルト／ビス
  6
CONTINUOUS
 10
-70.185405
 20
10.804608
 11
-69.935405
 21
10.948945
  0
CIRCLE
  8
ボルト／ビス
  6
CONTINUOUS
 10
-69.935405
 20
10.66027
 40
0.25
  0
LINE
  8
ボルト／ビス
  6
CONTINUOUS
 10
-70.185405
 20
10.515933
 11
-70.185405
 21
10.804608
  0
LINE
  8
ボルト／ビス
  6
CONTINUOUS
 10
-69.685405
 20
10.804608
 11
-69.685405
 21
10.515933
  0
ENDBLK
  0
BLOCK
  2
*GRP_0010
 70
    65
 10
0.0
 20
0.0
  0
INSERT
  2
*GRP_0022
  8
補助線
  6
CONTINUOUS
 10
0.0
 20
0.0
  0
LINE
  8
ボルト／ビス
  6
CONTINUOUS
 10
-93.72408
 20
19.16027
 11
-93.579742
 21
19.41027
  0
LINE
  8
ボルト／ビス
  6
CONTINUOUS
 10
-93.72408
 20
19.16027
 11
-93.579742
 21
18.91027
  0
LINE
  8
ボルト／ビス
  6
CONTINUOUS
 10
-93.291068
 20
19.41027
 11
-93.14673
 21
19.16027
  0
LINE
  8
ボルト／ビス
  6
CONTINUOUS
 10
-93.291068
 20
18.91027
 11
-93.14673
 21
19.16027
  0
CIRCLE
  8
ボルト／ビス
  6
CONTINUOUS
 10
-93.435405
 20
19.16027
 40
0.25
  0
LINE
  8
ボルト／ビス
  6
CONTINUOUS
 10
-93.579742
 20
18.91027
 11
-93.291068
 21
18.91027
  0
LINE
  8
ボルト／ビス
  6
CONTINUOUS
 10
-93.291068
 20
19.41027
 11
-93.579742
 21
19.41027
  0
ENDBLK
  0
BLOCK
  2
*GRP_0011
 70
    65
 10
0.0
 20
0.0
  0
INSERT
  2
*GRP_0023
  8
補助線
  6
CONTINUOUS
 10
0.0
 20
0.0
  0
LINE
  8
ボルト／ビス
  6
CONTINUOUS
 10
-93.72408
 20
34.16027
 11
-93.579742
 21
34.41027
  0
LINE
  8
ボルト／ビス
  6
CONTINUOUS
 10
-93.72408
 20
34.16027
 11
-93.579742
 21
33.91027
  0
LINE
  8
ボルト／ビス
  6
CONTINUOUS
 10
-93.291068
 20
34.41027
 11
-93.14673
 21
34.16027
  0
LINE
  8
ボルト／ビス
  6
CONTINUOUS
 10
-93.291068
 20
33.91027
 11
-93.14673
 21
34.16027
  0
CIRCLE
  8
ボルト／ビス
  6
CONTINUOUS
 10
-93.435405
 20
34.16027
 40
0.25
  0
LINE
  8
ボルト／ビス
  6
CONTINUOUS
 10
-93.579742
 20
33.91027
 11
-93.291068
 21
33.91027
  0
LINE
  8
ボルト／ビス
  6
CONTINUOUS
 10
-93.291068
 20
34.41027
 11
-93.579742
 21
34.41027
  0
ENDBLK
  0
BLOCK
  2
*GRP_0012
 70
    65
 10
0.0
 20
0.0
  0
INSERT
  2
*GRP_0024
  8
補助線
  6
CONTINUOUS
 10
0.0
 20
0.0
  0
LINE
  8
ボルト／ビス
  6
CONTINUOUS
 10
-54.935405
 20
10.371595
 11
-55.185405
 21
10.515933
  0
LINE
  8
ボルト／ビス
  6
CONTINUOUS
 10
-54.935405
 20
10.371595
 11
-54.685405
 21
10.515933
  0
LINE
  8
ボルト／ビス
  6
CONTINUOUS
 10
-55.185405
 20
10.804608
 11
-54.935405
 21
10.948945
  0
LINE
  8
ボルト／ビス
  6
CONTINUOUS
 10
-54.685405
 20
10.804608
 11
-54.935405
 21
10.948945
  0
CIRCLE
  8
ボルト／ビス
  6
CONTINUOUS
 10
-54.935405
 20
10.66027
 40
0.25
  0
LINE
  8
ボルト／ビス
  6
CONTINUOUS
 10
-54.685405
 20
10.515933
 11
-54.685405
 21
10.804608
  0
LINE
  8
ボルト／ビス
  6
CONTINUOUS
 10
-55.185405
 20
10.804608
 11
-55.185405
 21
10.515933
  0
ENDBLK
  0
BLOCK
  2
*GRP_0013
 70
    65
 10
0.0
 20
0.0
  0
INSERT
  2
*GRP_0025
  8
補助線
  6
CONTINUOUS
 10
0.0
 20
0.0
  0
LINE
  8
ボルト／ビス
  6
CONTINUOUS
 10
-46.14673
 20
19.16027
 11
-46.291068
 21
19.41027
  0
LINE
  8
ボルト／ビス
  6
CONTINUOUS
 10
-46.14673
 20
19.16027
 11
-46.291068
 21
18.91027
  0
LINE
  8
ボルト／ビス
  6
CONTINUOUS
 10
-46.579742
 20
19.41027
 11
-46.72408
 21
19.16027
  0
LINE
  8
ボルト／ビス
  6
CONTINUOUS
 10
-46.579742
 20
18.91027
 11
-46.72408
 21
19.16027
  0
CIRCLE
  8
ボルト／ビス
  6
CONTINUOUS
 10
-46.435405
 20
19.16027
 40
0.25
  0
LINE
  8
ボルト／ビス
  6
CONTINUOUS
 10
-46.291068
 20
18.91027
 11
-46.579742
 21
18.91027
  0
LINE
  8
ボルト／ビス
  6
CONTINUOUS
 10
-46.579742
 20
19.41027
 11
-46.291068
 21
19.41027
  0
ENDBLK
  0
BLOCK
  2
*GRP_0014
 70
    65
 10
0.0
 20
0.0
  0
INSERT
  2
*GRP_0026
  8
補助線
  6
CONTINUOUS
 10
0.0
 20
0.0
  0
LINE
  8
ボルト／ビス
  6
CONTINUOUS
 10
-46.14673
 20
34.16027
 11
-46.291068
 21
34.41027
  0
LINE
  8
ボルト／ビス
  6
CONTINUOUS
 10
-46.14673
 20
34.16027
 11
-46.291068
 21
33.91027
  0
LINE
  8
ボルト／ビス
  6
CONTINUOUS
 10
-46.579742
 20
34.41027
 11
-46.72408
 21
34.16027
  0
LINE
  8
ボルト／ビス
  6
CONTINUOUS
 10
-46.579742
 20
33.91027
 11
-46.72408
 21
34.16027
  0
CIRCLE
  8
ボルト／ビス
  6
CONTINUOUS
 10
-46.435405
 20
34.16027
 40
0.25
  0
LINE
  8
ボルト／ビス
  6
CONTINUOUS
 10
-46.291068
 20
33.91027
 11
-46.579742
 21
33.91027
  0
LINE
  8
ボルト／ビス
  6
CONTINUOUS
 10
-46.579742
 20
34.41027
 11
-46.291068
 21
34.41027
  0
ENDBLK
  0
BLOCK
  2
*GRP_0015
 70
    65
 10
0.0
 20
0.0
  0
INSERT
  2
*GRP_0027
  8
補助線
  6
CONTINUOUS
 10
0.0
 20
0.0
  0
LINE
  8
ボルト／ビス
  6
CONTINUOUS
 10
-84.935405
 20
57.948945
 11
-84.685405
 21
57.804608
  0
LINE
  8
ボルト／ビス
  6
CONTINUOUS
 10
-84.935405
 20
57.948945
 11
-85.185405
 21
57.804608
  0
LINE
  8
ボルト／ビス
  6
CONTINUOUS
 10
-84.685405
 20
57.515933
 11
-84.935405
 21
57.371595
  0
LINE
  8
ボルト／ビス
  6
CONTINUOUS
 10
-85.185405
 20
57.515933
 11
-84.935405
 21
57.371595
  0
CIRCLE
  8
ボルト／ビス
  6
CONTINUOUS
 10
-84.935405
 20
57.66027
 40
0.25
  0
LINE
  8
ボルト／ビス
  6
CONTINUOUS
 10
-85.185405
 20
57.804608
 11
-85.185405
 21
57.515933
  0
LINE
  8
ボルト／ビス
  6
CONTINUOUS
 10
-84.685405
 20
57.515933
 11
-84.685405
 21
57.804608
  0
ENDBLK
  0
BLOCK
  2
*GRP_0016
 70
    65
 10
0.0
 20
0.0
  0
INSERT
  2
*GRP_0028
  8
補助線
  6
CONTINUOUS
 10
0.0
 20
0.0
  0
LINE
  8
ボルト／ビス
  6
CONTINUOUS
 10
-69.935405
 20
57.948945
 11
-69.685405
 21
57.804608
  0
LINE
  8
ボルト／ビス
  6
CONTINUOUS
 10
-69.935405
 20
57.948945
 11
-70.185405
 21
57.804608
  0
LINE
  8
ボルト／ビス
  6
CONTINUOUS
 10
-69.685405
 20
57.515933
 11
-69.935405
 21
57.371595
  0
LINE
  8
ボルト／ビス
  6
CONTINUOUS
 10
-70.185405
 20
57.515933
 11
-69.935405
 21
57.371595
  0
CIRCLE
  8
ボルト／ビス
  6
CONTINUOUS
 10
-69.935405
 20
57.66027
 40
0.25
  0
LINE
  8
ボルト／ビス
  6
CONTINUOUS
 10
-70.185405
 20
57.804608
 11
-70.185405
 21
57.515933
  0
LINE
  8
ボルト／ビス
  6
CONTINUOUS
 10
-69.685405
 20
57.515933
 11
-69.685405
 21
57.804608
  0
ENDBLK
  0
BLOCK
  2
*GRP_0017
 70
    65
 10
0.0
 20
0.0
  0
INSERT
  2
*GRP_0029
  8
補助線
  6
CONTINUOUS
 10
0.0
 20
0.0
  0
LINE
  8
ボルト／ビス
  6
CONTINUOUS
 10
-93.72408
 20
49.16027
 11
-93.579742
 21
48.91027
  0
LINE
  8
ボルト／ビス
  6
CONTINUOUS
 10
-93.72408
 20
49.16027
 11
-93.579742
 21
49.41027
  0
LINE
  8
ボルト／ビス
  6
CONTINUOUS
 10
-93.291068
 20
48.91027
 11
-93.14673
 21
49.16027
  0
LINE
  8
ボルト／ビス
  6
CONTINUOUS
 10
-93.291068
 20
49.41027
 11
-93.14673
 21
49.16027
  0
CIRCLE
  8
ボルト／ビス
  6
CONTINUOUS
 10
-93.435405
 20
49.16027
 40
0.25
  0
LINE
  8
ボルト／ビス
  6
CONTINUOUS
 10
-93.579742
 20
49.41027
 11
-93.291068
 21
49.41027
  0
LINE
  8
ボルト／ビス
  6
CONTINUOUS
 10
-93.291068
 20
48.91027
 11
-93.579742
 21
48.91027
  0
ENDBLK
  0
BLOCK
  2
*GRP_0018
 70
    65
 10
0.0
 20
0.0
  0
INSERT
  2
*GRP_0030
  8
補助線
  6
CONTINUOUS
 10
0.0
 20
0.0
  0
LINE
  8
ボルト／ビス
  6
CONTINUOUS
 10
-54.935405
 20
57.948945
 11
-55.185405
 21
57.804608
  0
LINE
  8
ボルト／ビス
  6
CONTINUOUS
 10
-54.935405
 20
57.948945
 11
-54.685405
 21
57.804608
  0
LINE
  8
ボルト／ビス
  6
CONTINUOUS
 10
-55.185405
 20
57.515933
 11
-54.935405
 21
57.371595
  0
LINE
  8
ボルト／ビス
  6
CONTINUOUS
 10
-54.685405
 20
57.515933
 11
-54.935405
 21
57.371595
  0
CIRCLE
  8
ボルト／ビス
  6
CONTINUOUS
 10
-54.935405
 20
57.66027
 40
0.25
  0
LINE
  8
ボルト／ビス
  6
CONTINUOUS
 10
-54.685405
 20
57.804608
 11
-54.685405
 21
57.515933
  0
LINE
  8
ボルト／ビス
  6
CONTINUOUS
 10
-55.185405
 20
57.515933
 11
-55.185405
 21
57.804608
  0
ENDBLK
  0
BLOCK
  2
*GRP_0019
 70
    65
 10
0.0
 20
0.0
  0
INSERT
  2
*GRP_0031
  8
補助線
  6
CONTINUOUS
 10
0.0
 20
0.0
  0
LINE
  8
ボルト／ビス
  6
CONTINUOUS
 10
-46.14673
 20
49.16027
 11
-46.291068
 21
48.91027
  0
LINE
  8
ボルト／ビス
  6
CONTINUOUS
 10
-46.14673
 20
49.16027
 11
-46.291068
 21
49.41027
  0
LINE
  8
ボルト／ビス
  6
CONTINUOUS
 10
-46.579742
 20
48.91027
 11
-46.72408
 21
49.16027
  0
LINE
  8
ボルト／ビス
  6
CONTINUOUS
 10
-46.579742
 20
49.41027
 11
-46.72408
 21
49.16027
  0
CIRCLE
  8
ボルト／ビス
  6
CONTINUOUS
 10
-46.435405
 20
49.16027
 40
0.25
  0
LINE
  8
ボルト／ビス
  6
CONTINUOUS
 10
-46.291068
 20
49.41027
 11
-46.579742
 21
49.41027
  0
LINE
  8
ボルト／ビス
  6
CONTINUOUS
 10
-46.579742
 20
48.91027
 11
-46.291068
 21
48.91027
  0
ENDBLK
  0
BLOCK
  2
*GRP_0020
 70
    65
 10
0.0
 20
0.0
  0
LINE
  8
補助線
  6
BYBLOCK
 62
     0
 10
-85.060405
 20
10.66027
 11
-84.810405
 21
10.66027
  0
LINE
  8
補助線
  6
BYBLOCK
 62
     0
 10
-84.935405
 20
10.53527
 11
-84.935405
 21
10.78527
  0
ENDBLK
  0
BLOCK
  2
*GRP_0021
 70
    65
 10
0.0
 20
0.0
  0
LINE
  8
補助線
  6
BYBLOCK
 62
     0
 10
-70.060405
 20
10.66027
 11
-69.810405
 21
10.66027
  0
LINE
  8
補助線
  6
BYBLOCK
 62
     0
 10
-69.935405
 20
10.53527
 11
-69.935405
 21
10.78527
  0
ENDBLK
  0
BLOCK
  2
*GRP_0022
 70
    65
 10
0.0
 20
0.0
  0
LINE
  8
補助線
  6
BYBLOCK
 62
     0
 10
-93.435405
 20
19.03527
 11
-93.435405
 21
19.28527
  0
LINE
  8
補助線
  6
BYBLOCK
 62
     0
 10
-93.560405
 20
19.16027
 11
-93.310405
 21
19.16027
  0
ENDBLK
  0
BLOCK
  2
*GRP_0023
 70
    65
 10
0.0
 20
0.0
  0
LINE
  8
補助線
  6
BYBLOCK
 62
     0
 10
-93.435405
 20
34.03527
 11
-93.435405
 21
34.28527
  0
LINE
  8
補助線
  6
BYBLOCK
 62
     0
 10
-93.560405
 20
34.16027
 11
-93.310405
 21
34.16027
  0
ENDBLK
  0
BLOCK
  2
*GRP_0024
 70
    65
 10
0.0
 20
0.0
  0
LINE
  8
補助線
  6
BYBLOCK
 62
     0
 10
-54.810405
 20
10.66027
 11
-55.060405
 21
10.66027
  0
LINE
  8
補助線
  6
BYBLOCK
 62
     0
 10
-54.935405
 20
10.53527
 11
-54.935405
 21
10.78527
  0
ENDBLK
  0
BLOCK
  2
*GRP_0025
 70
    65
 10
0.0
 20
0.0
  0
LINE
  8
補助線
  6
BYBLOCK
 62
     0
 10
-46.435405
 20
19.03527
 11
-46.435405
 21
19.28527
  0
LINE
  8
補助線
  6
BYBLOCK
 62
     0
 10
-46.310405
 20
19.16027
 11
-46.560405
 21
19.16027
  0
ENDBLK
  0
BLOCK
  2
*GRP_0026
 70
    65
 10
0.0
 20
0.0
  0
LINE
  8
補助線
  6
BYBLOCK
 62
     0
 10
-46.435405
 20
34.03527
 11
-46.435405
 21
34.28527
  0
LINE
  8
補助線
  6
BYBLOCK
 62
     0
 10
-46.310405
 20
34.16027
 11
-46.560405
 21
34.16027
  0
ENDBLK
  0
BLOCK
  2
*GRP_0027
 70
    65
 10
0.0
 20
0.0
  0
LINE
  8
補助線
  6
BYBLOCK
 62
     0
 10
-85.060405
 20
57.66027
 11
-84.810405
 21
57.66027
  0
LINE
  8
補助線
  6
BYBLOCK
 62
     0
 10
-84.935405
 20
57.78527
 11
-84.935405
 21
57.53527
  0
ENDBLK
  0
BLOCK
  2
*GRP_0028
 70
    65
 10
0.0
 20
0.0
  0
LINE
  8
補助線
  6
BYBLOCK
 62
     0
 10
-70.060405
 20
57.66027
 11
-69.810405
 21
57.66027
  0
LINE
  8
補助線
  6
BYBLOCK
 62
     0
 10
-69.935405
 20
57.78527
 11
-69.935405
 21
57.53527
  0
ENDBLK
  0
BLOCK
  2
*GRP_0029
 70
    65
 10
0.0
 20
0.0
  0
LINE
  8
補助線
  6
BYBLOCK
 62
     0
 10
-93.435405
 20
49.28527
 11
-93.435405
 21
49.03527
  0
LINE
  8
補助線
  6
BYBLOCK
 62
     0
 10
-93.560405
 20
49.16027
 11
-93.310405
 21
49.16027
  0
ENDBLK
  0
BLOCK
  2
*GRP_0030
 70
    65
 10
0.0
 20
0.0
  0
LINE
  8
補助線
  6
BYBLOCK
 62
     0
 10
-54.810405
 20
57.66027
 11
-55.060405
 21
57.66027
  0
LINE
  8
補助線
  6
BYBLOCK
 62
     0
 10
-54.935405
 20
57.78527
 11
-54.935405
 21
57.53527
  0
ENDBLK
  0
BLOCK
  2
*GRP_0031
 70
    65
 10
0.0
 20
0.0
  0
LINE
  8
補助線
  6
BYBLOCK
 62
     0
 10
-46.435405
 20
49.28527
 11
-46.435405
 21
49.03527
  0
LINE
  8
補助線
  6
BYBLOCK
 62
     0
 10
-46.310405
 20
49.16027
 11
-46.560405
 21
49.16027
  0
ENDBLK
  0
BLOCK
  2
*GRP_0032
 70
    65
 10
0.0
 20
0.0
  0
LINE
  8
ボルト／ビス
  6
CONTINUOUS
 10
-93.43541
 20
-53.029987
 11
-93.43541
 21
-52.329985
  0
LINE
  8
ボルト／ビス
  6
CONTINUOUS
 10
-93.985412
 20
-53.029987
 11
-93.985412
 21
-52.929985
  0
LINE
  8
ボルト／ビス
  6
CONTINUOUS
 10
-93.985412
 20
-52.929985
 11
-92.88541
 21
-52.929985
  0
LINE
  8
ボルト／ビス
  6
CONTINUOUS
 10
-92.88541
 20
-52.929985
 11
-92.88541
 21
-53.029987
  0
LINE
  8
ボルト／ビス
  6
CONTINUOUS
 10
-93.985412
 20
-53.029987
 11
-92.88541
 21
-53.029987
  0
LINE
  8
ボルト／ビス
  6
CONTINUOUS
 10
-93.88541
 20
-52.879987
 11
-93.88541
 21
-52.929985
  0
LINE
  8
ボルト／ビス
  6
CONTINUOUS
 10
-93.88541
 20
-52.879987
 11
-92.98541
 21
-52.879987
  0
LINE
  8
ボルト／ビス
  6
CONTINUOUS
 10
-92.98541
 20
-52.879987
 11
-92.98541
 21
-52.929985
  0
LINE
  8
ボルト／ビス
  6
CONTINUOUS
 62
    64
 10
-93.675972
 20
-52.579987
 11
-93.724085
 21
-52.5975
  0
ARC
  8
ボルト／ビス
  6
CONTINUOUS
 62
    64
 10
-93.65192
 20
-52.737457
 40
0.157468
 50
62.721967
 51
90.0
  0
ARC
  8
ボルト／ビス
  6
CONTINUOUS
 62
    64
 10
-93.435414
 20
-53.183592
 40
0.603603
 50
76.165002
 51
103.834985
  0
LINE
  8
ボルト／ビス
  6
CONTINUOUS
 62
    64
 10
-93.194848
 20
-52.579987
 11
-93.146735
 21
-52.5975
  0
ARC
  8
ボルト／ビス
  6
CONTINUOUS
 62
    64
 10
-93.218907
 20
-52.737457
 40
0.157468
 50
90.0
 51
117.278033
  0
LINE
  8
ボルト／ビス
  6
CONTINUOUS
 62
    64
 10
-93.675972
 20
-52.579987
 11
-93.194848
 21
-52.579987
  0
LINE
  8
ボルト／ビス
  6
CONTINUOUS
 62
    64
 10
-93.146735
 20
-52.5975
 11
-93.146735
 21
-52.779985
  0
LINE
  8
ボルト／ビス
  6
CONTINUOUS
 62
    64
 10
-93.291072
 20
-52.5975
 11
-93.291072
 21
-52.779985
  0
LINE
  8
ボルト／ビス
  6
CONTINUOUS
 62
    64
 10
-93.724085
 20
-52.5975
 11
-93.724085
 21
-52.779985
  0
LINE
  8
ボルト／ビス
  6
CONTINUOUS
 62
    64
 10
-93.579748
 20
-52.5975
 11
-93.579748
 21
-52.779985
  0
LINE
  8
ボルト／ビス
  6
CONTINUOUS
 10
-93.724085
 20
-52.779985
 11
-93.146735
 21
-52.779985
  0
LINE
  8
ボルト／ビス
  6
CONTINUOUS
 10
-93.73541
 20
-52.779985
 11
-93.73541
 21
-52.879987
  0
LINE
  8
ボルト／ビス
  6
CONTINUOUS
 10
-93.73541
 20
-52.779985
 11
-93.13541
 21
-52.779985
  0
LINE
  8
ボルト／ビス
  6
CONTINUOUS
 10
-93.13541
 20
-52.779985
 11
-93.13541
 21
-52.879987
  0
ENDBLK
  0
BLOCK
  2
*GRP_0033
 70
    65
 10
0.0
 20
0.0
  0
LINE
  8
ボルト／ビス
  6
CONTINUOUS
 10
-46.435405
 20
-53.029987
 11
-46.435405
 21
-52.329985
  0
LINE
  8
ボルト／ビス
  6
CONTINUOUS
 10
-45.885402
 20
-53.029987
 11
-45.885402
 21
-52.929985
  0
LINE
  8
ボルト／ビス
  6
CONTINUOUS
 10
-45.885402
 20
-52.929985
 11
-46.985405
 21
-52.929985
  0
LINE
  8
ボルト／ビス
  6
CONTINUOUS
 10
-46.985405
 20
-52.929985
 11
-46.985405
 21
-53.029987
  0
LINE
  8
ボルト／ビス
  6
CONTINUOUS
 10
-45.885402
 20
-53.029987
 11
-46.985405
 21
-53.029987
  0
LINE
  8
ボルト／ビス
  6
CONTINUOUS
 10
-45.985405
 20
-52.879987
 11
-45.985405
 21
-52.929985
  0
LINE
  8
ボルト／ビス
  6
CONTINUOUS
 10
-45.985405
 20
-52.879987
 11
-46.885405
 21
-52.879987
  0
LINE
  8
ボルト／ビス
  6
CONTINUOUS
 10
-46.885405
 20
-52.879987
 11
-46.885405
 21
-52.929985
  0
LINE
  8
ボルト／ビス
  6
CONTINUOUS
 62
    64
 10
-46.194842
 20
-52.579987
 11
-46.14673
 21
-52.5975
  0
ARC
  8
ボルト／ビス
  6
CONTINUOUS
 62
    64
 10
-46.218899
 20
-52.737457
 40
0.157468
 50
90.0
 51
117.278033
  0
ARC
  8
ボルト／ビス
  6
CONTINUOUS
 62
    64
 10
-46.435405
 20
-53.183592
 40
0.603603
 50
76.165015
 51
103.834998
  0
LINE
  8
ボルト／ビス
  6
CONTINUOUS
 62
    64
 10
-46.675968
 20
-52.579987
 11
-46.72408
 21
-52.5975
  0
ARC
  8
ボルト／ビス
  6
CONTINUOUS
 62
    64
 10
-46.651912
 20
-52.737457
 40
0.157468
 50
62.721967
 51
90.0
  0
LINE
  8
ボルト／ビス
  6
CONTINUOUS
 62
    64
 10
-46.194842
 20
-52.579987
 11
-46.675968
 21
-52.579987
  0
LINE
  8
ボルト／ビス
  6
CONTINUOUS
 62
    64
 10
-46.72408
 20
-52.5975
 11
-46.72408
 21
-52.779985
  0
LINE
  8
ボルト／ビス
  6
CONTINUOUS
 62
    64
 10
-46.579742
 20
-52.5975
 11
-46.579742
 21
-52.779985
  0
LINE
  8
ボルト／ビス
  6
CONTINUOUS
 62
    64
 10
-46.14673
 20
-52.5975
 11
-46.14673
 21
-52.779985
  0
LINE
  8
ボルト／ビス
  6
CONTINUOUS
 62
    64
 10
-46.291068
 20
-52.5975
 11
-46.291068
 21
-52.779985
  0
LINE
  8
ボルト／ビス
  6
CONTINUOUS
 10
-46.14673
 20
-52.779985
 11
-46.72408
 21
-52.779985
  0
LINE
  8
ボルト／ビス
  6
CONTINUOUS
 10
-46.135405
 20
-52.779985
 11
-46.135405
 21
-52.879987
  0
LINE
  8
ボルト／ビス
  6
CONTINUOUS
 10
-46.135405
 20
-52.779985
 11
-46.735405
 21
-52.779985
  0
LINE
  8
ボルト／ビス
  6
CONTINUOUS
 10
-46.735405
 20
-52.779985
 11
-46.735405
 21
-52.879987
  0
ENDBLK
  0
BLOCK
  2
*GRP_0034
 70
    65
 10
0.0
 20
0.0
  0
INSERT
  2
*GRP_0035
  8
補助線
  6
CONTINUOUS
 10
0.0
 20
0.0
  0
CIRCLE
  8
別途部材
  6
CONTINUOUS
 10
-94.235427
 20
-57.530043
 40
0.3
  0
CIRCLE
  8
別途部材
  6
CONTINUOUS
 10
-94.235427
 20
-57.530043
 40
0.15
  0
LINE
  8
別途部材
  6
CONTINUOUS
 10
-94.085427
 20
-55.430043
 11
-93.935427
 21
-55.430043
  0
LINE
  8
別途部材
  6
CONTINUOUS
 10
-93.935427
 20
-57.530043
 11
-93.935427
 21
-55.430043
  0
LINE
  8
別途部材
  6
CONTINUOUS
 10
-94.085427
 20
-55.430043
 11
-94.085427
 21
-57.270235
  0
LINE
  8
別途部材
  6
CONTINUOUS
 10
-94.085427
 20
-59.630043
 11
-93.935427
 21
-59.630043
  0
LINE
  8
別途部材
  6
CONTINUOUS
 10
-93.935427
 20
-57.530043
 11
-93.935427
 21
-59.630043
  0
LINE
  8
別途部材
  6
CONTINUOUS
 10
-94.085427
 20
-59.630043
 11
-94.085427
 21
-57.78985
  0
LINE
  8
別途部材
  6
CONTINUOUS
 10
-94.085427
 20
-55.83004
 11
-93.935427
 21
-55.83004
  0
LINE
  8
別途部材
  6
CONTINUOUS
 10
-94.085427
 20
-56.23004
 11
-93.935427
 21
-56.23004
  0
LINE
  8
別途部材
  6
CONTINUOUS
 10
-94.085427
 20
-56.630043
 11
-93.935427
 21
-56.630043
  0
LINE
  8
別途部材
  6
CONTINUOUS
 10
-94.085427
 20
-59.23004
 11
-93.935427
 21
-59.23004
  0
LINE
  8
別途部材
  6
CONTINUOUS
 10
-94.085427
 20
-58.83004
 11
-93.935427
 21
-58.83004
  0
LINE
  8
別途部材
  6
CONTINUOUS
 10
-94.085427
 20
-58.430043
 11
-93.935427
 21
-58.430043
  0
ENDBLK
  0
BLOCK
  2
*GRP_0035
 70
    65
 10
0.0
 20
0.0
  0
LINE
  8
補助線
  6
BYBLOCK
 62
     0
 10
-93.985427
 20
-57.530043
 11
-94.485427
 21
-57.530043
  0
LINE
  8
補助線
  6
BYBLOCK
 62
     0
 10
-94.235427
 20
-57.28004
 11
-94.235427
 21
-57.78004
  0
ENDBLK
  0
BLOCK
  2
*DIM_0036
 70
    65
 10
0.0
 20
0.0
  0
LINE
  8
寸法
  6
CONTINUOUS
 10
-36.685383
 20
-65.779985
 11
-25.04363
 21
-65.779985
  0
LINE
  8
寸法
  6
CONTINUOUS
 10
-25.04363
 20
-61.279985
 11
-25.04363
 21
-65.779985
  0
POINT
  8
寸法
 10
-25.04363
 20
-65.779985
  0
TEXT
  7
TextStyle03
  8
寸法
  6
CONTINUOUS
 10
-25.425
 20
-65.05
  1
※
 40
3.0
 50
90.0
 72
     5
 11
-25.425
 21
-62.05
  0
ENDBLK
  0
BLOCK
  2
*DIM_0037
 70
    65
 10
0.0
 20
0.0
  0
LINE
  8
寸法
  6
CONTINUOUS
 10
-102.185427
 20
-61.279987
 11
-102.185427
 21
-16.126177
  0
LINE
  8
寸法
  6
CONTINUOUS
 10
-92.435405
 20
-16.126177
 11
-102.185427
 21
-16.126177
  0
POINT
  8
寸法
 10
-92.435405
 20
-16.126177
  0
POINT
  8
寸法
 10
-102.185427
 20
-16.126177
  0
TEXT
  7
TextStyle03
  8
寸法
  6
CONTINUOUS
 10
-98.825
 20
-15.775
  1
※
 40
3.0
 72
     5
 11
-95.825
 21
-15.775
  0
ENDBLK
  0
BLOCK
  2
*DIM_0038
 70
    65
 10
0.0
 20
0.0
  0
LINE
  8
寸法
  6
CONTINUOUS
 10
-37.685383
 20
-61.279987
 11
-37.685383
 21
-16.126177
  0
LINE
  8
寸法
  6
CONTINUOUS
 10
-47.435405
 20
-16.126177
 11
-37.685383
 21
-16.126177
  0
POINT
  8
寸法
 10
-47.435405
 20
-16.126177
  0
POINT
  8
寸法
 10
-37.685383
 20
-16.126177
  0
TEXT
  7
TextStyle03
  8
寸法
  6
CONTINUOUS
 10
-44.075
 20
-15.775
  1
※
 40
3.0
 72
     5
 11
-41.075
 21
-15.775
  0
ENDBLK
  0
BLOCK
  2
*GRP_0039
 70
    65
 10
0.0
 20
0.0
  0
LINE
  8
ボルト／ビス
  6
CONTINUOUS
 10
53.102565
 20
-53.029987
 11
53.102565
 21
-52.329985
  0
LINE
  8
ボルト／ビス
  6
CONTINUOUS
 10
52.552563
 20
-53.029987
 11
52.552563
 21
-52.929985
  0
LINE
  8
ボルト／ビス
  6
CONTINUOUS
 10
52.552563
 20
-52.929985
 11
53.652565
 21
-52.929985
  0
LINE
  8
ボルト／ビス
  6
CONTINUOUS
 10
53.652565
 20
-52.929985
 11
53.652565
 21
-53.029987
  0
LINE
  8
ボルト／ビス
  6
CONTINUOUS
 10
52.552563
 20
-53.029987
 11
53.652565
 21
-53.029987
  0
LINE
  8
ボルト／ビス
  6
CONTINUOUS
 10
52.652565
 20
-52.879987
 11
52.652565
 21
-52.929985
  0
LINE
  8
ボルト／ビス
  6
CONTINUOUS
 10
52.652565
 20
-52.879987
 11
53.552565
 21
-52.879987
  0
LINE
  8
ボルト／ビス
  6
CONTINUOUS
 10
53.552565
 20
-52.879987
 11
53.552565
 21
-52.929985
  0
LINE
  8
ボルト／ビス
  6
CONTINUOUS
 62
    64
 10
52.862003
 20
-52.579987
 11
52.81389
 21
-52.5975
  0
ARC
  8
ボルト／ビス
  6
CONTINUOUS
 62
    64
 10
52.886054
 20
-52.737457
 40
0.157468
 50
62.721967
 51
90.0
  0
ARC
  8
ボルト／ビス
  6
CONTINUOUS
 62
    64
 10
53.10256
 20
-53.183592
 40
0.603603
 50
76.165002
 51
103.834985
  0
LINE
  8
ボルト／ビス
  6
CONTINUOUS
 62
    64
 10
53.343128
 20
-52.579987
 11
53.39124
 21
-52.5975
  0
ARC
  8
ボルト／ビス
  6
CONTINUOUS
 62
    64
 10
53.319067
 20
-52.737457
 40
0.157468
 50
90.0
 51
117.278033
  0
LINE
  8
ボルト／ビス
  6
CONTINUOUS
 62
    64
 10
52.862003
 20
-52.579987
 11
53.343128
 21
-52.579987
  0
LINE
  8
ボルト／ビス
  6
CONTINUOUS
 62
    64
 10
53.39124
 20
-52.5975
 11
53.39124
 21
-52.779985
  0
LINE
  8
ボルト／ビス
  6
CONTINUOUS
 62
    64
 10
53.246903
 20
-52.5975
 11
53.246903
 21
-52.779985
  0
LINE
  8
ボルト／ビス
  6
CONTINUOUS
 62
    64
 10
52.81389
 20
-52.5975
 11
52.81389
 21
-52.779985
  0
LINE
  8
ボルト／ビス
  6
CONTINUOUS
 62
    64
 10
52.958228
 20
-52.5975
 11
52.958228
 21
-52.779985
  0
LINE
  8
ボルト／ビス
  6
CONTINUOUS
 10
52.81389
 20
-52.779985
 11
53.39124
 21
-52.779985
  0
LINE
  8
ボルト／ビス
  6
CONTINUOUS
 10
52.802565
 20
-52.779985
 11
52.802565
 21
-52.879987
  0
LINE
  8
ボルト／ビス
  6
CONTINUOUS
 10
52.802565
 20
-52.779985
 11
53.402565
 21
-52.779985
  0
LINE
  8
ボルト／ビス
  6
CONTINUOUS
 10
53.402565
 20
-52.779985
 11
53.402565
 21
-52.879987
  0
ENDBLK
  0
BLOCK
  2
*GRP_0040
 70
    65
 10
0.0
 20
0.0
  0
LINE
  8
ボルト／ビス
  6
CONTINUOUS
 10
100.10257
 20
-53.029987
 11
100.10257
 21
-52.329985
  0
LINE
  8
ボルト／ビス
  6
CONTINUOUS
 10
100.652572
 20
-53.029987
 11
100.652572
 21
-52.929985
  0
LINE
  8
ボルト／ビス
  6
CONTINUOUS
 10
100.652572
 20
-52.929985
 11
99.55257
 21
-52.929985
  0
LINE
  8
ボルト／ビス
  6
CONTINUOUS
 10
99.55257
 20
-52.929985
 11
99.55257
 21
-53.029987
  0
LINE
  8
ボルト／ビス
  6
CONTINUOUS
 10
100.652572
 20
-53.029987
 11
99.55257
 21
-53.029987
  0
LINE
  8
ボルト／ビス
  6
CONTINUOUS
 10
100.55257
 20
-52.879987
 11
100.55257
 21
-52.929985
  0
LINE
  8
ボルト／ビス
  6
CONTINUOUS
 10
100.55257
 20
-52.879987
 11
99.65257
 21
-52.879987
  0
LINE
  8
ボルト／ビス
  6
CONTINUOUS
 10
99.65257
 20
-52.879987
 11
99.65257
 21
-52.929985
  0
LINE
  8
ボルト／ビス
  6
CONTINUOUS
 62
    64
 10
100.343132
 20
-52.579987
 11
100.391245
 21
-52.5975
  0
ARC
  8
ボルト／ビス
  6
CONTINUOUS
 62
    64
 10
100.319075
 20
-52.737457
 40
0.157468
 50
90.0
 51
117.278033
  0
ARC
  8
ボルト／ビス
  6
CONTINUOUS
 62
    64
 10
100.102568
 20
-53.183592
 40
0.603603
 50
76.165015
 51
103.834998
  0
LINE
  8
ボルト／ビス
  6
CONTINUOUS
 62
    64
 10
99.862008
 20
-52.579987
 11
99.813895
 21
-52.5975
  0
ARC
  8
ボルト／ビス
  6
CONTINUOUS
 62
    64
 10
99.886062
 20
-52.737457
 40
0.157468
 50
62.721967
 51
90.0
  0
LINE
  8
ボルト／ビス
  6
CONTINUOUS
 62
    64
 10
100.343132
 20
-52.579987
 11
99.862008
 21
-52.579987
  0
LINE
  8
ボルト／ビス
  6
CONTINUOUS
 62
    64
 10
99.813895
 20
-52.5975
 11
99.813895
 21
-52.779985
  0
LINE
  8
ボルト／ビス
  6
CONTINUOUS
 62
    64
 10
99.958232
 20
-52.5975
 11
99.958232
 21
-52.779985
  0
LINE
  8
ボルト／ビス
  6
CONTINUOUS
 62
    64
 10
100.391245
 20
-52.5975
 11
100.391245
 21
-52.779985
  0
LINE
  8
ボルト／ビス
  6
CONTINUOUS
 62
    64
 10
100.246908
 20
-52.5975
 11
100.246908
 21
-52.779985
  0
LINE
  8
ボルト／ビス
  6
CONTINUOUS
 10
100.391245
 20
-52.779985
 11
99.813895
 21
-52.779985
  0
LINE
  8
ボルト／ビス
  6
CONTINUOUS
 10
100.40257
 20
-52.779985
 11
100.40257
 21
-52.879987
  0
LINE
  8
ボルト／ビス
  6
CONTINUOUS
 10
100.40257
 20
-52.779985
 11
99.80257
 21
-52.779985
  0
LINE
  8
ボルト／ビス
  6
CONTINUOUS
 10
99.80257
 20
-52.779985
 11
99.80257
 21
-52.879987
  0
ENDBLK
  0
BLOCK
  2
*GRP_0041
 70
    65
 10
0.0
 20
0.0
  0
INSERT
  2
*GRP_0042
  8
補助線
  6
CONTINUOUS
 10
0.0
 20
0.0
  0
CIRCLE
  8
別途部材
  6
CONTINUOUS
 10
52.302548
 20
-57.530043
 40
0.3
  0
CIRCLE
  8
別途部材
  6
CONTINUOUS
 10
52.302548
 20
-57.530043
 40
0.15
  0
LINE
  8
別途部材
  6
CONTINUOUS
 10
52.452548
 20
-55.430043
 11
52.602548
 21
-55.430043
  0
LINE
  8
別途部材
  6
CONTINUOUS
 10
52.602548
 20
-57.530043
 11
52.602548
 21
-55.430043
  0
LINE
  8
別途部材
  6
CONTINUOUS
 10
52.452548
 20
-55.430043
 11
52.452548
 21
-57.270235
  0
LINE
  8
別途部材
  6
CONTINUOUS
 10
52.452548
 20
-59.630043
 11
52.602548
 21
-59.630043
  0
LINE
  8
別途部材
  6
CONTINUOUS
 10
52.602548
 20
-57.530043
 11
52.602548
 21
-59.630043
  0
LINE
  8
別途部材
  6
CONTINUOUS
 10
52.452548
 20
-59.630043
 11
52.452548
 21
-57.78985
  0
LINE
  8
別途部材
  6
CONTINUOUS
 10
52.452548
 20
-55.83004
 11
52.602548
 21
-55.83004
  0
LINE
  8
別途部材
  6
CONTINUOUS
 10
52.452548
 20
-56.23004
 11
52.602548
 21
-56.23004
  0
LINE
  8
別途部材
  6
CONTINUOUS
 10
52.452548
 20
-56.630043
 11
52.602548
 21
-56.630043
  0
LINE
  8
別途部材
  6
CONTINUOUS
 10
52.452548
 20
-59.23004
 11
52.602548
 21
-59.23004
  0
LINE
  8
別途部材
  6
CONTINUOUS
 10
52.452548
 20
-58.83004
 11
52.602548
 21
-58.83004
  0
LINE
  8
別途部材
  6
CONTINUOUS
 10
52.452548
 20
-58.430043
 11
52.602548
 21
-58.430043
  0
ENDBLK
  0
BLOCK
  2
*GRP_0042
 70
    65
 10
0.0
 20
0.0
  0
LINE
  8
補助線
  6
BYBLOCK
 62
     0
 10
52.552548
 20
-57.530043
 11
52.052548
 21
-57.530043
  0
LINE
  8
補助線
  6
BYBLOCK
 62
     0
 10
52.302548
 20
-57.28004
 11
52.302548
 21
-57.78004
  0
ENDBLK
  0
BLOCK
  2
*DIM_0043
 70
    65
 10
0.0
 20
0.0
  0
LINE
  8
寸法
  6
CONTINUOUS
 10
170.304785
 20
75.557477
 11
180.048485
 21
75.557477
  0
LINE
  8
寸法
  6
CONTINUOUS
 10
170.304785
 20
30.557477
 11
180.048485
 21
30.557477
  0
LINE
  8
寸法
  6
CONTINUOUS
 10
180.048485
 20
75.557477
 11
180.048485
 21
30.557477
  0
POINT
  8
寸法
 10
180.048485
 20
75.557477
  0
POINT
  8
寸法
 10
180.048485
 20
30.557477
  0
TEXT
  7
TextStyle03
  8
寸法
  6
CONTINUOUS
 10
179.65
 20
50.6125
  1
900
 40
3.0
 50
90.0
 72
     5
 11
179.65
 21
55.4875
  0
ENDBLK
  0
BLOCK
  2
*DIM_0044
 70
    65
 10
0.0
 20
0.0
  0
LINE
  8
寸法
  6
CONTINUOUS
 10
167.304785
 20
78.557477
 11
167.304785
 21
86.078338
  0
LINE
  8
寸法
  6
CONTINUOUS
 10
122.304785
 20
78.557477
 11
122.304785
 21
86.078338
  0
LINE
  8
寸法
  6
CONTINUOUS
 10
167.304785
 20
86.078338
 11
122.304785
 21
86.078338
  0
POINT
  8
寸法
 10
167.304785
 20
86.078338
  0
POINT
  8
寸法
 10
122.304785
 20
86.078338
  0
TEXT
  7
TextStyle03
  8
寸法
  6
CONTINUOUS
 10
142.3625
 20
86.45
  1
900
 40
3.0
 72
     5
 11
147.2375
 21
86.45
  0
ENDBLK
  0
BLOCK
  2
*DIM_0045
 70
    65
 10
0.0
 20
0.0
  0
LINE
  8
寸法
  6
CONTINUOUS
 10
-44.935383
 20
-61.279985
 11
-25.04363
 21
-61.279985
  0
LINE
  8
寸法
  6
CONTINUOUS
 10
-46.08538
 20
-52.36504
 11
-25.04363
 21
-52.36504
  0
LINE
  8
寸法
  6
CONTINUOUS
 10
-25.04363
 20
-61.279985
 11
-25.04363
 21
-52.36504
  0
POINT
  8
寸法
 10
-25.04363
 20
-61.279985
  0
POINT
  8
寸法
 10
-25.04363
 20
-52.36504
  0
TEXT
  7
TextStyle03
  8
寸法
  6
CONTINUOUS
 10
-25.425
 20
-60.95
  1
178.3
 40
3.0
 50
90.0
 72
     5
 11
-25.425
 21
-52.7
  0
ENDBLK
  0
BLOCK
  2
*GRP_0046
 70
    65
 10
0.0
 20
0.0
  0
LINE
  8
型材断面
  6
DOT
 10
50.146
 20
-53.428865
 11
49.622655
 21
-52.905518
  0
LINE
  8
型材断面
  6
DOT
 10
48.678767
 20
-54.896097
 11
49.385873
 21
-55.603205
  0
LINE
  8
型材断面
  6
DOT
 10
82.566835
 20
-21.008028
 11
82.04349
 21
-20.484682
  0
LINE
  8
型材断面
  6
DOT
 10
84.03407
 20
-19.540795
 11
84.741178
 21
-20.2479
  0
LINE
  8
型材断面
  6
DOT
 10
49.622655
 20
-52.905518
 11
82.04349
 21
-20.484682
  0
LINE
  8
型材断面
  6
DOT
 10
48.678767
 20
-54.896097
 11
84.03407
 21
-19.540795
  0
LINE
  8
型材断面
  6
DOT
 10
49.385873
 20
-55.603205
 11
84.741178
 21
-20.2479
  0
ENDBLK
  0
ENDSEC
  0
SECTION
  2
ENTITIES
  0
POLYLINE
  8
通り芯
  6
CONTINUOUS
 66
     1
 70
     1
  0
VERTEX
  8
通り芯
 10
-210.0
 20
-148.5
  0
VERTEX
  8
通り芯
 10
210.0
 20
-148.5
  0
VERTEX
  8
通り芯
 10
210.0
 20
148.5
  0
VERTEX
  8
通り芯
 10
-210.0
 20
148.5
  0
SEQEND
  0
INSERT
  2
*GRP_0001
  8
型材断面
  6
CONTINUOUS
 10
0.0
 20
0.0
  0
LINE
  8
型材断面
  6
CONTINUOUS
 10
-7.342083
 20
5.196457
 11
-9.585527
 21
1.310698
  0
LINE
  8
型材断面
  6
CONTINUOUS
 10
-7.342083
 20
5.196457
 11
-5.098638
 21
1.310698
  0
LINE
  8
型材断面
  6
CONTINUOUS
 10
-5.098638
 20
1.310698
 11
-9.585527
 21
1.310698
  0
LINE
  8
型材断面
  6
CONTINUOUS
 10
-7.342083
 20
-2.49309
 11
-6.447998
 21
-6.37885
  0
LINE
  8
型材断面
  6
CONTINUOUS
 10
-7.342083
 20
-2.49309
 11
-8.236168
 21
-6.37885
  0
LINE
  8
型材断面
  6
CONTINUOUS
 10
-8.236168
 20
-6.37885
 11
-6.447998
 21
-6.37885
  0
LINE
  8
型材断面
  6
CONTINUOUS
 10
-16.375962
 20
-0.097195
 11
36.280717
 21
-0.097195
  0
LINE
  8
型材断面
  6
CONTINUOUS
 10
-16.375962
 20
-11.297188
 11
36.280717
 21
-11.297188
  0
LINE
  8
型材断面
  6
CONTINUOUS
 10
-16.375962
 20
-18.137133
 11
36.280717
 21
-18.137133
  0
LINE
  8
型材断面
  6
DASHDOT
 10
-69.935405
 20
-67.794
 11
-69.935405
 21
56.66027
  0
LINE
  8
型材断面
  6
DASHDOT
 10
-92.435405
 20
-67.794
 11
-92.435405
 21
56.66027
  0
LINE
  8
型材断面
  6
DASHDOT
 10
-47.435405
 20
-67.794
 11
-47.435405
 21
56.66027
  0
LINE
  8
型材断面
  6
DASHDOT
 10
-92.435405
 20
56.66027
 11
-47.435405
 21
56.66027
  0
LINE
  8
型材断面
  6
DASHDOT
 10
-92.435405
 20
34.16027
 11
-47.435405
 21
34.16027
  0
LINE
  8
型材断面
  6
DASHDOT
 10
-92.435405
 20
11.66027
 11
-47.435405
 21
11.66027
  0
LINE
  8
型材断面
  6
CONTINUOUS
 10
-69.935405
 20
64.684145
 11
-72.17885
 21
68.569905
  0
LINE
  8
型材断面
  6
CONTINUOUS
 10
-69.935405
 20
64.684145
 11
-67.69196
 21
68.569905
  0
LINE
  8
型材断面
  6
CONTINUOUS
 10
-67.69196
 20
68.569905
 11
-72.17885
 21
68.569905
  0
LINE
  8
型材断面
  6
CONTINUOUS
 10
-69.935405
 20
3.636395
 11
-72.17885
 21
-0.249365
  0
LINE
  8
型材断面
  6
CONTINUOUS
 10
-69.935405
 20
3.636395
 11
-67.69196
 21
-0.249365
  0
LINE
  8
型材断面
  6
CONTINUOUS
 10
-67.69196
 20
-0.249365
 11
-72.17885
 21
-0.249365
  0
LINE
  8
型材断面
  6
CONTINUOUS
 10
-39.41153
 20
34.16027
 11
-35.52577
 21
36.403715
  0
LINE
  8
型材断面
  6
CONTINUOUS
 10
-39.41153
 20
34.16027
 11
-35.52577
 21
31.916825
  0
LINE
  8
型材断面
  6
CONTINUOUS
 10
-35.52577
 20
31.916825
 11
-35.52577
 21
36.403715
  0
LINE
  8
型材断面
  6
CONTINUOUS
 10
-100.45928
 20
34.16027
 11
-104.34504
 21
36.403715
  0
LINE
  8
型材断面
  6
CONTINUOUS
 10
-100.45928
 20
34.16027
 11
-104.34504
 21
31.916825
  0
LINE
  8
型材断面
  6
CONTINUOUS
 10
-104.34504
 20
31.916825
 11
-104.34504
 21
36.403715
  0
LINE
  8
型材断面
  6
CONTINUOUS
 10
-39.411528
 20
53.66027
 11
-35.525767
 21
52.766185
  0
LINE
  8
型材断面
  6
CONTINUOUS
 10
-39.411528
 20
53.66027
 11
-35.525767
 21
54.554355
  0
LINE
  8
型材断面
  6
CONTINUOUS
 10
-35.525767
 20
54.554355
 11
-35.525767
 21
52.766185
  0
LINE
  8
型材断面
  6
CONTINUOUS
 10
-39.411528
 20
14.66027
 11
-35.525767
 21
15.554355
  0
LINE
  8
型材断面
  6
CONTINUOUS
 10
-39.411528
 20
14.66027
 11
-35.525767
 21
13.766185
  0
LINE
  8
型材断面
  6
CONTINUOUS
 10
-35.525767
 20
13.766185
 11
-35.525767
 21
15.554355
  0
LINE
  8
型材断面
  6
CONTINUOUS
 10
-95.53541
 20
59.760275
 11
-102.185427
 21
66.410292
  0
LINE
  8
型材断面
  6
CONTINUOUS
 10
-102.185427
 20
1.910247
 11
-95.53541
 21
8.560265
  0
LINE
  8
型材断面
  6
CONTINUOUS
 10
-102.185427
 20
1.910247
 11
-102.185427
 21
66.410292
  0
LINE
  8
型材断面
  6
CONTINUOUS
 10
-44.3354
 20
59.760275
 11
-37.685383
 21
66.410292
  0
LINE
  8
型材断面
  6
CONTINUOUS
 10
-44.3354
 20
8.560265
 11
-37.685383
 21
1.910247
  0
LINE
  8
型材断面
  6
CONTINUOUS
 10
-37.685383
 20
66.410292
 11
-37.685383
 21
1.910247
  0
LINE
  8
型材断面
  6
CONTINUOUS
 10
-37.685383
 20
66.410292
 11
-102.185427
 21
66.410292
  0
LINE
  8
型材断面
  6
CONTINUOUS
 10
-37.685383
 20
1.910247
 11
-102.185427
 21
1.910247
  0
POLYLINE
  8
型材断面
  6
DASHDOT
 66
     1
  0
VERTEX
  8
型材断面
 10
-47.435405
 20
56.66027
  0
VERTEX
  8
型材断面
 10
-92.435405
 20
34.16027
  0
VERTEX
  8
型材断面
 10
-47.435405
 20
11.66027
  0
SEQEND
  0
LINE
  8
型材断面
  6
CONTINUOUS
 62
    47
 10
-93.935427
 20
-54.529985
 11
-93.935427
 21
-57.380043
  0
LINE
  8
型材断面
  6
CONTINUOUS
 10
-93.935427
 20
-57.680043
 11
-93.935427
 21
-61.279985
  0
LINE
  8
型材断面
  6
CONTINUOUS
 10
-93.935427
 20
-61.279985
 11
-102.185427
 21
-62.279987
  0
LINE
  8
型材断面
  6
CONTINUOUS
 10
-102.185427
 20
-65.779985
 11
-102.185427
 21
-62.279987
  0
LINE
  8
型材断面
  6
CONTINUOUS
 62
    47
 10
-45.935383
 20
-54.529985
 11
-45.935383
 21
-57.380043
  0
LINE
  8
型材断面
  6
CONTINUOUS
 10
-45.935383
 20
-57.680043
 11
-45.935383
 21
-61.279985
  0
LINE
  8
型材断面
  6
CONTINUOUS
 10
-45.935383
 20
-61.279985
 11
-37.685383
 21
-62.279987
  0
LINE
  8
型材断面
  6
CONTINUOUS
 10
-37.685383
 20
-65.779985
 11
-37.685383
 21
-62.279987
  0
LINE
  8
型材断面
  6
CONTINUOUS
 10
-102.185427
 20
-65.779985
 11
-37.685383
 21
-65.779985
  0
LINE
  8
型材断面
  6
CONTINUOUS
 10
-102.185427
 20
-62.279987
 11
-37.685383
 21
-62.279987
  0
LINE
  8
型材断面
  6
CONTINUOUS
 10
-45.935383
 20
-57.380043
 11
-93.935427
 21
-57.380043
  0
LINE
  8
型材断面
  6
CONTINUOUS
 10
-45.935383
 20
-57.680043
 11
-93.935427
 21
-57.680043
  0
LINE
  8
型材断面
  6
CONTINUOUS
 10
-45.935383
 20
-61.279985
 11
-93.935427
 21
-61.279985
  0
POLYLINE
  8
型材断面
  6
CONTINUOUS
 66
     1
 70
     1
  0
VERTEX
  8
型材断面
 10
-107.2312
 20
-54.880725
  0
VERTEX
  8
型材断面
 10
-120.82721
 20
-54.880725
  0
VERTEX
  8
型材断面
 10
-120.82721
 20
-60.174252
  0
VERTEX
  8
型材断面
 10
-107.2312
 20
-60.174252
  0
SEQEND
  0
LINE
  8
型材断面
  6
CONTINUOUS
 62
    47
 10
52.602548
 20
-54.529985
 11
52.602548
 21
-57.380043
  0
LINE
  8
型材断面
  6
CONTINUOUS
 10
52.602548
 20
-57.680043
 11
52.602548
 21
-61.279985
  0
LINE
  8
型材断面
  6
CONTINUOUS
 10
52.602548
 20
-61.279985
 11
44.352548
 21
-62.279987
  0
LINE
  8
型材断面
  6
CONTINUOUS
 10
44.352548
 20
-65.779985
 11
44.352548
 21
-62.279987
  0
LINE
  8
型材断面
  6
CONTINUOUS
 62
    47
 10
100.602592
 20
-54.529985
 11
100.602592
 21
-57.380043
  0
LINE
  8
型材断面
  6
CONTINUOUS
 10
100.602592
 20
-57.680043
 11
100.602592
 21
-61.279985
  0
LINE
  8
型材断面
  6
CONTINUOUS
 10
100.602592
 20
-61.279985
 11
108.852592
 21
-62.279987
  0
LINE
  8
型材断面
  6
CONTINUOUS
 10
108.852592
 20
-65.779985
 11
108.852592
 21
-62.279987
  0
LINE
  8
型材断面
  6
CONTINUOUS
 10
44.352548
 20
-65.779985
 11
108.852592
 21
-65.779985
  0
LINE
  8
型材断面
  6
CONTINUOUS
 10
44.352548
 20
-62.279987
 11
108.852592
 21
-62.279987
  0
LINE
  8
型材断面
  6
CONTINUOUS
 10
100.602592
 20
-57.380043
 11
52.602548
 21
-57.380043
  0
LINE
  8
型材断面
  6
CONTINUOUS
 10
100.602592
 20
-57.680043
 11
52.602548
 21
-57.680043
  0
LINE
  8
型材断面
  6
CONTINUOUS
 10
100.602592
 20
-61.279985
 11
52.602548
 21
-61.279985
  0
ARC
  8
型材断面
  6
DASHDOT
 10
52.302547
 20
-57.530042
 40
49.504978
 50
365.21545
 51
410.21545
  0
LINE
  8
型材断面
  6
CONTINUOUS
 10
-94.93538
 20
59.160245
 11
-91.685377
 21
55.910242
  0
LINE
  8
型材断面
  6
CONTINUOUS
 10
-94.93538
 20
9.160295
 11
-91.685377
 21
12.410297
  0
LINE
  8
型材断面
  6
CONTINUOUS
 10
-91.685377
 20
12.410297
 11
-91.685377
 21
55.910242
  0
LINE
  8
型材断面
  6
CONTINUOUS
 10
-92.860398
 20
11.235277
 11
-92.860398
 21
57.085262
  0
LINE
  8
型材断面
  6
CONTINUOUS
 10
-94.93538
 20
9.160295
 11
-94.93538
 21
59.160245
  0
LINE
  8
型材断面
  6
CONTINUOUS
 10
-48.185433
 20
55.910242
 11
-44.93543
 21
59.160245
  0
LINE
  8
型材断面
  6
CONTINUOUS
 10
-48.185433
 20
12.410297
 11
-44.93543
 21
9.160295
  0
LINE
  8
型材断面
  6
CONTINUOUS
 10
-48.185433
 20
12.410297
 11
-48.185433
 21
55.910242
  0
LINE
  8
型材断面
  6
CONTINUOUS
 10
-47.010412
 20
11.235277
 11
-47.010412
 21
57.085262
  0
LINE
  8
型材断面
  6
CONTINUOUS
 10
-44.93543
 20
9.160295
 11
-44.93543
 21
59.160245
  0
LINE
  8
型材断面
  6
CONTINUOUS
 10
-48.185433
 20
55.910242
 11
-91.685377
 21
55.910242
  0
LINE
  8
型材断面
  6
CONTINUOUS
 10
-47.010412
 20
57.085262
 11
-92.860398
 21
57.085262
  0
LINE
  8
型材断面
  6
CONTINUOUS
 10
-44.93543
 20
59.160245
 11
-94.93538
 21
59.160245
  0
LINE
  8
型材断面
  6
CONTINUOUS
 10
-91.685377
 20
12.410297
 11
-48.185433
 21
12.410297
  0
LINE
  8
型材断面
  6
CONTINUOUS
 10
-92.860398
 20
11.235277
 11
-47.010412
 21
11.235277
  0
LINE
  8
型材断面
  6
CONTINUOUS
 10
-94.93538
 20
9.160295
 11
-44.93543
 21
9.160295
  0
LINE
  8
型材断面
  6
CONTINUOUS
 10
-92.860365
 20
-53.105163
 11
-92.860365
 21
-52.36504
  0
LINE
  8
型材断面
  6
CONTINUOUS
 10
-94.935347
 20
-53.105163
 11
-94.935347
 21
-54.105163
  0
LINE
  8
型材断面
  6
CONTINUOUS
 10
-48.1854
 20
-52.36504
 11
-47.08538
 21
-52.36504
  0
LINE
  8
型材断面
  6
CONTINUOUS
 10
-47.01038
 20
-53.105163
 11
-47.01038
 21
-52.36504
  0
LINE
  8
型材断面
  6
CONTINUOUS
 10
-44.935398
 20
-53.105163
 11
-44.935398
 21
-54.105163
  0
LINE
  8
型材断面
  6
CONTINUOUS
 10
-92.860365
 20
-52.36504
 11
-47.01038
 21
-52.36504
  0
LINE
  8
型材断面
  6
CONTINUOUS
 10
-94.935347
 20
-53.105163
 11
-44.935398
 21
-53.105163
  0
LINE
  8
型材断面
  6
CONTINUOUS
 10
-94.935347
 20
-54.105163
 11
-44.935398
 21
-54.105163
  0
LINE
  8
型材断面
  6
CONTINUOUS
 10
53.67761
 20
-53.105163
 11
53.67761
 21
-52.36504
  0
LINE
  8
型材断面
  6
CONTINUOUS
 10
51.602628
 20
-53.105163
 11
51.602628
 21
-54.105163
  0
LINE
  8
型材断面
  6
CONTINUOUS
 10
99.527595
 20
-53.105163
 11
99.527595
 21
-52.36504
  0
LINE
  8
型材断面
  6
CONTINUOUS
 10
101.602578
 20
-53.105163
 11
101.602578
 21
-54.105163
  0
LINE
  8
型材断面
  6
CONTINUOUS
 10
53.67761
 20
-52.36504
 11
99.527595
 21
-52.36504
  0
LINE
  8
型材断面
  6
CONTINUOUS
 10
51.602628
 20
-53.105163
 11
101.602578
 21
-53.105163
  0
LINE
  8
型材断面
  6
CONTINUOUS
 10
51.602628
 20
-54.105163
 11
101.602578
 21
-54.105163
  0
INSERT
  2
*GRP_0046
  8
型材断面
  6
CONTINUOUS
 10
0.0
 20
0.0
  0
LINE
  8
ガラス
  6
CONTINUOUS
 10
167.304785
 20
75.557477
 11
167.304785
 21
30.557477
  0
LINE
  8
ガラス
  6
CONTINUOUS
 10
122.304785
 20
30.557477
 11
167.304785
 21
30.557477
  0
LINE
  8
ガラス
  6
CONTINUOUS
 10
122.304785
 20
30.557477
 11
122.304785
 21
75.557477
  0
LINE
  8
ガラス
  6
CONTINUOUS
 10
122.304785
 20
75.557477
 11
167.304785
 21
75.557477
  0
LINE
  8
ガラス
  6
CONTINUOUS
 10
-65.988965
 20
38.10671
 11
-73.88186
 21
30.21382
  0
LINE
  8
ガラス
  6
CONTINUOUS
 10
-67.95749
 20
32.18234
 11
-71.913335
 21
36.138205
  0
LINE
  8
ガラス
  6
CONTINUOUS
 10
-70.516625
 20
32.27369
 11
-67.467075
 21
35.32324
  0
LINE
  8
ガラス
  6
CONTINUOUS
 10
-69.35421
 20
36.04685
 11
-72.403745
 21
32.997305
  0
CIRCLE
  8
ボルト／ビス
  6
CONTINUOUS
 10
-84.935405
 20
10.66027
 40
0.288675
  0
CIRCLE
  8
ボルト／ビス
  6
CONTINUOUS
 10
-84.935405
 20
10.66027
 40
0.455885
  0
CIRCLE
  8
ボルト／ビス
  6
CONTINUOUS
 10
-69.935405
 20
10.66027
 40
0.288675
  0
CIRCLE
  8
ボルト／ビス
  6
CONTINUOUS
 10
-69.935405
 20
10.66027
 40
0.455885
  0
CIRCLE
  8
ボルト／ビス
  6
CONTINUOUS
 10
-93.435405
 20
19.16027
 40
0.288675
  0
CIRCLE
  8
ボルト／ビス
  6
CONTINUOUS
 10
-93.435405
 20
19.16027
 40
0.455885
  0
CIRCLE
  8
ボルト／ビス
  6
CONTINUOUS
 10
-93.435405
 20
34.16027
 40
0.288675
  0
CIRCLE
  8
ボルト／ビス
  6
CONTINUOUS
 10
-93.435405
 20
34.16027
 40
0.455885
  0
CIRCLE
  8
ボルト／ビス
  6
CONTINUOUS
 10
-54.935405
 20
10.66027
 40
0.288675
  0
CIRCLE
  8
ボルト／ビス
  6
CONTINUOUS
 10
-54.935405
 20
10.66027
 40
0.455885
  0
CIRCLE
  8
ボルト／ビス
  6
CONTINUOUS
 10
-46.435405
 20
19.16027
 40
0.288675
  0
CIRCLE
  8
ボルト／ビス
  6
CONTINUOUS
 10
-46.435405
 20
19.16027
 40
0.455885
  0
CIRCLE
  8
ボルト／ビス
  6
CONTINUOUS
 10
-46.435405
 20
34.16027
 40
0.288675
  0
CIRCLE
  8
ボルト／ビス
  6
CONTINUOUS
 10
-46.435405
 20
34.16027
 40
0.455885
  0
CIRCLE
  8
ボルト／ビス
  6
CONTINUOUS
 10
-84.935405
 20
57.66027
 40
0.288675
  0
CIRCLE
  8
ボルト／ビス
  6
CONTINUOUS
 10
-84.935405
 20
57.66027
 40
0.455885
  0
CIRCLE
  8
ボルト／ビス
  6
CONTINUOUS
 10
-69.935405
 20
57.66027
 40
0.288675
  0
CIRCLE
  8
ボルト／ビス
  6
CONTINUOUS
 10
-69.935405
 20
57.66027
 40
0.455885
  0
CIRCLE
  8
ボルト／ビス
  6
CONTINUOUS
 10
-93.435405
 20
49.16027
 40
0.288675
  0
CIRCLE
  8
ボルト／ビス
  6
CONTINUOUS
 10
-93.435405
 20
49.16027
 40
0.455885
  0
CIRCLE
  8
ボルト／ビス
  6
CONTINUOUS
 10
-54.935405
 20
57.66027
 40
0.288675
  0
CIRCLE
  8
ボルト／ビス
  6
CONTINUOUS
 10
-54.935405
 20
57.66027
 40
0.455885
  0
CIRCLE
  8
ボルト／ビス
  6
CONTINUOUS
 10
-46.435405
 20
49.16027
 40
0.288675
  0
CIRCLE
  8
ボルト／ビス
  6
CONTINUOUS
 10
-46.435405
 20
49.16027
 40
0.455885
  0
TEXT
  7
TextStyle03
  8
文字
  6
CONTINUOUS
 10
72.975
 20
118.55
  1
シリーズ：ＳＴＦＦＨ
 40
5.0
 72
     5
 11
128.6
 21
118.55
  0
TEXT
  7
TextStyle03
  8
文字
  6
CONTINUOUS
 10
72.975
 20
112.925
  1
　　　　　（片側開閉）900×900タイプ
 40
5.0
 72
     5
 11
173.6
 21
112.925
  0
TEXT
  7
TextStyle03
  8
文字
  6
CONTINUOUS
 10
72.975
 20
107.3
  1
図面名　：外観姿図
 40
5.0
 72
     5
 11
122.975
 21
107.3
  0
TEXT
  7
TextStyle03
  8
文字
  6
CONTINUOUS
 10
72.975
 20
101.675
  1
　　　　　　
 40
5.0
 72
     5
 11
106.1
 21
101.675
  0
TEXT
  7
TextStyle03
  8
文字
  6
CONTINUOUS
 10
-3.075
 20
1.625
  1
は排水穴位置を示す
 40
3.0
 72
     5
 11
26.925
 21
1.625
  0
TEXT
  7
TextStyle03
  8
文字
  6
CONTINUOUS
 10
-8.675
 20
-16.75
  1
アンカー数量　６ヶ所
 40
3.0
 72
     5
 11
24.7
 21
-16.75
  0
TEXT
  7
TextStyle03
  8
文字
  6
CONTINUOUS
 10
-3.075
 20
-6.225
  1
はケーシング位置を示す
 40
3.0
 72
     5
 11
33.675
 21
-6.225
  0
TEXT
  7
TextStyle03
  8
文字
  6
CONTINUOUS
 10
-3.075
 20
-9.6
  1
２ヶ所中1ヶ所に設定
 40
3.0
 72
     5
 11
28.6125
 21
-9.6
  0
TEXT
  7
TextStyle03
  8
文字
  6
CONTINUOUS
 10
146.1
 20
38.8
  1
網入り6.8t
 40
3.0
 72
     5
 11
162.7875
 21
38.8
  0
TEXT
  7
TextStyle03
  8
文字
  6
CONTINUOUS
 10
152.725
 20
33.55
  1
×１枚
 40
3.0
 72
     5
 11
162.475
 21
33.55
  0
TEXT
  7
TextStyle03
  8
文字
  6
CONTINUOUS
 10
-98.825
 20
79.85
  1
アンカーピッチ
 40
3.0
 72
     5
 11
-75.575
 21
79.85
  0
TEXT
  7
TextStyle03
  8
文字
  6
CONTINUOUS
 10
-122.475
 20
1.75
  1
アンカーピッチ
 40
3.0
 50
90.0
 72
     5
 11
-122.475
 21
25.0
  0
INSERT
  2
*GRP_0008
  8
文字
  6
CONTINUOUS
 10
0.0
 20
0.0
  0
INSERT
  2
*GRP_0009
  8
文字
  6
CONTINUOUS
 10
0.0
 20
0.0
  0
INSERT
  2
*GRP_0010
  8
文字
  6
CONTINUOUS
 10
0.0
 20
0.0
  0
INSERT
  2
*GRP_0011
  8
文字
  6
CONTINUOUS
 10
0.0
 20
0.0
  0
INSERT
  2
*GRP_0012
  8
文字
  6
CONTINUOUS
 10
0.0
 20
0.0
  0
INSERT
  2
*GRP_0013
  8
文字
  6
CONTINUOUS
 10
0.0
 20
0.0
  0
INSERT
  2
*GRP_0014
  8
文字
  6
CONTINUOUS
 10
0.0
 20
0.0
  0
INSERT
  2
*GRP_0015
  8
文字
  6
CONTINUOUS
 10
0.0
 20
0.0
  0
INSERT
  2
*GRP_0016
  8
文字
  6
CONTINUOUS
 10
0.0
 20
0.0
  0
INSERT
  2
*GRP_0017
  8
文字
  6
CONTINUOUS
 10
0.0
 20
0.0
  0
INSERT
  2
*GRP_0018
  8
文字
  6
CONTINUOUS
 10
0.0
 20
0.0
  0
INSERT
  2
*GRP_0019
  8
文字
  6
CONTINUOUS
 10
0.0
 20
0.0
  0
TEXT
  7
TextStyle03
  8
文字
  6
CONTINUOUS
 10
-119.175
 20
-58.9
  1
丁番側
 40
3.0
 72
     5
 11
-109.425
 21
-58.9
  0
TEXT
  7
TextStyle03
  8
文字
  6
CONTINUOUS
 10
99.2
 20
-36.275
  1
45°
 40
3.0
 72
     5
 11
105.575
 21
-36.275
  0
TEXT
  7
TextStyle03
  8
文字
  6
CONTINUOUS
 10
-110.5
 20
-77.4
  1
※は物件対応寸法
 40
3.0
 72
     5
 11
-83.875
 21
-77.4
  0
INSERT
  2
*DIM_0002
  8
寸法
  6
CONTINUOUS
 10
0.0
 20
0.0
  0
INSERT
  2
*DIM_0003
  8
寸法
  6
CONTINUOUS
 10
0.0
 20
0.0
  0
INSERT
  2
*DIM_0004
  8
寸法
  6
CONTINUOUS
 10
0.0
 20
0.0
  0
INSERT
  2
*DIM_0005
  8
寸法
  6
CONTINUOUS
 10
0.0
 20
0.0
  0
INSERT
  2
*DIM_0006
  8
寸法
  6
CONTINUOUS
 10
0.0
 20
0.0
  0
INSERT
  2
*DIM_0007
  8
寸法
  6
CONTINUOUS
 10
0.0
 20
0.0
  0
CIRCLE
  8
寸法
  6
CONTINUOUS
 10
-111.453763
 20
34.16027
 40
1.73792
  0
INSERT
  2
*DIM_0036
  8
寸法
  6
CONTINUOUS
 10
0.0
 20
0.0
  0
INSERT
  2
*DIM_0037
  8
寸法
  6
CONTINUOUS
 10
0.0
 20
0.0
  0
INSERT
  2
*DIM_0038
  8
寸法
  6
CONTINUOUS
 10
0.0
 20
0.0
  0
INSERT
  2
*DIM_0043
  8
寸法
  6
CONTINUOUS
 10
0.0
 20
0.0
  0
INSERT
  2
*DIM_0044
  8
寸法
  6
CONTINUOUS
 10
0.0
 20
0.0
  0
INSERT
  2
*DIM_0045
  8
寸法
  6
CONTINUOUS
 10
0.0
 20
0.0
  0
INSERT
  2
*GRP_0032
  8
別途部材
  6
DOT
 10
0.0
 20
0.0
  0
INSERT
  2
*GRP_0033
  8
別途部材
  6
DOT
 10
0.0
 20
0.0
  0
INSERT
  2
*GRP_0034
  8
別途部材
  6
CONTINUOUS
 10
0.0
 20
0.0
  0
INSERT
  2
*GRP_0039
  8
別途部材
  6
DOT
 10
0.0
 20
0.0
  0
INSERT
  2
*GRP_0040
  8
別途部材
  6
DOT
 10
0.0
 20
0.0
  0
INSERT
  2
*GRP_0041
  8
別途部材
  6
CONTINUOUS
 10
0.0
 20
0.0
  0
ENDSEC
  0
EOF
