  0
SECTION
  2
HEADER
  9
$EXTMIN
 10
-210.0
 20
-148.5
  9
$EXTMAX
 10
210.0
 20
148.5
  9
$PDMODE
 70
    32
  9
$PDSIZE
 40
1.5
  9
$LTSCALE
 40
10.0
  0
ENDSEC
  0
SECTION
  2
TABLES
  0
TABLE
  2
LTYPE
 70
    15
  0
LTYPE
  2
CONTINUOUS
 70
    64
  3
実線
 72
    65
 73
     0
 40
0.0
  0
LTYPE
  2
DASHED
 70
    64
  3
破線A
 72
    65
 73
     2
 40
0.6
 49
0.4
 49
-0.2
  0
LTYPE
  2
DASHEDX2
 70
    64
  3
破線B
 72
    65
 73
     2
 40
1.3
 49
0.9
 49
-0.4
  0
LTYPE
  2
DASHDOT
 70
    64
  3
１点鎖線A
 72
    65
 73
     4
 40
0.5375
 49
0.375
 49
-0.05
 49
0.0625
 49
-0.05
  0
LTYPE
  2
DASHDOTX2
 70
    64
  3
１点鎖線B
 72
    65
 73
     4
 40
1.075
 49
0.75
 49
-0.1
 49
0.125
 49
-0.1
  0
LTYPE
  2
DIVIDE2
 70
    64
  3
２点鎖線A
 72
    65
 73
     6
 40
0.5125
 49
0.3
 49
-0.0375
 49
0.05
 49
-0.0375
 49
0.05
 49
-0.0375
  0
LTYPE
  2
DIVIDE
 70
    64
  3
２点鎖線B
 72
    65
 73
     6
 40
1.05
 49
0.55
 49
-0.1
 49
0.1
 49
-0.1
 49
0.1
 49
-0.1
  0
LTYPE
  2
DOT
 70
    64
  3
点線A
 72
    65
 73
     2
 40
0.1125
 49
0.0625
 49
-0.05
  0
LTYPE
  2
DOTX2
 70
    64
  3
点線B
 72
    65
 73
     2
 40
0.275
 49
0.15
 49
-0.125
  0
LTYPE
  2
CONTINUOUS
 70
    64
  3
実線
 72
    65
 73
     0
 40
0.0
  0
LTYPE
  2
CONTINUOUS
 70
    64
  3
実線
 72
    65
 73
     0
 40
0.0
  0
LTYPE
  2
CONTINUOUS
 70
    64
  3
実線
 72
    65
 73
     0
 40
0.0
  0
LTYPE
  2
CONTINUOUS
 70
    64
  3
実線
 72
    65
 73
     0
 40
0.0
  0
LTYPE
  2
CONTINUOUS
 70
    64
  3
実線
 72
    65
 73
     0
 40
0.0
  0
LTYPE
  2
CONTINUOUS
 70
    64
  3
実線
 72
    65
 73
     0
 40
0.0
  0
ENDTAB
  0
TABLE
  2
LAYER
 70
    36
  0
LAYER
  2
通り芯
 70
     0
 62
    15
  6
CONTINUOUS
  0
LAYER
  2
補助線
 70
     0
 62
    16
  6
DOT
  0
LAYER
  2
躯体
 70
     0
 62
    31
  6
CONTINUOUS
  0
LAYER
  2
型材
 70
     0
 62
    32
  6
CONTINUOUS
  0
LAYER
  2
型材断面
 70
     0
 62
    47
  6
CONTINUOUS
  0
LAYER
  2
ガラス
 70
     0
 62
    48
  6
CONTINUOUS
  0
LAYER
  2
ゴム等
 70
     0
 62
    63
  6
CONTINUOUS
  0
LAYER
  2
ボルト／ビス
 70
     0
 62
    64
  6
CONTINUOUS
  0
LAYER
  2
文字
 70
     0
 62
    79
  6
CONTINUOUS
  0
LAYER
  2
寸法
 70
     0
 62
    80
  6
CONTINUOUS
  0
LAYER
  2
ﾊｯﾁﾝｸﾞ
 70
     0
 62
    95
  6
CONTINUOUS
  0
LAYER
  2
別途部材
 70
     0
 62
    96
  6
CONTINUOUS
  0
LAYER
  2
曲げ物
 70
     0
 62
   111
  6
CONTINUOUS
  0
LAYER
  2
鉄骨等
 70
     0
 62
   112
  6
CONTINUOUS
  0
LAYER
  2
St
 70
     0
 62
   127
  6
CONTINUOUS
  0
LAYER
  2
その他部品等
 70
     0
 62
   128
  6
CONTINUOUS
  0
LAYER
  2
ｶﾞｽｹｯﾄ
 70
     0
 62
   143
  6
CONTINUOUS
  0
LAYER
  2
ｽｹｯﾁ
 70
     0
 62
    14
  6
CONTINUOUS
  0
LAYER
  2
0
 70
     0
 62
    17
  6
CONTINUOUS
  0
LAYER
  2
1
 70
     0
 62
    30
  6
CONTINUOUS
  0
LAYER
  2
4
 70
     0
 62
    33
  6
CONTINUOUS
  0
LAYER
  2
ﾚｲﾔ3
 70
     0
 62
    46
  6
CONTINUOUS
  0
LAYER
  2
外形線
 70
     0
 62
    49
  6
CONTINUOUS
  0
LAYER
  2
部品
 70
     0
 62
    14
  6
CONTINUOUS
  0
LAYER
  2
サッシ芯
 70
     0
 62
    17
  6
DASHDOTX2
  0
LAYER
  2
寸法線
 70
     0
 62
    62
  6
CONTINUOUS
  0
LAYER
  2
姿図外形線
 70
     0
 62
    65
  6
CONTINUOUS
  0
LAYER
  2
姿補助線
 70
     0
 62
    30
  6
CONTINUOUS
  0
LAYER
  2
透視線
 70
     0
 62
    78
  6
DOT
  0
LAYER
  2
用紙
 70
     0
 62
    81
  6
CONTINUOUS
  0
LAYER
  2
実線図枠
 70
     0
 62
    94
  6
CONTINUOUS
  0
LAYER
  2
補助図枠
 70
     0
 62
    97
  6
CONTINUOUS
  0
LAYER
  2
建具記号
 70
     0
 62
   110
  6
CONTINUOUS
  0
LAYER
  2
補助文字
 70
     0
 62
   113
  6
CONTINUOUS
  0
LAYER
  2
LAYER010
 70
     0
 62
    11
  6
CONTINUOUS
  0
LAYER
  2
SUNPO
 70
     0
 62
     6
  6
CONTINUOUS
  0
ENDTAB
  0
TABLE
  2
STYLE
 70
    10
  0
STYLE
  2
STANDARD
 70
     0
 40
1.0
 41
1.0
 42
1.0
 50
0.0
 71
     0
  3
TXT
  4
BIGFONT
  0
STYLE
  2
TATE
 70
     4
 40
1.0
 41
1.0
 42
1.0
 50
0.0
 71
     0
  3
TXT
  4
BIGFONT
  0
STYLE
  2
TextStyle03
 70
     0
 40
1.0
 41
1.0
 42
1.0
 50
0.0
 71
     0
  3
MONOTXT
  4
BIGFONT
  0
STYLE
  2
TextStyle04
 70
     0
 40
1.0
 41
1.0
 42
1.0
 50
0.0
 71
     0
  3
MONOTXT
  4
BIGFONT
  0
STYLE
  2
TextStyle05
 70
     0
 40
1.0
 41
1.0
 42
1.0
 50
0.0
 71
     0
  3
MONOTXT
  4
BIGFONT
  0
STYLE
  2
TextStyle06
 70
     0
 40
1.0
 41
1.0
 42
1.0
 50
0.0
 71
     0
  3
MONOTXT
  4
BIGFONT
  0
STYLE
  2
TextStyle07
 70
     0
 40
1.0
 41
1.0
 42
1.0
 50
0.0
 71
     0
  3
MONOTXT
  4
BIGFONT
  0
STYLE
  2
TextStyle08
 70
     0
 40
1.0
 41
1.0
 42
1.0
 50
0.0
 71
     0
  3
MONOTXT
  4
BIGFONT
  0
STYLE
  2
TextStyle09
 70
     0
 40
1.0
 41
1.0
 42
1.0
 50
0.0
 71
     0
  3
MONOTXT
  4
BIGFONT
  0
STYLE
  2
TextStyle10
 70
     0
 40
1.0
 41
1.0
 42
1.0
 50
0.0
 71
     0
  3
MONOTXT
  4
BIGFONT
  0
ENDTAB
  0
ENDSEC
  0
SECTION
  2
BLOCKS
  0
BLOCK
  2
*HAT_0001
 70
    65
 10
0.0
 20
0.0
  0
LINE
  8
ﾊｯﾁﾝｸﾞ
 10
-40.875
 20
96.775
 11
-42.65
 21
98.525
  0
LINE
  8
ﾊｯﾁﾝｸﾞ
 10
-38.05
 20
96.775
 11
-42.65
 21
101.35
  0
LINE
  8
ﾊｯﾁﾝｸﾞ
 10
-35.225
 20
96.775
 11
-42.625
 21
104.175
  0
LINE
  8
ﾊｯﾁﾝｸﾞ
 10
-34.625
 20
99.0
 11
-40.4
 21
104.775
  0
LINE
  8
ﾊｯﾁﾝｸﾞ
 10
-34.625
 20
101.825
 11
-37.575
 21
104.775
  0
LINE
  8
ﾊｯﾁﾝｸﾞ
 10
-34.625
 20
104.65
 11
-34.75
 21
104.775
  0
LINE
  8
ﾊｯﾁﾝｸﾞ
 10
-34.625
 20
97.95
 11
-35.825
 21
96.775
  0
LINE
  8
ﾊｯﾁﾝｸﾞ
 10
-34.625
 20
100.775
 11
-38.65
 21
96.775
  0
LINE
  8
ﾊｯﾁﾝｸﾞ
 10
-34.625
 20
103.625
 11
-41.475
 21
96.775
  0
LINE
  8
ﾊｯﾁﾝｸﾞ
 10
-36.3
 20
104.775
 11
-42.625
 21
98.45
  0
LINE
  8
ﾊｯﾁﾝｸﾞ
 10
-39.125
 20
104.775
 11
-42.625
 21
101.275
  0
LINE
  8
ﾊｯﾁﾝｸﾞ
 10
-41.95
 20
104.775
 11
-42.625
 21
104.1
  0
ENDBLK
  0
BLOCK
  2
*GRP_0001
 70
    65
 10
0.0
 20
0.0
  0
LINE
  8
型材断面
  6
CONTINUOUS
 10
195.0
 20
133.5
 11
195.0
 21
-133.5
  0
LINE
  8
型材断面
  6
CONTINUOUS
 10
195.0
 20
-133.5
 11
-185.0
 21
-133.5
  0
LINE
  8
型材断面
  6
CONTINUOUS
 10
-185.0
 20
-133.5
 11
-185.0
 21
133.5
  0
LINE
  8
型材断面
  6
CONTINUOUS
 10
195.0
 20
133.5
 11
-185.0
 21
133.5
  0
LINE
  8
型材断面
  6
CONTINUOUS
 10
145.0
 20
-133.5
 11
145.0
 21
-118.5
  0
LINE
  8
型材断面
  6
CONTINUOUS
 10
195.0
 20
-118.5
 11
145.0
 21
-118.5
  0
ENDBLK
  0
BLOCK
  2
*GRP_0002
 70
    65
 10
0.0
 20
0.0
  0
LINE
  8
型材断面
  6
DOT
 10
-78.120085
 20
-70.519863
 11
-79.620085
 21
-70.519863
  0
LINE
  8
型材断面
  6
DOT
 10
-78.120085
 20
-62.51986
 11
-79.620085
 21
-62.51986
  0
LINE
  8
型材断面
  6
DOT
 10
-78.495085
 20
-70.519863
 11
-78.495085
 21
-62.51986
  0
LINE
  8
型材断面
  6
DOT
 10
-78.870085
 20
-70.519863
 11
-78.870085
 21
-62.51986
  0
LINE
  8
型材断面
  6
DOT
 10
-79.245085
 20
-70.519863
 11
-79.245085
 21
-62.51986
  0
LINE
  8
型材断面
  6
CONTINUOUS
 10
-43.620085
 20
-0.02098
 11
-43.620085
 21
6.479023
  0
LINE
  8
型材断面
  6
CONTINUOUS
 10
-43.620085
 20
6.479023
 11
-42.120085
 21
6.479023
  0
LINE
  8
型材断面
  6
CONTINUOUS
 10
-78.120085
 20
-1.52098
 11
-78.120085
 21
-70.519863
  0
LINE
  8
型材断面
  6
CONTINUOUS
 10
-78.120085
 20
-70.519863
 11
-23.120088
 21
-70.519863
  0
LINE
  8
型材断面
  6
CONTINUOUS
 10
-21.620088
 20
-62.019858
 11
-23.120088
 21
-62.019858
  0
LINE
  8
型材断面
  6
CONTINUOUS
 10
-23.120088
 20
-62.019858
 11
-23.120088
 21
-70.519863
  0
LINE
  8
型材断面
  6
CONTINUOUS
 10
-42.120085
 20
6.479023
 11
-42.120085
 21
-0.02098
  0
LINE
  8
型材断面
  6
CONTINUOUS
 10
-43.620085
 20
-1.52098
 11
-78.120085
 21
-1.52098
  0
ARC
  8
型材断面
  6
CONTINUOUS
 10
-43.620078
 20
-0.020984
 40
1.5
 50
270.0
 51
360.0
  0
LINE
  8
型材断面
  6
CONTINUOUS
 10
-78.120085
 20
-0.02098
 11
-43.620085
 21
-0.02098
  0
ARC
  8
型材断面
  6
CONTINUOUS
 10
-78.12008
 20
-1.520984
 40
1.5
 50
90.0
 51
180.0
  0
LINE
  8
型材断面
  6
CONTINUOUS
 10
-79.620085
 20
-1.52098
 11
-79.620085
 21
-70.519863
  0
ARC
  8
型材断面
  6
CONTINUOUS
 10
-78.12008
 20
-70.519867
 40
1.5
 50
180.0
 51
270.0
  0
LINE
  8
型材断面
  6
CONTINUOUS
 10
-78.120085
 20
-72.019863
 11
-23.120088
 21
-72.019863
  0
LINE
  8
型材断面
  6
CONTINUOUS
 10
-21.620088
 20
-62.019858
 11
-21.620088
 21
-70.519863
  0
ARC
  8
型材断面
  6
CONTINUOUS
 10
-23.12008
 20
-70.519867
 40
1.5
 50
-90.0
 51
0.0
  0
ENDBLK
  0
BLOCK
  2
*GRP_0003
 70
    65
 10
0.0
 20
0.0
  0
ARC
  8
型材断面
  6
CONTINUOUS
 10
-98.119767
 20
89.976567
 40
1.5
 50
90.0
 51
180.0
  0
ARC
  8
型材断面
  6
CONTINUOUS
 10
-58.120092
 20
91.476567
 40
1.5
 50
-90.0
 51
0.0
  0
LINE
  8
型材断面
  6
CONTINUOUS
 10
-98.119765
 20
91.476568
 11
-58.12009
 21
91.476568
  0
LINE
  8
型材断面
  6
CONTINUOUS
 10
-98.119765
 20
89.976568
 11
-58.12009
 21
89.976568
  0
LINE
  8
型材断面
  6
CONTINUOUS
 10
-34.619687
 20
106.279055
 11
-34.619687
 21
104.779055
  0
ARC
  8
型材断面
  6
CONTINUOUS
 10
-56.620092
 20
104.779055
 40
1.5
 50
90.0
 51
180.0
  0
LINE
  8
型材断面
  6
CONTINUOUS
 10
-34.619687
 20
104.779055
 11
-56.62009
 21
104.779055
  0
LINE
  8
型材断面
  6
CONTINUOUS
 10
-34.619687
 20
106.279055
 11
-56.62009
 21
106.279055
  0
LINE
  8
型材断面
  6
CONTINUOUS
 10
-58.12009
 20
91.476568
 11
-58.12009
 21
104.779055
  0
LINE
  8
型材断面
  6
CONTINUOUS
 10
-56.62009
 20
91.476568
 11
-56.62009
 21
104.779055
  0
LINE
  8
型材断面
  6
CONTINUOUS
 10
-99.619765
 20
89.976568
 11
-99.619765
 21
71.476565
  0
LINE
  8
型材断面
  6
CONTINUOUS
 10
-99.619765
 20
71.476565
 11
-98.119765
 21
71.476565
  0
LINE
  8
型材断面
  6
CONTINUOUS
 10
-98.119765
 20
89.976568
 11
-98.119765
 21
71.476565
  0
ENDBLK
  0
BLOCK
  2
*GRP_0004
 70
    65
 10
0.0
 20
0.0
  0
LINE
  8
ゴム等
  6
CONTINUOUS
 62
    63
 10
-59.62009
 20
86.976568
 11
-59.62009
 21
89.976568
  0
LINE
  8
ゴム等
  6
CONTINUOUS
 62
    63
 10
-79.620093
 20
86.976568
 11
-79.620093
 21
89.976568
  0
LINE
  8
ゴム等
  6
CONTINUOUS
 62
    63
 10
-59.62009
 20
86.976568
 11
-79.620093
 21
86.976568
  0
LINE
  8
ゴム等
  6
CONTINUOUS
 62
    63
 10
-78.856293
 20
86.976568
 11
-79.620093
 21
87.740367
  0
LINE
  8
ゴム等
  6
CONTINUOUS
 62
    63
 10
-77.442093
 20
86.976568
 11
-79.620093
 21
89.154567
  0
LINE
  8
ゴム等
  6
CONTINUOUS
 62
    63
 10
-76.02787
 20
86.976568
 11
-79.02787
 21
89.976568
  0
LINE
  8
ゴム等
  6
CONTINUOUS
 62
    63
 10
-74.61367
 20
86.976568
 11
-77.61367
 21
89.976568
  0
LINE
  8
ゴム等
  6
CONTINUOUS
 62
    63
 10
-73.19944
 20
86.976568
 11
-76.19944
 21
89.976568
  0
LINE
  8
ゴム等
  6
CONTINUOUS
 62
    63
 10
-71.78524
 20
86.976568
 11
-74.78524
 21
89.976568
  0
LINE
  8
ゴム等
  6
CONTINUOUS
 62
    63
 10
-70.371018
 20
86.976568
 11
-73.371018
 21
89.976568
  0
LINE
  8
ゴム等
  6
CONTINUOUS
 62
    63
 10
-68.956795
 20
86.976568
 11
-71.956795
 21
89.976568
  0
LINE
  8
ゴム等
  6
CONTINUOUS
 62
    63
 10
-67.542595
 20
86.976568
 11
-70.542595
 21
89.976568
  0
LINE
  8
ゴム等
  6
CONTINUOUS
 62
    63
 10
-66.128365
 20
86.976568
 11
-69.128365
 21
89.976568
  0
LINE
  8
ゴム等
  6
CONTINUOUS
 62
    63
 10
-64.714165
 20
86.976568
 11
-67.714165
 21
89.976568
  0
LINE
  8
ゴム等
  6
CONTINUOUS
 62
    63
 10
-63.299943
 20
86.976568
 11
-66.299943
 21
89.976568
  0
LINE
  8
ゴム等
  6
CONTINUOUS
 62
    63
 10
-61.885743
 20
86.976568
 11
-64.885743
 21
89.976568
  0
LINE
  8
ゴム等
  6
CONTINUOUS
 62
    63
 10
-60.47152
 20
86.976568
 11
-63.47152
 21
89.976568
  0
LINE
  8
ゴム等
  6
CONTINUOUS
 62
    63
 10
-59.62009
 20
87.539367
 11
-62.05732
 21
89.976568
  0
LINE
  8
ゴム等
  6
CONTINUOUS
 62
    63
 10
-59.62009
 20
88.953567
 11
-60.64309
 21
89.976568
  0
LINE
  8
ゴム等
  6
CONTINUOUS
 10
-59.62009
 20
89.976568
 11
-79.620093
 21
89.976568
  0
ENDBLK
  0
BLOCK
  2
*GRP_0005
 70
    65
 10
0.0
 20
0.0
  0
LINE
  8
ゴム等
  6
CONTINUOUS
 10
-47.620082
 20
4.979023
 11
-47.620082
 21
5.97902
  0
LINE
  8
ゴム等
  6
CONTINUOUS
 10
-47.620082
 20
5.97902
 11
-43.620085
 21
5.97902
  0
LINE
  8
ゴム等
  6
CONTINUOUS
 10
-43.620085
 20
5.97902
 11
-43.620085
 21
-0.02098
  0
LINE
  8
ゴム等
  6
CONTINUOUS
 10
-43.620085
 20
-0.02098
 11
-56.620082
 21
-0.02098
  0
LINE
  8
ゴム等
  6
CONTINUOUS
 10
-51.620088
 20
5.97902
 11
-55.619988
 21
5.951637
  0
LINE
  8
ゴム等
  6
CONTINUOUS
 10
-55.619988
 20
5.951637
 11
-55.618105
 21
5.67545
  0
ARC
  8
ゴム等
  6
CONTINUOUS
 10
-59.787711
 20
5.58525
 40
0.4
 50
84.469308
 51
267.338712
  0
LINE
  8
ゴム等
  6
CONTINUOUS
 10
-59.749158
 20
5.983393
 11
-56.425367
 21
5.69702
  0
LINE
  8
ゴム等
  6
CONTINUOUS
 10
-55.618105
 20
5.67545
 11
-56.42536
 21
5.69702
  0
LINE
  8
ゴム等
  6
CONTINUOUS
 10
-59.806285
 20
5.185693
 11
-56.620082
 21
4.706157
  0
LINE
  8
ゴム等
  6
CONTINUOUS
 10
-56.620082
 20
-0.02098
 11
-56.620082
 21
4.706157
  0
LINE
  8
ゴム等
  6
CONTINUOUS
 10
-51.620088
 20
5.97902
 11
-51.70843
 21
4.979023
  0
LINE
  8
ゴム等
  6
CONTINUOUS
 10
-47.620082
 20
4.979023
 11
-51.70843
 21
4.979023
  0
LINE
  8
ゴム等
  6
CONTINUOUS
 10
-52.21258
 20
5.974963
 11
-46.216637
 21
-0.02098
  0
LINE
  8
ゴム等
  6
CONTINUOUS
 10
-53.617165
 20
5.965347
 11
-47.630837
 21
-0.02098
  0
LINE
  8
ゴム等
  6
CONTINUOUS
 10
-55.021765
 20
5.955732
 11
-49.045053
 21
-0.02098
  0
LINE
  8
ゴム等
  6
CONTINUOUS
 10
-56.153875
 20
5.673627
 11
-50.459267
 21
-0.02098
  0
LINE
  8
ゴム等
  6
CONTINUOUS
 10
-57.701425
 20
5.806963
 11
-51.873482
 21
-0.02098
  0
LINE
  8
ゴム等
  6
CONTINUOUS
 10
-49.802425
 20
4.979023
 11
-44.802423
 21
-0.02098
  0
LINE
  8
ゴム等
  6
CONTINUOUS
 10
-48.38821
 20
4.979023
 11
-43.620085
 21
0.210897
  0
LINE
  8
ゴム等
  6
CONTINUOUS
 10
-47.620082
 20
5.62511
 11
-43.620085
 21
1.625113
  0
LINE
  8
ゴム等
  6
CONTINUOUS
 10
-46.559778
 20
5.97902
 11
-43.620085
 21
3.039328
  0
LINE
  8
ゴム等
  6
CONTINUOUS
 10
-45.145562
 20
5.97902
 11
-43.620085
 21
4.453543
  0
LINE
  8
ゴム等
  6
CONTINUOUS
 10
-56.116128
 20
-0.02098
 11
-56.620082
 21
0.482975
  0
LINE
  8
ゴム等
  6
CONTINUOUS
 10
-54.701912
 20
-0.02098
 11
-56.620082
 21
1.89719
  0
LINE
  8
ゴム等
  6
CONTINUOUS
 10
-59.248975
 20
5.940298
 11
-58.261938
 21
4.95326
  0
LINE
  8
ゴム等
  6
CONTINUOUS
 10
-56.620082
 20
3.311405
 11
-53.287698
 21
-0.02098
  0
ENDBLK
  0
BLOCK
  2
*GRP_0006
 70
    65
 10
0.0
 20
0.0
  0
POLYLINE
  8
ゴム等
  6
DOT
 66
     1
 70
     1
  0
VERTEX
  8
ゴム等
 10
-78.120085
 20
17.479018
  0
VERTEX
  8
ゴム等
 10
-68.120088
 20
17.479018
  0
VERTEX
  8
ゴム等
 10
-68.120088
 20
7.47902
  0
VERTEX
  8
ゴム等
 10
-78.120085
 20
7.47902
  0
SEQEND
  0
LINE
  8
ゴム等
  6
DOT
 10
-76.50487
 20
7.47902
 11
-78.120085
 21
9.094235
  0
LINE
  8
ゴム等
  6
DOT
 10
-75.090655
 20
7.47902
 11
-78.120085
 21
10.50845
  0
LINE
  8
ゴム等
  6
DOT
 10
-73.67644
 20
7.47902
 11
-78.120085
 21
11.922665
  0
LINE
  8
ゴム等
  6
DOT
 10
-72.262225
 20
7.47902
 11
-78.120085
 21
13.33688
  0
LINE
  8
ゴム等
  6
DOT
 10
-70.84801
 20
7.47902
 11
-78.120085
 21
14.751095
  0
LINE
  8
ゴム等
  6
DOT
 10
-69.433795
 20
7.47902
 11
-78.120085
 21
16.16531
  0
LINE
  8
ゴム等
  6
DOT
 10
-68.120088
 20
7.579528
 11
-78.019578
 21
17.479018
  0
LINE
  8
ゴム等
  6
DOT
 10
-68.120088
 20
8.993743
 11
-76.605362
 21
17.479018
  0
LINE
  8
ゴム等
  6
DOT
 10
-68.120088
 20
16.064803
 11
-69.534303
 21
17.479018
  0
LINE
  8
ゴム等
  6
DOT
 10
-68.120088
 20
14.650588
 11
-70.948517
 21
17.479018
  0
LINE
  8
ゴム等
  6
DOT
 10
-68.120088
 20
13.236372
 11
-72.362733
 21
17.479018
  0
LINE
  8
ゴム等
  6
DOT
 10
-68.120088
 20
11.822157
 11
-73.776948
 21
17.479018
  0
LINE
  8
ゴム等
  6
DOT
 10
-68.120088
 20
10.407942
 11
-75.191162
 21
17.479018
  0
ENDBLK
  0
BLOCK
  2
*GRP_0007
 70
    65
 10
0.0
 20
0.0
  0
POLYLINE
  8
ゴム等
  6
DOT
 66
     1
 70
     1
  0
VERTEX
  8
ゴム等
 10
-78.120085
 20
-60.519865
  0
VERTEX
  8
ゴム等
 10
-68.120088
 20
-60.519865
  0
VERTEX
  8
ゴム等
 10
-68.120088
 20
-70.519863
  0
VERTEX
  8
ゴム等
 10
-78.120085
 20
-70.519863
  0
SEQEND
  0
LINE
  8
ゴム等
  6
DOT
 10
-76.50487
 20
-70.519863
 11
-78.120085
 21
-68.904648
  0
LINE
  8
ゴム等
  6
DOT
 10
-75.090655
 20
-70.519863
 11
-78.120085
 21
-67.490433
  0
LINE
  8
ゴム等
  6
DOT
 10
-73.67644
 20
-70.519863
 11
-78.120085
 21
-66.076217
  0
LINE
  8
ゴム等
  6
DOT
 10
-72.262225
 20
-70.519863
 11
-78.120085
 21
-64.662003
  0
LINE
  8
ゴム等
  6
DOT
 10
-70.84801
 20
-70.519863
 11
-78.120085
 21
-63.247787
  0
LINE
  8
ゴム等
  6
DOT
 10
-69.433795
 20
-70.519863
 11
-78.120085
 21
-61.833572
  0
LINE
  8
ゴム等
  6
DOT
 10
-68.120088
 20
-70.419355
 11
-78.019578
 21
-60.519865
  0
LINE
  8
ゴム等
  6
DOT
 10
-68.120088
 20
-69.00514
 11
-76.605362
 21
-60.519865
  0
LINE
  8
ゴム等
  6
DOT
 10
-68.120088
 20
-61.93408
 11
-69.534303
 21
-60.519865
  0
LINE
  8
ゴム等
  6
DOT
 10
-68.120088
 20
-63.348295
 11
-70.948517
 21
-60.519865
  0
LINE
  8
ゴム等
  6
DOT
 10
-68.120088
 20
-64.76251
 11
-72.362733
 21
-60.519865
  0
LINE
  8
ゴム等
  6
DOT
 10
-68.120088
 20
-66.176725
 11
-73.776948
 21
-60.519865
  0
LINE
  8
ゴム等
  6
DOT
 10
-68.120088
 20
-67.59094
 11
-75.191162
 21
-60.519865
  0
ENDBLK
  0
BLOCK
  2
*GRP_0008
 70
    65
 10
0.0
 20
0.0
  0
LINE
  8
ゴム等
  6
CONTINUOUS
 10
-34.619687
 20
77.479047
 11
-36.119687
 21
77.479047
  0
LINE
  8
ゴム等
  6
CONTINUOUS
 10
-36.119687
 20
71.978997
 11
-36.119687
 21
77.479047
  0
LINE
  8
ゴム等
  6
CONTINUOUS
 10
-44.619662
 20
70.979023
 11
-37.119662
 21
70.979023
  0
LINE
  8
ゴム等
  6
CONTINUOUS
 10
-36.119687
 20
71.978997
 11
-37.119662
 21
70.979023
  0
LINE
  8
ゴム等
  6
CONTINUOUS
 10
-34.619687
 20
77.479047
 11
-34.619687
 21
78.979047
  0
LINE
  8
ゴム等
  6
CONTINUOUS
 10
-34.619687
 20
78.979047
 11
-44.619662
 21
78.979047
  0
LINE
  8
ゴム等
  6
CONTINUOUS
 10
-44.619662
 20
70.979023
 11
-44.619662
 21
78.979047
  0
LINE
  8
ゴム等
  6
CONTINUOUS
 10
-35.599938
 20
78.979047
 11
-34.619687
 21
77.998797
  0
LINE
  8
ゴム等
  6
CONTINUOUS
 10
-37.014138
 20
78.979047
 11
-35.514138
 21
77.479047
  0
LINE
  8
ゴム等
  6
CONTINUOUS
 10
-38.428337
 20
78.979047
 11
-36.119687
 21
76.670322
  0
LINE
  8
ゴム等
  6
CONTINUOUS
 10
-39.842537
 20
78.979047
 11
-36.119687
 21
75.256122
  0
LINE
  8
ゴム等
  6
CONTINUOUS
 10
-41.256737
 20
78.979047
 11
-36.119687
 21
73.841922
  0
LINE
  8
ゴム等
  6
CONTINUOUS
 10
-42.671012
 20
78.979047
 11
-36.119687
 21
72.427722
  0
LINE
  8
ゴム等
  6
CONTINUOUS
 10
-44.085213
 20
78.979047
 11
-36.602463
 21
71.496222
  0
LINE
  8
ゴム等
  6
CONTINUOUS
 10
-44.619662
 20
78.099297
 11
-37.499463
 21
70.979023
  0
LINE
  8
ゴム等
  6
CONTINUOUS
 10
-44.619662
 20
76.685097
 11
-38.913663
 21
70.979023
  0
LINE
  8
ゴム等
  6
CONTINUOUS
 10
-44.619662
 20
75.270823
 11
-40.327862
 21
70.979023
  0
LINE
  8
ゴム等
  6
CONTINUOUS
 10
-44.619662
 20
73.856623
 11
-41.742062
 21
70.979023
  0
LINE
  8
ゴム等
  6
CONTINUOUS
 10
-44.619662
 20
72.442423
 11
-43.156262
 21
70.979023
  0
ENDBLK
  0
BLOCK
  2
*GRP_0009
 70
    65
 10
0.0
 20
0.0
  0
ARC
  8
ボルト／ビス
  6
CONTINUOUS
 62
    64
 10
-73.119698
 20
77.976558
 40
1.0
 50
180.0
 51
270.0
  0
LINE
  8
ボルト／ビス
  6
CONTINUOUS
 62
    64
 10
-66.119687
 20
76.976473
 11
-73.1197
 21
76.976473
  0
ARC
  8
ボルト／ビス
  6
CONTINUOUS
 62
    64
 10
-66.119698
 20
77.976558
 40
1.0
 50
270.0
 51
360.0
  0
LINE
  8
ボルト／ビス
  6
CONTINUOUS
 62
    64
 10
-64.619687
 20
87.476473
 11
-64.619687
 21
86.976477
  0
LINE
  8
ボルト／ビス
  6
CONTINUOUS
 62
    64
 10
-74.6197
 20
87.476473
 11
-74.6197
 21
86.976477
  0
LINE
  8
ボルト／ビス
  6
CONTINUOUS
 62
    64
 10
-64.619687
 20
87.476473
 11
-74.6197
 21
87.476473
  0
LINE
  8
ボルト／ビス
  6
CONTINUOUS
 62
    64
 10
-64.619687
 20
86.976477
 11
-74.6197
 21
86.976477
  0
LINE
  8
ボルト／ビス
  6
CONTINUOUS
 62
    64
 10
-65.119712
 20
77.976477
 11
-65.119712
 21
83.976477
  0
LINE
  8
ボルト／ビス
  6
CONTINUOUS
 62
    64
 10
-65.119712
 20
85.476477
 11
-65.119712
 21
86.976477
  0
LINE
  8
ボルト／ビス
  6
CONTINUOUS
 62
    64
 10
-74.119712
 20
86.976477
 11
-74.119712
 21
85.476477
  0
LINE
  8
ボルト／ビス
  6
CONTINUOUS
 62
    64
 10
-74.119712
 20
83.976477
 11
-74.119712
 21
77.976477
  0
LINE
  8
ボルト／ビス
  6
CONTINUOUS
 62
    64
 10
-63.869687
 20
85.476477
 11
-69.619712
 21
85.476477
  0
ARC
  8
ボルト／ビス
  6
CONTINUOUS
 62
    64
 10
-63.869698
 20
84.726558
 40
0.75
 50
0.0
 51
90.0
  0
LINE
  8
ボルト／ビス
  6
CONTINUOUS
 62
    64
 10
-63.119687
 20
84.726477
 11
-63.119687
 21
84.726477
  0
LINE
  8
ボルト／ビス
  6
CONTINUOUS
 62
    64
 10
-63.869687
 20
83.976477
 11
-69.619712
 21
83.976477
  0
ARC
  8
ボルト／ビス
  6
CONTINUOUS
 62
    64
 10
-63.869698
 20
84.726558
 40
0.75
 50
-90.0
 51
0.0
  0
LINE
  8
ボルト／ビス
  6
CONTINUOUS
 62
    64
 10
-76.1197
 20
84.726477
 11
-76.1197
 21
84.726477
  0
LINE
  8
ボルト／ビス
  6
CONTINUOUS
 62
    64
 10
-69.619712
 20
85.476477
 11
-75.119687
 21
85.476477
  0
LINE
  8
ボルト／ビス
  6
CONTINUOUS
 62
    64
 10
-69.619712
 20
83.976477
 11
-75.119687
 21
83.976477
  0
LINE
  8
ボルト／ビス
  6
CONTINUOUS
 62
    64
 10
-75.119687
 20
85.476477
 11
-75.119687
 21
83.976477
  0
ENDBLK
  0
BLOCK
  2
*GRP_0010
 70
    65
 10
0.0
 20
0.0
  0
LINE
  8
ボルト／ビス
  6
CONTINUOUS
 62
    64
 10
-43.420082
 20
45.979047
 11
-42.371958
 21
45.887248
  0
ARC
  8
ボルト／ビス
  6
CONTINUOUS
 62
    64
 10
-42.520079
 20
44.193718
 40
1.7
 50
0.0
 51
85.000011
  0
LINE
  8
ボルト／ビス
  6
CONTINUOUS
 62
    64
 10
-40.820057
 20
44.193748
 11
-40.820057
 21
42.479023
  0
LINE
  8
ボルト／ビス
  6
CONTINUOUS
 62
    64
 10
-43.420082
 20
38.978997
 11
-42.371958
 21
39.070648
  0
ARC
  8
ボルト／ビス
  6
CONTINUOUS
 62
    64
 10
-42.520079
 20
40.764185
 40
1.7
 50
274.999989
 51
360.0
  0
LINE
  8
ボルト／ビス
  6
CONTINUOUS
 62
    64
 10
-40.820057
 20
40.764148
 11
-40.820057
 21
42.479023
  0
LINE
  8
ボルト／ビス
  6
CONTINUOUS
 62
    64
 10
-41.204957
 20
44.875648
 11
-40.962782
 21
44.875648
  0
LINE
  8
ボルト／ビス
  6
CONTINUOUS
 62
    64
 10
-41.855058
 20
43.178997
 11
-41.855058
 21
42.479023
  0
LINE
  8
ボルト／ビス
  6
CONTINUOUS
 62
    64
 10
-41.204957
 20
43.579047
 11
-41.204957
 21
44.875648
  0
LINE
  8
ボルト／ビス
  6
CONTINUOUS
 62
    64
 10
-41.855058
 20
43.178997
 11
-41.604932
 21
43.178997
  0
ARC
  8
ボルト／ビス
  6
CONTINUOUS
 62
    64
 10
-41.604984
 20
43.578952
 40
0.4
 50
270.0
 51
360.0
  0
LINE
  8
ボルト／ビス
  6
CONTINUOUS
 62
    64
 10
-41.204957
 20
40.082248
 11
-40.962782
 21
40.082248
  0
LINE
  8
ボルト／ビス
  6
CONTINUOUS
 62
    64
 10
-41.855058
 20
41.779047
 11
-41.855058
 21
42.479023
  0
LINE
  8
ボルト／ビス
  6
CONTINUOUS
 62
    64
 10
-41.204957
 20
41.378997
 11
-41.204957
 21
40.082248
  0
LINE
  8
ボルト／ビス
  6
CONTINUOUS
 62
    64
 10
-41.855058
 20
41.779047
 11
-41.604932
 21
41.779047
  0
ARC
  8
ボルト／ビス
  6
CONTINUOUS
 62
    64
 10
-41.604984
 20
41.378952
 40
0.4
 50
0.0
 51
90.0
  0
LINE
  8
ボルト／ビス
  6
CONTINUOUS
 62
    64
 10
-43.420082
 20
45.979047
 11
-43.420082
 21
38.978997
  0
LINE
  8
ボルト／ビス
  6
CONTINUOUS
 62
    64
 10
-54.920057
 20
44.479047
 11
-55.420082
 21
43.979023
  0
LINE
  8
ボルト／ビス
  6
CONTINUOUS
 62
    64
 10
-54.920057
 20
40.478997
 11
-55.420082
 21
40.979023
  0
LINE
  8
ボルト／ビス
  6
CONTINUOUS
 62
    64
 10
-54.920057
 20
44.479047
 11
-54.920057
 21
40.478997
  0
LINE
  8
ボルト／ビス
  6
CONTINUOUS
 62
    64
 10
-55.420082
 20
43.979023
 11
-55.420082
 21
40.979023
  0
LINE
  8
ボルト／ビス
  6
CONTINUOUS
 62
    64
 10
-43.420082
 20
43.979023
 11
-55.420082
 21
43.979023
  0
LINE
  8
ボルト／ビス
  6
CONTINUOUS
 62
    64
 10
-43.420082
 20
40.979023
 11
-55.420082
 21
40.979023
  0
LINE
  8
ボルト／ビス
  6
CONTINUOUS
 62
    64
 10
-43.420082
 20
40.478997
 11
-54.920057
 21
40.478997
  0
LINE
  8
ボルト／ビス
  6
CONTINUOUS
 62
    64
 10
-43.420082
 20
44.479047
 11
-54.920057
 21
44.479047
  0
LINE
  8
ボルト／ビス
  6
DASHDOT
 62
    64
 10
-37.820057
 20
42.479023
 11
-58.420082
 21
42.479023
  0
ENDBLK
  0
BLOCK
  2
*GRP_0011
 70
    65
 10
0.0
 20
0.0
  0
LINE
  8
ボルト／ビス
  6
CONTINUOUS
 62
    64
 10
-43.420082
 20
25.979045
 11
-42.371958
 21
25.887245
  0
ARC
  8
ボルト／ビス
  6
CONTINUOUS
 62
    64
 10
-42.520079
 20
24.193716
 40
1.7
 50
0.0
 51
85.000011
  0
LINE
  8
ボルト／ビス
  6
CONTINUOUS
 62
    64
 10
-40.820057
 20
24.193745
 11
-40.820057
 21
22.47902
  0
LINE
  8
ボルト／ビス
  6
CONTINUOUS
 62
    64
 10
-43.420082
 20
18.978995
 11
-42.371958
 21
19.070645
  0
ARC
  8
ボルト／ビス
  6
CONTINUOUS
 62
    64
 10
-42.520079
 20
20.764183
 40
1.7
 50
274.999989
 51
360.0
  0
LINE
  8
ボルト／ビス
  6
CONTINUOUS
 62
    64
 10
-40.820057
 20
20.764145
 11
-40.820057
 21
22.47902
  0
LINE
  8
ボルト／ビス
  6
CONTINUOUS
 62
    64
 10
-41.204957
 20
24.875645
 11
-40.962782
 21
24.875645
  0
LINE
  8
ボルト／ビス
  6
CONTINUOUS
 62
    64
 10
-41.855058
 20
23.178995
 11
-41.855058
 21
22.47902
  0
LINE
  8
ボルト／ビス
  6
CONTINUOUS
 62
    64
 10
-41.204957
 20
23.579045
 11
-41.204957
 21
24.875645
  0
LINE
  8
ボルト／ビス
  6
CONTINUOUS
 62
    64
 10
-41.855058
 20
23.178995
 11
-41.604932
 21
23.178995
  0
ARC
  8
ボルト／ビス
  6
CONTINUOUS
 62
    64
 10
-41.604984
 20
23.578949
 40
0.4
 50
270.0
 51
360.0
  0
LINE
  8
ボルト／ビス
  6
CONTINUOUS
 62
    64
 10
-41.204957
 20
20.082245
 11
-40.962782
 21
20.082245
  0
LINE
  8
ボルト／ビス
  6
CONTINUOUS
 62
    64
 10
-41.855058
 20
21.779045
 11
-41.855058
 21
22.47902
  0
LINE
  8
ボルト／ビス
  6
CONTINUOUS
 62
    64
 10
-41.204957
 20
21.378995
 11
-41.204957
 21
20.082245
  0
LINE
  8
ボルト／ビス
  6
CONTINUOUS
 62
    64
 10
-41.855058
 20
21.779045
 11
-41.604932
 21
21.779045
  0
ARC
  8
ボルト／ビス
  6
CONTINUOUS
 62
    64
 10
-41.604984
 20
21.378949
 40
0.4
 50
0.0
 51
90.0
  0
LINE
  8
ボルト／ビス
  6
CONTINUOUS
 62
    64
 10
-43.420082
 20
25.979045
 11
-43.420082
 21
18.978995
  0
LINE
  8
ボルト／ビス
  6
CONTINUOUS
 62
    64
 10
-54.920057
 20
24.479045
 11
-55.420082
 21
23.97902
  0
LINE
  8
ボルト／ビス
  6
CONTINUOUS
 62
    64
 10
-54.920057
 20
20.478995
 11
-55.420082
 21
20.97902
  0
LINE
  8
ボルト／ビス
  6
CONTINUOUS
 62
    64
 10
-54.920057
 20
24.479045
 11
-54.920057
 21
20.478995
  0
LINE
  8
ボルト／ビス
  6
CONTINUOUS
 62
    64
 10
-55.420082
 20
23.97902
 11
-55.420082
 21
20.97902
  0
LINE
  8
ボルト／ビス
  6
CONTINUOUS
 62
    64
 10
-43.420082
 20
23.97902
 11
-55.420082
 21
23.97902
  0
LINE
  8
ボルト／ビス
  6
CONTINUOUS
 62
    64
 10
-43.420082
 20
20.97902
 11
-55.420082
 21
20.97902
  0
LINE
  8
ボルト／ビス
  6
CONTINUOUS
 62
    64
 10
-43.420082
 20
20.478995
 11
-54.920057
 21
20.478995
  0
LINE
  8
ボルト／ビス
  6
CONTINUOUS
 62
    64
 10
-43.420082
 20
24.479045
 11
-54.920057
 21
24.479045
  0
LINE
  8
ボルト／ビス
  6
DASHDOT
 62
    64
 10
-37.820057
 20
22.47902
 11
-58.420082
 21
22.47902
  0
ENDBLK
  0
BLOCK
  2
*GRP_0012
 70
    65
 10
0.0
 20
0.0
  0
LINE
  8
ボルト／ビス
  6
CONTINUOUS
 62
    64
 10
-43.420082
 20
-23.019835
 11
-42.371958
 21
-23.111635
  0
ARC
  8
ボルト／ビス
  6
CONTINUOUS
 62
    64
 10
-42.520079
 20
-24.805164
 40
1.7
 50
0.0
 51
85.000011
  0
LINE
  8
ボルト／ビス
  6
CONTINUOUS
 62
    64
 10
-40.820057
 20
-24.805135
 11
-40.820057
 21
-26.51986
  0
LINE
  8
ボルト／ビス
  6
CONTINUOUS
 62
    64
 10
-43.420082
 20
-30.019885
 11
-42.371958
 21
-29.928235
  0
ARC
  8
ボルト／ビス
  6
CONTINUOUS
 62
    64
 10
-42.520079
 20
-28.234697
 40
1.7
 50
274.999989
 51
360.0
  0
LINE
  8
ボルト／ビス
  6
CONTINUOUS
 62
    64
 10
-40.820057
 20
-28.234735
 11
-40.820057
 21
-26.51986
  0
LINE
  8
ボルト／ビス
  6
CONTINUOUS
 62
    64
 10
-41.204957
 20
-24.123235
 11
-40.962782
 21
-24.123235
  0
LINE
  8
ボルト／ビス
  6
CONTINUOUS
 62
    64
 10
-41.855058
 20
-25.819885
 11
-41.855058
 21
-26.51986
  0
LINE
  8
ボルト／ビス
  6
CONTINUOUS
 62
    64
 10
-41.204957
 20
-25.419835
 11
-41.204957
 21
-24.123235
  0
LINE
  8
ボルト／ビス
  6
CONTINUOUS
 62
    64
 10
-41.855058
 20
-25.819885
 11
-41.604932
 21
-25.819885
  0
ARC
  8
ボルト／ビス
  6
CONTINUOUS
 62
    64
 10
-41.604984
 20
-25.419931
 40
0.4
 50
270.0
 51
360.0
  0
LINE
  8
ボルト／ビス
  6
CONTINUOUS
 62
    64
 10
-41.204957
 20
-28.916635
 11
-40.962782
 21
-28.916635
  0
LINE
  8
ボルト／ビス
  6
CONTINUOUS
 62
    64
 10
-41.855058
 20
-27.219835
 11
-41.855058
 21
-26.51986
  0
LINE
  8
ボルト／ビス
  6
CONTINUOUS
 62
    64
 10
-41.204957
 20
-27.619885
 11
-41.204957
 21
-28.916635
  0
LINE
  8
ボルト／ビス
  6
CONTINUOUS
 62
    64
 10
-41.855058
 20
-27.219835
 11
-41.604932
 21
-27.219835
  0
ARC
  8
ボルト／ビス
  6
CONTINUOUS
 62
    64
 10
-41.604984
 20
-27.619931
 40
0.4
 50
0.0
 51
90.0
  0
LINE
  8
ボルト／ビス
  6
CONTINUOUS
 62
    64
 10
-43.420082
 20
-23.019835
 11
-43.420082
 21
-30.019885
  0
LINE
  8
ボルト／ビス
  6
CONTINUOUS
 62
    64
 10
-54.920057
 20
-24.519835
 11
-55.420082
 21
-25.01986
  0
LINE
  8
ボルト／ビス
  6
CONTINUOUS
 62
    64
 10
-54.920057
 20
-28.519885
 11
-55.420082
 21
-28.01986
  0
LINE
  8
ボルト／ビス
  6
CONTINUOUS
 62
    64
 10
-54.920057
 20
-24.519835
 11
-54.920057
 21
-28.519885
  0
LINE
  8
ボルト／ビス
  6
CONTINUOUS
 62
    64
 10
-55.420082
 20
-25.01986
 11
-55.420082
 21
-28.01986
  0
LINE
  8
ボルト／ビス
  6
CONTINUOUS
 62
    64
 10
-43.420082
 20
-25.01986
 11
-55.420082
 21
-25.01986
  0
LINE
  8
ボルト／ビス
  6
CONTINUOUS
 62
    64
 10
-43.420082
 20
-28.01986
 11
-55.420082
 21
-28.01986
  0
LINE
  8
ボルト／ビス
  6
CONTINUOUS
 62
    64
 10
-43.420082
 20
-28.519885
 11
-54.920057
 21
-28.519885
  0
LINE
  8
ボルト／ビス
  6
CONTINUOUS
 62
    64
 10
-43.420082
 20
-24.519835
 11
-54.920057
 21
-24.519835
  0
LINE
  8
ボルト／ビス
  6
DASHDOT
 62
    64
 10
-37.820057
 20
-26.51986
 11
-58.420082
 21
-26.51986
  0
ENDBLK
  0
BLOCK
  2
*GRP_0013
 70
    65
 10
0.0
 20
0.0
  0
LINE
  8
ボルト／ビス
  6
CONTINUOUS
 62
    64
 10
-43.420082
 20
-43.019837
 11
-42.371958
 21
-43.111637
  0
ARC
  8
ボルト／ビス
  6
CONTINUOUS
 62
    64
 10
-42.520079
 20
-44.805167
 40
1.7
 50
0.0
 51
85.000011
  0
LINE
  8
ボルト／ビス
  6
CONTINUOUS
 62
    64
 10
-40.820057
 20
-44.805138
 11
-40.820057
 21
-46.519863
  0
LINE
  8
ボルト／ビス
  6
CONTINUOUS
 62
    64
 10
-43.420082
 20
-50.019888
 11
-42.371958
 21
-49.928237
  0
ARC
  8
ボルト／ビス
  6
CONTINUOUS
 62
    64
 10
-42.520079
 20
-48.2347
 40
1.7
 50
274.999989
 51
360.0
  0
LINE
  8
ボルト／ビス
  6
CONTINUOUS
 62
    64
 10
-40.820057
 20
-48.234738
 11
-40.820057
 21
-46.519863
  0
LINE
  8
ボルト／ビス
  6
CONTINUOUS
 62
    64
 10
-41.204957
 20
-44.123237
 11
-40.962782
 21
-44.123237
  0
LINE
  8
ボルト／ビス
  6
CONTINUOUS
 62
    64
 10
-41.855058
 20
-45.819888
 11
-41.855058
 21
-46.519863
  0
LINE
  8
ボルト／ビス
  6
CONTINUOUS
 62
    64
 10
-41.204957
 20
-45.419837
 11
-41.204957
 21
-44.123237
  0
LINE
  8
ボルト／ビス
  6
CONTINUOUS
 62
    64
 10
-41.855058
 20
-45.819888
 11
-41.604932
 21
-45.819888
  0
ARC
  8
ボルト／ビス
  6
CONTINUOUS
 62
    64
 10
-41.604984
 20
-45.419933
 40
0.4
 50
270.0
 51
360.0
  0
LINE
  8
ボルト／ビス
  6
CONTINUOUS
 62
    64
 10
-41.204957
 20
-48.916637
 11
-40.962782
 21
-48.916637
  0
LINE
  8
ボルト／ビス
  6
CONTINUOUS
 62
    64
 10
-41.855058
 20
-47.219837
 11
-41.855058
 21
-46.519863
  0
LINE
  8
ボルト／ビス
  6
CONTINUOUS
 62
    64
 10
-41.204957
 20
-47.619888
 11
-41.204957
 21
-48.916637
  0
LINE
  8
ボルト／ビス
  6
CONTINUOUS
 62
    64
 10
-41.855058
 20
-47.219837
 11
-41.604932
 21
-47.219837
  0
ARC
  8
ボルト／ビス
  6
CONTINUOUS
 62
    64
 10
-41.604984
 20
-47.619933
 40
0.4
 50
0.0
 51
90.0
  0
LINE
  8
ボルト／ビス
  6
CONTINUOUS
 62
    64
 10
-43.420082
 20
-43.019837
 11
-43.420082
 21
-50.019888
  0
LINE
  8
ボルト／ビス
  6
CONTINUOUS
 62
    64
 10
-54.920057
 20
-44.519837
 11
-55.420082
 21
-45.019863
  0
LINE
  8
ボルト／ビス
  6
CONTINUOUS
 62
    64
 10
-54.920057
 20
-48.519888
 11
-55.420082
 21
-48.019863
  0
LINE
  8
ボルト／ビス
  6
CONTINUOUS
 62
    64
 10
-54.920057
 20
-44.519837
 11
-54.920057
 21
-48.519888
  0
LINE
  8
ボルト／ビス
  6
CONTINUOUS
 62
    64
 10
-55.420082
 20
-45.019863
 11
-55.420082
 21
-48.019863
  0
LINE
  8
ボルト／ビス
  6
CONTINUOUS
 62
    64
 10
-43.420082
 20
-45.019863
 11
-55.420082
 21
-45.019863
  0
LINE
  8
ボルト／ビス
  6
CONTINUOUS
 62
    64
 10
-43.420082
 20
-48.019863
 11
-55.420082
 21
-48.019863
  0
LINE
  8
ボルト／ビス
  6
CONTINUOUS
 62
    64
 10
-43.420082
 20
-48.519888
 11
-54.920057
 21
-48.519888
  0
LINE
  8
ボルト／ビス
  6
CONTINUOUS
 62
    64
 10
-43.420082
 20
-44.519837
 11
-54.920057
 21
-44.519837
  0
LINE
  8
ボルト／ビス
  6
DASHDOT
 62
    64
 10
-37.820057
 20
-46.519863
 11
-58.420082
 21
-46.519863
  0
ENDBLK
  0
BLOCK
  2
*GRP_0014
 70
    65
 10
0.0
 20
0.0
  0
LINE
  8
ボルト／ビス
  6
CONTINUOUS
 62
    64
 10
-77.820085
 20
74.976575
 11
-77.820085
 21
78.976572
  0
LINE
  8
ボルト／ビス
  6
CONTINUOUS
 62
    64
 10
-70.120082
 20
74.976575
 11
-69.620088
 21
75.47657
  0
LINE
  8
ボルト／ビス
  6
CONTINUOUS
 62
    64
 10
-70.120082
 20
78.976572
 11
-69.620088
 21
78.47657
  0
LINE
  8
ボルト／ビス
  6
CONTINUOUS
 62
    64
 10
-69.620088
 20
75.47657
 11
-69.620088
 21
78.47657
  0
LINE
  8
ボルト／ビス
  6
CONTINUOUS
 62
    64
 10
-70.120082
 20
74.976575
 11
-70.120082
 21
78.976572
  0
LINE
  8
ボルト／ビス
  6
CONTINUOUS
 62
    64
 10
-77.820085
 20
78.47657
 11
-69.620088
 21
78.47657
  0
LINE
  8
ボルト／ビス
  6
CONTINUOUS
 62
    64
 10
-77.820085
 20
75.47657
 11
-69.620088
 21
75.47657
  0
LINE
  8
ボルト／ビス
  6
CONTINUOUS
 62
    64
 10
-77.820085
 20
74.976575
 11
-70.120082
 21
74.976575
  0
LINE
  8
ボルト／ビス
  6
CONTINUOUS
 62
    64
 10
-77.820085
 20
78.976572
 11
-70.120082
 21
78.976572
  0
LINE
  8
ボルト／ビス
  6
DASHDOT
 62
    64
 10
-82.620085
 20
76.97657
 11
-66.620088
 21
76.97657
  0
LINE
  8
ボルト／ビス
  6
DOT
 62
    64
 10
-79.620085
 20
73.97657
 11
-77.820085
 21
74.976575
  0
LINE
  8
ボルト／ビス
  6
DOT
 62
    64
 10
-79.620085
 20
73.97657
 11
-79.620085
 21
79.97657
  0
LINE
  8
ボルト／ビス
  6
DOT
 62
    64
 10
-79.620085
 20
79.97657
 11
-77.820085
 21
78.976572
  0
ENDBLK
  0
BLOCK
  2
*GRP_0015
 70
    65
 10
0.0
 20
0.0
  0
LINE
  8
ボルト／ビス
  6
CONTINUOUS
 62
    64
 10
-67.620085
 20
7.77902
 11
-71.62009
 21
7.77902
  0
LINE
  8
ボルト／ビス
  6
CONTINUOUS
 62
    64
 10
-67.620085
 20
15.479023
 11
-68.120088
 21
15.979018
  0
LINE
  8
ボルト／ビス
  6
CONTINUOUS
 62
    64
 10
-71.62009
 20
15.479023
 11
-71.120088
 21
15.979018
  0
LINE
  8
ボルト／ビス
  6
CONTINUOUS
 62
    64
 10
-68.120088
 20
15.979018
 11
-71.120088
 21
15.979018
  0
LINE
  8
ボルト／ビス
  6
CONTINUOUS
 62
    64
 10
-67.620085
 20
15.479023
 11
-71.62009
 21
15.479023
  0
LINE
  8
ボルト／ビス
  6
CONTINUOUS
 62
    64
 10
-71.120088
 20
7.77902
 11
-71.120088
 21
15.979018
  0
LINE
  8
ボルト／ビス
  6
CONTINUOUS
 62
    64
 10
-68.120088
 20
7.77902
 11
-68.120088
 21
15.979018
  0
LINE
  8
ボルト／ビス
  6
CONTINUOUS
 62
    64
 10
-67.620085
 20
7.77902
 11
-67.620085
 21
15.479023
  0
LINE
  8
ボルト／ビス
  6
CONTINUOUS
 62
    64
 10
-71.62009
 20
7.77902
 11
-71.62009
 21
15.479023
  0
LINE
  8
ボルト／ビス
  6
DASHDOT
 62
    64
 10
-69.620088
 20
2.97902
 11
-69.620088
 21
18.979018
  0
LINE
  8
ボルト／ビス
  6
DOT
 62
    64
 10
-66.620088
 20
5.97902
 11
-67.620085
 21
7.77902
  0
LINE
  8
ボルト／ビス
  6
DOT
 62
    64
 10
-66.620088
 20
5.97902
 11
-72.620088
 21
5.97902
  0
LINE
  8
ボルト／ビス
  6
DOT
 62
    64
 10
-72.620088
 20
5.97902
 11
-71.62009
 21
7.77902
  0
ENDBLK
  0
BLOCK
  2
*GRP_0016
 70
    65
 10
0.0
 20
0.0
  0
LINE
  8
ボルト／ビス
  6
CONTINUOUS
 62
    64
 10
-67.620085
 20
-70.219863
 11
-71.62009
 21
-70.219863
  0
LINE
  8
ボルト／ビス
  6
CONTINUOUS
 62
    64
 10
-67.620085
 20
-62.51986
 11
-68.120088
 21
-62.019865
  0
LINE
  8
ボルト／ビス
  6
CONTINUOUS
 62
    64
 10
-71.62009
 20
-62.51986
 11
-71.120088
 21
-62.019865
  0
LINE
  8
ボルト／ビス
  6
CONTINUOUS
 62
    64
 10
-68.120088
 20
-62.019865
 11
-71.120088
 21
-62.019865
  0
LINE
  8
ボルト／ビス
  6
CONTINUOUS
 62
    64
 10
-67.620085
 20
-62.51986
 11
-71.62009
 21
-62.51986
  0
LINE
  8
ボルト／ビス
  6
CONTINUOUS
 62
    64
 10
-71.120088
 20
-70.219863
 11
-71.120088
 21
-62.019865
  0
LINE
  8
ボルト／ビス
  6
CONTINUOUS
 62
    64
 10
-68.120088
 20
-70.219863
 11
-68.120088
 21
-62.019865
  0
LINE
  8
ボルト／ビス
  6
CONTINUOUS
 62
    64
 10
-67.620085
 20
-70.219863
 11
-67.620085
 21
-62.51986
  0
LINE
  8
ボルト／ビス
  6
CONTINUOUS
 62
    64
 10
-71.62009
 20
-70.219863
 11
-71.62009
 21
-62.51986
  0
LINE
  8
ボルト／ビス
  6
DASHDOT
 62
    64
 10
-69.620088
 20
-75.019863
 11
-69.620088
 21
-59.019865
  0
LINE
  8
ボルト／ビス
  6
DOT
 62
    64
 10
-66.620088
 20
-72.019863
 11
-67.620085
 21
-70.219863
  0
LINE
  8
ボルト／ビス
  6
DOT
 62
    64
 10
-66.620088
 20
-72.019863
 11
-72.620088
 21
-72.019863
  0
LINE
  8
ボルト／ビス
  6
DOT
 62
    64
 10
-72.620088
 20
-72.019863
 11
-71.62009
 21
-70.219863
  0
ENDBLK
  0
BLOCK
  2
*GRP_0017
 70
    65
 10
0.0
 20
0.0
  0
LINE
  8
ボルト／ビス
  6
CONTINUOUS
 62
    64
 10
-77.820085
 20
74.976575
 11
-77.820085
 21
78.976572
  0
LINE
  8
ボルト／ビス
  6
CONTINUOUS
 62
    64
 10
-70.120082
 20
74.976575
 11
-69.620088
 21
75.47657
  0
LINE
  8
ボルト／ビス
  6
CONTINUOUS
 62
    64
 10
-70.120082
 20
78.976572
 11
-69.620088
 21
78.47657
  0
LINE
  8
ボルト／ビス
  6
CONTINUOUS
 62
    64
 10
-69.620088
 20
75.47657
 11
-69.620088
 21
78.47657
  0
LINE
  8
ボルト／ビス
  6
CONTINUOUS
 62
    64
 10
-70.120082
 20
74.976575
 11
-70.120082
 21
78.976572
  0
LINE
  8
ボルト／ビス
  6
CONTINUOUS
 62
    64
 10
-77.820085
 20
78.47657
 11
-69.620088
 21
78.47657
  0
LINE
  8
ボルト／ビス
  6
CONTINUOUS
 62
    64
 10
-77.820085
 20
75.47657
 11
-69.620088
 21
75.47657
  0
LINE
  8
ボルト／ビス
  6
CONTINUOUS
 62
    64
 10
-77.820085
 20
74.976575
 11
-70.120082
 21
74.976575
  0
LINE
  8
ボルト／ビス
  6
CONTINUOUS
 62
    64
 10
-77.820085
 20
78.976572
 11
-70.120082
 21
78.976572
  0
LINE
  8
ボルト／ビス
  6
DASHDOT
 62
    64
 10
-82.620085
 20
76.97657
 11
-66.620088
 21
76.97657
  0
LINE
  8
ボルト／ビス
  6
DOT
 62
    64
 10
-79.620085
 20
73.97657
 11
-77.820085
 21
74.976575
  0
LINE
  8
ボルト／ビス
  6
DOT
 62
    64
 10
-79.620085
 20
73.97657
 11
-79.620085
 21
79.97657
  0
LINE
  8
ボルト／ビス
  6
DOT
 62
    64
 10
-79.620085
 20
79.97657
 11
-77.820085
 21
78.976572
  0
ENDBLK
  0
BLOCK
  2
*GRP_0018
 70
    65
 10
0.0
 20
0.0
  0
LINE
  8
ボルト／ビス
  6
CONTINUOUS
 62
    64
 10
-77.820085
 20
-12.020972
 11
-77.820085
 21
-8.020975
  0
LINE
  8
ボルト／ビス
  6
CONTINUOUS
 62
    64
 10
-70.120082
 20
-12.020972
 11
-69.620088
 21
-11.520978
  0
LINE
  8
ボルト／ビス
  6
CONTINUOUS
 62
    64
 10
-70.120082
 20
-8.020975
 11
-69.620088
 21
-8.520978
  0
LINE
  8
ボルト／ビス
  6
CONTINUOUS
 62
    64
 10
-69.620088
 20
-11.520978
 11
-69.620088
 21
-8.520978
  0
LINE
  8
ボルト／ビス
  6
CONTINUOUS
 62
    64
 10
-70.120082
 20
-12.020972
 11
-70.120082
 21
-8.020975
  0
LINE
  8
ボルト／ビス
  6
CONTINUOUS
 62
    64
 10
-77.820085
 20
-8.520978
 11
-69.620088
 21
-8.520978
  0
LINE
  8
ボルト／ビス
  6
CONTINUOUS
 62
    64
 10
-77.820085
 20
-11.520978
 11
-69.620088
 21
-11.520978
  0
LINE
  8
ボルト／ビス
  6
CONTINUOUS
 62
    64
 10
-77.820085
 20
-12.020972
 11
-70.120082
 21
-12.020972
  0
LINE
  8
ボルト／ビス
  6
CONTINUOUS
 62
    64
 10
-77.820085
 20
-8.020975
 11
-70.120082
 21
-8.020975
  0
LINE
  8
ボルト／ビス
  6
DASHDOT
 62
    64
 10
-82.620085
 20
-10.020978
 11
-66.620088
 21
-10.020978
  0
LINE
  8
ボルト／ビス
  6
DOT
 62
    64
 10
-79.620085
 20
-13.020978
 11
-77.820085
 21
-12.020972
  0
LINE
  8
ボルト／ビス
  6
DOT
 62
    64
 10
-79.620085
 20
-13.020978
 11
-79.620085
 21
-7.020978
  0
LINE
  8
ボルト／ビス
  6
DOT
 62
    64
 10
-79.620085
 20
-7.020978
 11
-77.820085
 21
-8.020975
  0
ENDBLK
  0
BLOCK
  2
*GRP_0019
 70
    65
 10
0.0
 20
0.0
  0
LINE
  8
ボルト／ビス
  6
CONTINUOUS
 10
-80.6197
 20
91.476568
 11
-80.6197
 21
93.476592
  0
LINE
  8
ボルト／ビス
  6
CONTINUOUS
 10
-80.6197
 20
93.476592
 11
-58.619687
 21
93.476592
  0
LINE
  8
ボルト／ビス
  6
CONTINUOUS
 10
-58.619687
 20
93.476592
 11
-58.619687
 21
91.476568
  0
LINE
  8
ボルト／ビス
  6
CONTINUOUS
 10
-80.6197
 20
91.476568
 11
-58.619687
 21
91.476568
  0
LINE
  8
ボルト／ビス
  6
CONTINUOUS
 10
-78.619712
 20
94.476568
 11
-78.619712
 21
93.476592
  0
LINE
  8
ボルト／ビス
  6
CONTINUOUS
 10
-78.619712
 20
94.476568
 11
-60.619712
 21
94.476568
  0
LINE
  8
ボルト／ビス
  6
CONTINUOUS
 10
-60.619712
 20
94.476568
 11
-60.619712
 21
93.476592
  0
LINE
  8
ボルト／ビス
  6
CONTINUOUS
 62
    64
 10
-74.430962
 20
100.476568
 11
-75.393213
 21
100.126362
  0
ARC
  8
ボルト／ビス
  6
CONTINUOUS
 62
    64
 10
-73.949827
 20
97.327327
 40
3.149352
 50
62.721967
 51
90.0
  0
ARC
  8
ボルト／ビス
  6
CONTINUOUS
 62
    64
 10
-69.619699
 20
88.404612
 40
12.072067
 50
76.165002
 51
103.834985
  0
LINE
  8
ボルト／ビス
  6
CONTINUOUS
 62
    64
 10
-64.808463
 20
100.476568
 11
-63.846213
 21
100.126362
  0
ARC
  8
ボルト／ビス
  6
CONTINUOUS
 62
    64
 10
-65.289572
 20
97.327327
 40
3.149352
 50
90.0
 51
117.278033
  0
LINE
  8
ボルト／ビス
  6
CONTINUOUS
 62
    64
 10
-74.430962
 20
100.476568
 11
-64.808463
 21
100.476568
  0
LINE
  8
ボルト／ビス
  6
CONTINUOUS
 62
    64
 10
-63.846213
 20
100.126362
 11
-63.846213
 21
96.476592
  0
LINE
  8
ボルト／ビス
  6
CONTINUOUS
 62
    64
 10
-66.732963
 20
100.126362
 11
-66.732963
 21
96.476592
  0
LINE
  8
ボルト／ビス
  6
CONTINUOUS
 62
    64
 10
-75.393213
 20
100.126362
 11
-75.393213
 21
96.476592
  0
LINE
  8
ボルト／ビス
  6
CONTINUOUS
 62
    64
 10
-72.506462
 20
100.126362
 11
-72.506462
 21
96.476592
  0
LINE
  8
ボルト／ビス
  6
CONTINUOUS
 10
-75.393213
 20
96.476592
 11
-63.846213
 21
96.476592
  0
LINE
  8
ボルト／ビス
  6
CONTINUOUS
 10
-75.619712
 20
96.476592
 11
-75.619712
 21
94.476568
  0
LINE
  8
ボルト／ビス
  6
CONTINUOUS
 10
-75.619712
 20
96.476592
 11
-63.619712
 21
96.476592
  0
LINE
  8
ボルト／ビス
  6
CONTINUOUS
 10
-63.619712
 20
96.476592
 11
-63.619712
 21
94.476568
  0
LINE
  8
ボルト／ビス
  6
CONTINUOUS
 62
    64
 10
-67.319687
 20
91.476568
 11
-67.319687
 21
71.476618
  0
LINE
  8
ボルト／ビス
  6
CONTINUOUS
 62
    64
 10
-71.9197
 20
91.476568
 11
-71.9197
 21
71.476618
  0
LINE
  8
ボルト／ビス
  6
CONTINUOUS
 62
    64
 10
-71.9197
 20
71.476618
 11
-67.319687
 21
71.476618
  0
LINE
  8
ボルト／ビス
  6
CONTINUOUS
 62
    64
 10
-66.619712
 20
72.476592
 11
-67.319687
 21
71.476618
  0
LINE
  8
ボルト／ビス
  6
CONTINUOUS
 62
    64
 10
-72.619712
 20
72.476592
 11
-71.9197
 21
71.476618
  0
LINE
  8
ボルト／ビス
  6
CONTINUOUS
 62
    64
 10
-72.619712
 20
72.476592
 11
-66.619712
 21
72.476592
  0
LINE
  8
ボルト／ビス
  6
CONTINUOUS
 62
    64
 10
-71.9197
 20
71.476618
 11
-67.319687
 21
71.476618
  0
LINE
  8
ボルト／ビス
  6
CONTINUOUS
 62
    64
 10
-72.619712
 20
91.476568
 11
-72.619712
 21
72.476592
  0
LINE
  8
ボルト／ビス
  6
CONTINUOUS
 62
    64
 10
-66.619712
 20
91.476568
 11
-66.619712
 21
72.476592
  0
ENDBLK
  0
BLOCK
  2
*DIM_0020
 70
    65
 10
0.0
 20
0.0
  0
LINE
  8
寸法
  6
CONTINUOUS
 10
-99.619765
 20
93.980137
 11
-99.619765
 21
126.090603
  0
LINE
  8
寸法
  6
CONTINUOUS
 10
-49.61974
 20
126.090603
 11
-99.619765
 21
126.090603
  0
POINT
  8
寸法
 10
-49.61974
 20
126.090603
  0
POINT
  8
寸法
 10
-99.619765
 20
126.090603
  0
TEXT
  7
TextStyle03
  8
寸法
  6
CONTINUOUS
 10
-76.21875
 20
126.45
  1
50
 40
3.0
 72
     5
 11
-73.03125
 21
126.45
  0
ENDBLK
  0
BLOCK
  2
*DIM_0021
 70
    65
 10
0.0
 20
0.0
  0
LINE
  8
寸法
  6
CONTINUOUS
 10
-99.619765
 20
93.980137
 11
-99.619765
 21
119.0135
  0
LINE
  8
寸法
  6
CONTINUOUS
 10
-69.619712
 20
96.980077
 11
-69.619712
 21
119.0135
  0
LINE
  8
寸法
  6
CONTINUOUS
 10
-99.619765
 20
119.0135
 11
-69.619712
 21
119.0135
  0
POINT
  8
寸法
 10
-99.619765
 20
119.0135
  0
POINT
  8
寸法
 10
-69.619712
 20
119.0135
  0
TEXT
  7
TextStyle03
  8
寸法
  6
CONTINUOUS
 10
-86.21875
 20
119.375
  1
30
 40
3.0
 72
     5
 11
-83.03125
 21
119.375
  0
ENDBLK
  0
BLOCK
  2
*GRP_0022
 70
    65
 10
0.0
 20
0.0
  0
POLYLINE
  8
寸法
  6
CONTINUOUS
 66
     1
  0
VERTEX
  8
寸法
 10
-79.245085
 20
-65.50136
  0
VERTEX
  8
寸法
 10
-86.12031
 20
-58.626135
  0
VERTEX
  8
寸法
 10
-90.838875
 20
-58.626135
  0
SEQEND
  0
ENDBLK
  0
BLOCK
  2
*GRP_0023
 70
    65
 10
0.0
 20
0.0
  0
POLYLINE
  8
寸法
  6
CONTINUOUS
 66
     1
  0
VERTEX
  8
寸法
 10
9.551885
 20
-3.831383
  0
VERTEX
  8
寸法
 10
23.227067
 20
-17.506563
  0
VERTEX
  8
寸法
 10
69.54623
 20
-17.506563
  0
SEQEND
  0
ENDBLK
  0
BLOCK
  2
*GRP_0024
 70
    65
 10
0.0
 20
0.0
  0
POLYLINE
  8
寸法
  6
CONTINUOUS
 66
     1
  0
VERTEX
  8
寸法
 10
-14.56349
 20
40.870288
  0
VERTEX
  8
寸法
 10
-7.016675
 20
33.323475
  0
VERTEX
  8
寸法
 10
71.799837
 20
33.323475
  0
SEQEND
  0
ENDBLK
  0
BLOCK
  2
*GRP_0025
 70
    65
 10
0.0
 20
0.0
  0
POLYLINE
  8
寸法
  6
BYBLOCK
 62
     0
 66
     1
  0
VERTEX
  8
寸法
 10
-78.327715
 20
-94.75718
  0
VERTEX
  8
寸法
 10
-81.670965
 20
-98.100428
  0
VERTEX
  8
寸法
 10
-92.202333
 20
-98.100428
  0
SEQEND
  0
ENDBLK
  0
BLOCK
  2
*DIM_0026
 70
    65
 10
0.0
 20
0.0
  0
LINE
  8
寸法
  6
CONTINUOUS
 10
-80.620085
 20
5.97902
 11
-144.45882
 21
5.97902
  0
LINE
  8
寸法
  6
CONTINUOUS
 10
-80.620085
 20
-0.02098
 11
-144.45882
 21
-0.02098
  0
LINE
  8
寸法
  6
CONTINUOUS
 10
-144.45882
 20
5.97902
 11
-144.45882
 21
-0.02098
  0
POINT
  8
寸法
 10
-144.45882
 20
-0.02098
  0
TEXT
  7
TextStyle03
  8
寸法
  6
CONTINUOUS
 10
-144.85
 20
2.225
  1
6
 40
3.0
 50
90.0
 72
     5
 11
-144.85
 21
3.725
  0
ENDBLK
  0
BLOCK
  2
*DIM_0027
 70
    65
 10
0.0
 20
0.0
  0
LINE
  8
寸法
  6
CONTINUOUS
 10
-80.620085
 20
-0.02098
 11
-144.45882
 21
-0.02098
  0
LINE
  8
寸法
  6
CONTINUOUS
 10
-81.620085
 20
-72.019863
 11
-144.45882
 21
-72.019863
  0
LINE
  8
寸法
  6
CONTINUOUS
 10
-144.45882
 20
-0.02098
 11
-144.45882
 21
-72.019863
  0
POINT
  8
寸法
 10
-144.45882
 20
-72.019863
  0
TEXT
  7
TextStyle03
  8
寸法
  6
CONTINUOUS
 10
-144.85
 20
-37.61875
  1
72
 40
3.0
 50
90.0
 72
     5
 11
-144.85
 21
-34.43125
  0
ENDBLK
  0
BLOCK
  2
*DIM_0028
 70
    65
 10
0.0
 20
0.0
  0
LINE
  8
寸法
  6
CONTINUOUS
 10
-80.620085
 20
-72.019863
 11
-152.116173
 21
-72.019863
  0
LINE
  8
寸法
  6
CONTINUOUS
 10
-100.619765
 20
91.476568
 11
-152.116173
 21
91.476568
  0
LINE
  8
寸法
  6
CONTINUOUS
 10
-152.116173
 20
-72.019863
 11
-152.116173
 21
91.476568
  0
POINT
  8
寸法
 10
-152.116173
 20
-72.019863
  0
POINT
  8
寸法
 10
-152.116173
 20
91.476568
  0
TEXT
  7
TextStyle03
  8
寸法
  6
CONTINUOUS
 10
-152.5
 20
5.6
  1
163.5
 40
3.0
 50
90.0
 72
     5
 11
-152.5
 21
13.85
  0
ENDBLK
  0
BLOCK
  2
*DIM_0029
 70
    65
 10
0.0
 20
0.0
  0
LINE
  8
寸法
  6
CONTINUOUS
 10
-100.619765
 20
91.476568
 11
-152.116173
 21
91.476568
  0
LINE
  8
寸法
  6
CONTINUOUS
 10
-59.12009
 20
106.279055
 11
-152.116173
 21
106.279055
  0
LINE
  8
寸法
  6
CONTINUOUS
 10
-152.116173
 20
91.476568
 11
-152.116173
 21
106.279055
  0
POINT
  8
寸法
 10
-152.116173
 20
106.279055
  0
TEXT
  7
TextStyle03
  8
寸法
  6
CONTINUOUS
 10
-152.5
 20
95.59375
  1
14.8
 40
3.0
 50
90.0
 72
     5
 11
-152.5
 21
102.15625
  0
ENDBLK
  0
BLOCK
  2
*DIM_0030
 70
    65
 10
0.0
 20
0.0
  0
LINE
  8
寸法
  6
CONTINUOUS
 10
-101.619765
 20
91.476568
 11
-144.45882
 21
91.476568
  0
LINE
  8
寸法
  6
CONTINUOUS
 10
-144.45882
 20
5.97902
 11
-144.45882
 21
91.476568
  0
POINT
  8
寸法
 10
-144.45882
 20
5.97902
  0
POINT
  8
寸法
 10
-144.45882
 20
91.476568
  0
TEXT
  7
TextStyle03
  8
寸法
  6
CONTINUOUS
 10
-144.85
 20
45.44375
  1
85.5
 40
3.0
 50
90.0
 72
     5
 11
-144.85
 21
52.00625
  0
ENDBLK
  0
BLOCK
  2
*DIM_0031
 70
    65
 10
0.0
 20
0.0
  0
LINE
  8
寸法
  6
CONTINUOUS
 10
-101.619765
 20
91.476568
 11
-136.552462
 21
91.476568
  0
LINE
  8
寸法
  6
CONTINUOUS
 10
-100.619765
 20
71.476565
 11
-136.552462
 21
71.476565
  0
LINE
  8
寸法
  6
CONTINUOUS
 10
-136.552462
 20
91.476568
 11
-136.552462
 21
71.476565
  0
POINT
  8
寸法
 10
-136.552462
 20
91.476568
  0
POINT
  8
寸法
 10
-136.552462
 20
71.476565
  0
TEXT
  7
TextStyle03
  8
寸法
  6
CONTINUOUS
 10
-136.95
 20
79.88125
  1
20
 40
3.0
 50
90.0
 72
     5
 11
-136.95
 21
83.06875
  0
ENDBLK
  0
BLOCK
  2
*DIM_0032
 70
    65
 10
0.0
 20
0.0
  0
LINE
  8
寸法
  6
CONTINUOUS
 10
-17.620085
 20
-73.519863
 11
55.87215
 21
-73.519863
  0
LINE
  8
寸法
  6
CONTINUOUS
 10
-18.620085
 20
-59.019858
 11
55.87215
 21
-59.019858
  0
LINE
  8
寸法
  6
CONTINUOUS
 10
55.87215
 20
-73.519863
 11
55.87215
 21
-59.019858
  0
POINT
  8
寸法
 10
55.87215
 20
-73.519863
  0
POINT
  8
寸法
 10
55.87215
 20
-59.019858
  0
TEXT
  7
TextStyle03
  8
寸法
  6
CONTINUOUS
 10
55.475
 20
-69.55625
  1
14.5
 40
3.0
 50
90.0
 72
     5
 11
55.475
 21
-62.99375
  0
ENDBLK
  0
BLOCK
  2
*DIM_0033
 70
    65
 10
0.0
 20
0.0
  0
LINE
  8
寸法
  6
CONTINUOUS
 10
-18.620085
 20
-59.019858
 11
55.87215
 21
-59.019858
  0
LINE
  8
寸法
  6
CONTINUOUS
 10
-41.120085
 20
6.479023
 11
55.87215
 21
6.479023
  0
LINE
  8
寸法
  6
CONTINUOUS
 10
55.87215
 20
-59.019858
 11
55.87215
 21
6.479023
  0
POINT
  8
寸法
 10
55.87215
 20
6.479023
  0
TEXT
  7
TextStyle03
  8
寸法
  6
CONTINUOUS
 10
55.475
 20
-29.55625
  1
65.5
 40
3.0
 50
90.0
 72
     5
 11
55.475
 21
-22.99375
  0
ENDBLK
  0
BLOCK
  2
*DIM_0034
 70
    65
 10
0.0
 20
0.0
  0
LINE
  8
寸法
  6
CONTINUOUS
 10
-41.120085
 20
6.479023
 11
55.87215
 21
6.479023
  0
LINE
  8
寸法
  6
CONTINUOUS
 10
-44.120085
 20
13.979023
 11
55.87215
 21
13.979023
  0
LINE
  8
寸法
  6
CONTINUOUS
 10
55.87215
 20
6.479023
 11
55.87215
 21
13.979023
  0
POINT
  8
寸法
 10
55.87215
 20
13.979023
  0
TEXT
  7
TextStyle03
  8
寸法
  6
CONTINUOUS
 10
55.475
 20
7.7875
  1
7.5
 40
3.0
 50
90.0
 72
     5
 11
55.475
 21
12.6625
  0
ENDBLK
  0
BLOCK
  2
*DIM_0035
 70
    65
 10
0.0
 20
0.0
  0
LINE
  8
寸法
  6
CONTINUOUS
 10
-18.620085
 20
-73.519863
 11
61.517518
 21
-73.519863
  0
LINE
  8
寸法
  6
CONTINUOUS
 10
-33.619687
 20
106.279055
 11
61.517518
 21
106.279055
  0
LINE
  8
寸法
  6
CONTINUOUS
 10
61.517518
 20
-73.519863
 11
61.517518
 21
106.279055
  0
POINT
  8
寸法
 10
61.517518
 20
-73.519863
  0
POINT
  8
寸法
 10
61.517518
 20
106.279055
  0
TEXT
  7
TextStyle03
  8
寸法
  6
CONTINUOUS
 10
61.125
 20
12.25
  1
179.8
 40
3.0
 50
90.0
 72
     5
 11
61.125
 21
20.5
  0
ENDBLK
  0
BLOCK
  2
*DIM_0036
 70
    65
 10
0.0
 20
0.0
  0
LINE
  8
寸法
  6
CONTINUOUS
 10
-33.619687
 20
69.479023
 11
55.87215
 21
69.479023
  0
LINE
  8
寸法
  6
CONTINUOUS
 10
55.87215
 20
13.979023
 11
55.87215
 21
69.479023
  0
POINT
  8
寸法
 10
55.87215
 20
13.979023
  0
POINT
  8
寸法
 10
55.87215
 20
69.479023
  0
TEXT
  7
TextStyle03
  8
寸法
  6
CONTINUOUS
 10
55.475
 20
38.44375
  1
55.5
 40
3.0
 50
90.0
 72
     5
 11
55.475
 21
45.00625
  0
ENDBLK
  0
BLOCK
  2
*DIM_0037
 70
    65
 10
0.0
 20
0.0
  0
LINE
  8
寸法
  6
CONTINUOUS
 10
28.450065
 20
78.979047
 11
55.87215
 21
78.979047
  0
LINE
  8
寸法
  6
CONTINUOUS
 10
55.87215
 20
69.479023
 11
55.87215
 21
78.979047
  0
POINT
  8
寸法
 10
55.87215
 20
69.479023
  0
POINT
  8
寸法
 10
55.87215
 20
78.979047
  0
TEXT
  7
TextStyle03
  8
寸法
  6
CONTINUOUS
 10
55.475
 20
71.7875
  1
9.5
 40
3.0
 50
90.0
 72
     5
 11
55.475
 21
76.6625
  0
ENDBLK
  0
BLOCK
  2
*DIM_0038
 70
    65
 10
0.0
 20
0.0
  0
LINE
  8
寸法
  6
CONTINUOUS
 10
28.450065
 20
78.979047
 11
55.87215
 21
78.979047
  0
LINE
  8
寸法
  6
CONTINUOUS
 10
28.450065
 20
96.779053
 11
55.87215
 21
96.779053
  0
LINE
  8
寸法
  6
CONTINUOUS
 10
55.87215
 20
78.979047
 11
55.87215
 21
96.779053
  0
POINT
  8
寸法
 10
55.87215
 20
96.779053
  0
TEXT
  7
TextStyle03
  8
寸法
  6
CONTINUOUS
 10
55.475
 20
84.59375
  1
17.8
 40
3.0
 50
90.0
 72
     5
 11
55.475
 21
91.15625
  0
ENDBLK
  0
BLOCK
  2
*DIM_0039
 70
    65
 10
0.0
 20
0.0
  0
LINE
  8
寸法
  6
CONTINUOUS
 10
28.450065
 20
96.779053
 11
55.87215
 21
96.779053
  0
LINE
  8
寸法
  6
CONTINUOUS
 10
-32.619687
 20
106.279055
 11
55.87215
 21
106.279055
  0
LINE
  8
寸法
  6
CONTINUOUS
 10
55.87215
 20
96.779053
 11
55.87215
 21
106.279055
  0
POINT
  8
寸法
 10
55.87215
 20
106.279055
  0
TEXT
  7
TextStyle03
  8
寸法
  6
CONTINUOUS
 10
55.475
 20
99.0875
  1
9.5
 40
3.0
 50
90.0
 72
     5
 11
55.475
 21
103.9625
  0
ENDBLK
  0
BLOCK
  2
*DIM_0040
 70
    65
 10
0.0
 20
0.0
  0
LINE
  8
寸法
  6
CONTINUOUS
 10
-69.619712
 20
119.0135
 11
-49.61974
 21
119.0135
  0
POINT
  8
寸法
 10
-69.619712
 20
119.0135
  0
POINT
  8
寸法
 10
-49.61974
 20
119.0135
  0
TEXT
  7
TextStyle03
  8
寸法
  6
CONTINUOUS
 10
-61.21875
 20
119.375
  1
20
 40
3.0
 72
     5
 11
-58.03125
 21
119.375
  0
ENDBLK
  0
BLOCK
  2
*DIM_0041
 70
    65
 10
0.0
 20
0.0
  0
LINE
  8
寸法
  6
CONTINUOUS
 10
-19.620085
 20
-58.019858
 11
-19.620085
 21
119.0135
  0
LINE
  8
寸法
  6
CONTINUOUS
 10
-49.61974
 20
119.0135
 11
-19.620085
 21
119.0135
  0
POINT
  8
寸法
 10
-19.620085
 20
119.0135
  0
TEXT
  7
TextStyle03
  8
寸法
  6
CONTINUOUS
 10
-36.21875
 20
119.375
  1
30
 40
3.0
 72
     5
 11
-33.03125
 21
119.375
  0
ENDBLK
  0
BLOCK
  2
*GRP_0042
 70
    65
 10
0.0
 20
0.0
  0
LINE
  8
St
  6
CONTINUOUS
 10
-77.620082
 20
84.47657
 11
-74.420088
 21
84.47657
  0
LINE
  8
St
  6
CONTINUOUS
 10
-74.420088
 20
84.47657
 11
-74.420088
 21
63.479023
  0
LINE
  8
St
  6
CONTINUOUS
 10
-49.820088
 20
60.27902
 11
-49.820088
 21
10.679023
  0
LINE
  8
St
  6
CONTINUOUS
 10
-49.820088
 20
10.679023
 11
-77.620082
 21
10.679023
  0
LINE
  8
St
  6
CONTINUOUS
 10
-77.620082
 20
10.679023
 11
-77.620082
 21
7.47902
  0
LINE
  8
St
  6
CONTINUOUS
 10
-77.620082
 20
84.47657
 11
-77.620082
 21
63.479023
  0
LINE
  8
St
  6
CONTINUOUS
 10
-74.42008
 20
60.27902
 11
-49.820088
 21
60.27902
  0
ARC
  8
St
  6
CONTINUOUS
 10
-74.42008
 20
63.479018
 40
3.2
 50
180.0
 51
270.0
  0
LINE
  8
St
  6
CONTINUOUS
 10
-74.420088
 20
63.479023
 11
-49.820088
 21
63.479023
  0
ARC
  8
St
  6
CONTINUOUS
 10
-49.820082
 20
60.27902
 40
3.2
 50
0.0
 51
90.0
  0
LINE
  8
St
  6
CONTINUOUS
 10
-46.620085
 20
10.679023
 11
-46.620085
 21
60.27902
  0
LINE
  8
St
  6
CONTINUOUS
 10
-49.820088
 20
7.47902
 11
-77.620082
 21
7.47902
  0
ARC
  8
St
  6
CONTINUOUS
 10
-49.820082
 20
10.679018
 40
3.2
 50
270.0
 51
360.0
  0
LINE
  8
St
  6
CONTINUOUS
 10
-74.420088
 20
77.152873
 11
-77.620082
 21
80.352867
  0
LINE
  8
St
  6
CONTINUOUS
 10
-74.420088
 20
76.445773
 11
-77.620082
 21
79.645767
  0
LINE
  8
St
  6
CONTINUOUS
 10
-46.620085
 20
49.35287
 11
-49.820088
 21
52.552873
  0
LINE
  8
St
  6
CONTINUOUS
 10
-57.546235
 20
60.27902
 11
-60.746238
 21
63.479023
  0
LINE
  8
St
  6
CONTINUOUS
 10
-46.620085
 20
48.64577
 11
-49.820088
 21
51.845773
  0
LINE
  8
St
  6
CONTINUOUS
 10
-58.253335
 20
60.27902
 11
-61.453337
 21
63.479023
  0
LINE
  8
St
  6
CONTINUOUS
 10
-46.620085
 20
18.854915
 11
-49.820088
 21
22.054918
  0
LINE
  8
St
  6
CONTINUOUS
 10
-46.620085
 20
18.147815
 11
-49.820088
 21
21.347818
  0
LINE
  8
St
  6
CONTINUOUS
 10
-57.546235
 20
7.47902
 11
-60.746238
 21
10.679023
  0
LINE
  8
St
  6
CONTINUOUS
 10
-58.253335
 20
7.47902
 11
-61.453337
 21
10.679023
  0
ENDBLK
  0
BLOCK
  2
*GRP_0043
 70
    65
 10
0.0
 20
0.0
  0
LINE
  8
St
  6
CONTINUOUS
 10
-77.620082
 20
-2.520978
 11
-77.620082
 21
-5.72098
  0
LINE
  8
St
  6
CONTINUOUS
 10
-77.620082
 20
-5.72098
 11
-49.820088
 21
-5.72098
  0
LINE
  8
St
  6
CONTINUOUS
 10
-49.820088
 20
-5.72098
 11
-49.820088
 21
-67.31986
  0
LINE
  8
St
  6
CONTINUOUS
 10
-49.820088
 20
-67.31986
 11
-77.620082
 21
-67.31986
  0
LINE
  8
St
  6
CONTINUOUS
 10
-77.620082
 20
-67.31986
 11
-77.620082
 21
-70.519863
  0
LINE
  8
St
  6
CONTINUOUS
 10
-77.620082
 20
-2.520978
 11
-49.820088
 21
-2.520978
  0
ARC
  8
St
  6
CONTINUOUS
 10
-49.820082
 20
-5.72098
 40
3.2
 50
0.0
 51
90.0
  0
LINE
  8
St
  6
CONTINUOUS
 10
-46.620085
 20
-5.72098
 11
-46.620085
 21
-67.31986
  0
LINE
  8
St
  6
CONTINUOUS
 10
-49.820088
 20
-70.519863
 11
-77.620082
 21
-70.519863
  0
ARC
  8
St
  6
CONTINUOUS
 10
-49.820082
 20
-67.319865
 40
3.2
 50
270.0
 51
360.0
  0
LINE
  8
St
  6
CONTINUOUS
 10
-57.546235
 20
-70.519863
 11
-60.746238
 21
-67.31986
  0
LINE
  8
St
  6
CONTINUOUS
 10
-58.253335
 20
-70.519863
 11
-61.453337
 21
-67.31986
  0
LINE
  8
St
  6
CONTINUOUS
 10
-57.546235
 20
-5.72098
 11
-60.746238
 21
-2.520978
  0
LINE
  8
St
  6
CONTINUOUS
 10
-58.253335
 20
-5.72098
 11
-61.453337
 21
-2.520978
  0
LINE
  8
St
  6
CONTINUOUS
 10
-46.620085
 20
-23.032442
 11
-49.820088
 21
-19.83244
  0
LINE
  8
St
  6
CONTINUOUS
 10
-46.620085
 20
-23.739542
 11
-49.820088
 21
-20.53954
  0
LINE
  8
St
  6
CONTINUOUS
 10
-46.620085
 20
-58.02928
 11
-49.820088
 21
-54.829277
  0
LINE
  8
St
  6
CONTINUOUS
 10
-46.620085
 20
-58.73638
 11
-49.820088
 21
-55.536377
  0
ENDBLK
  0
BLOCK
  2
*GRP_0044
 70
    65
 10
0.0
 20
0.0
  0
LINE
  8
St
  6
CONTINUOUS
 10
-79.570187
 20
-73.519863
 11
-39.57019
 21
-73.519863
  0
LINE
  8
St
  6
CONTINUOUS
 10
-79.570187
 20
-73.519863
 11
-79.570187
 21
-103.519863
  0
LINE
  8
St
  6
CONTINUOUS
 10
-79.529493
 20
-76.719865
 11
-39.57019
 21
-76.719865
  0
LINE
  8
St
  6
CONTINUOUS
 10
-45.92824
 20
-73.519863
 11
-49.128243
 21
-76.719865
  0
LINE
  8
St
  6
CONTINUOUS
 10
-46.63534
 20
-73.519863
 11
-49.835343
 21
-76.719865
  0
LINE
  8
St
  6
CONTINUOUS
 10
-72.173935
 20
-73.519863
 11
-75.373953
 21
-76.719865
  0
LINE
  8
St
  6
CONTINUOUS
 10
-72.881035
 20
-73.519863
 11
-76.081052
 21
-76.719865
  0
LINE
  8
St
  6
CONTINUOUS
 10
-39.57019
 20
-73.519863
 11
-39.57019
 21
-103.519863
  0
LINE
  8
St
  6
CONTINUOUS
 10
-79.570187
 20
-103.519863
 11
-39.57019
 21
-103.519863
  0
ENDBLK
  0
BLOCK
  2
*DIM_0045
 70
    65
 10
0.0
 20
0.0
  0
LINE
  8
寸法
  6
CONTINUOUS
 10
-99.619765
 20
92.476568
 11
-99.619765
 21
113.292505
  0
LINE
  8
寸法
  6
CONTINUOUS
 10
-58.12009
 20
107.279055
 11
-58.12009
 21
113.292505
  0
LINE
  8
寸法
  6
CONTINUOUS
 10
-99.619765
 20
113.292505
 11
-58.12009
 21
113.292505
  0
POINT
  8
寸法
 10
-99.619765
 20
113.292505
  0
POINT
  8
寸法
 10
-58.12009
 20
113.292505
  0
TEXT
  7
TextStyle03
  8
寸法
  6
CONTINUOUS
 10
-82.15625
 20
113.65
  1
41.5
 40
3.0
 72
     5
 11
-75.59375
 21
113.65
  0
ENDBLK
  0
BLOCK
  2
*DIM_0046
 70
    65
 10
0.0
 20
0.0
  0
LINE
  8
寸法
  6
CONTINUOUS
 10
-58.12009
 20
107.279055
 11
-58.12009
 21
113.292505
  0
LINE
  8
寸法
  6
CONTINUOUS
 10
-34.619687
 20
107.279055
 11
-34.619687
 21
113.292505
  0
LINE
  8
寸法
  6
CONTINUOUS
 10
-58.12009
 20
113.292505
 11
-34.619687
 21
113.292505
  0
POINT
  8
寸法
 10
-34.619687
 20
113.292505
  0
TEXT
  7
TextStyle03
  8
寸法
  6
CONTINUOUS
 10
-49.65625
 20
113.65
  1
23.5
 40
3.0
 72
     5
 11
-43.09375
 21
113.65
  0
ENDBLK
  0
BLOCK
  2
*GRP_0047
 70
    65
 10
0.0
 20
0.0
  0
ARC
  8
型材断面
  6
CONTINUOUS
 10
-62.620089
 20
85.476568
 40
1.5
 50
0.0
 51
90.0
  0
LINE
  8
型材断面
  6
CONTINUOUS
 62
    47
 10
-78.120085
 20
86.976568
 11
-62.62009
 21
86.976568
  0
ARC
  8
型材断面
  6
CONTINUOUS
 10
-78.120084
 20
85.476568
 40
1.5
 50
90.0
 51
180.0
  0
LINE
  8
型材断面
  6
CONTINUOUS
 62
    47
 10
-78.120085
 20
85.476568
 11
-62.62009
 21
85.476568
  0
LINE
  8
型材断面
  6
CONTINUOUS
 62
    47
 10
-78.120085
 20
85.476568
 11
-78.120085
 21
7.47902
  0
LINE
  8
型材断面
  6
CONTINUOUS
 62
    47
 10
-79.620085
 20
85.476568
 11
-79.620085
 21
7.47902
  0
ARC
  8
型材断面
  6
CONTINUOUS
 10
-78.120084
 20
7.479023
 40
1.5
 50
180.0
 51
270.0
  0
LINE
  8
型材断面
  6
CONTINUOUS
 62
    47
 10
-46.620085
 20
7.47902
 11
-78.120085
 21
7.47902
  0
ARC
  8
型材断面
  6
CONTINUOUS
 10
-46.620084
 20
7.479023
 40
1.5
 50
270.0
 51
360.0
  0
LINE
  8
型材断面
  6
CONTINUOUS
 62
    47
 10
-46.620085
 20
5.97902
 11
-78.120085
 21
5.97902
  0
LINE
  8
型材断面
  6
CONTINUOUS
 62
    47
 10
-46.620085
 20
7.47902
 11
-46.620085
 21
13.979023
  0
LINE
  8
型材断面
  6
CONTINUOUS
 10
-46.620085
 20
13.979023
 11
-45.120085
 21
13.979023
  0
LINE
  8
型材断面
  6
CONTINUOUS
 62
    47
 10
-45.120085
 20
7.47902
 11
-45.120085
 21
13.979023
  0
LINE
  8
型材断面
  6
DOT
 10
-78.120085
 20
7.47902
 11
-79.620085
 21
7.47902
  0
LINE
  8
型材断面
  6
DOT
 10
-78.120085
 20
15.479023
 11
-79.620085
 21
15.479023
  0
LINE
  8
型材断面
  6
DOT
 10
-78.495085
 20
7.47902
 11
-78.495085
 21
15.479023
  0
LINE
  8
型材断面
  6
DOT
 10
-78.870085
 20
7.47902
 11
-78.870085
 21
15.479023
  0
LINE
  8
型材断面
  6
DOT
 10
-79.245085
 20
7.47902
 11
-79.245085
 21
15.479023
  0
LINE
  8
型材断面
  6
CONTINUOUS
 10
-61.12009
 20
85.476568
 11
-61.12009
 21
71.976568
  0
LINE
  8
型材断面
  6
CONTINUOUS
 62
    47
 10
-62.62009
 20
85.476568
 11
-62.62009
 21
71.976568
  0
LINE
  8
型材断面
  6
CONTINUOUS
 10
-61.12009
 20
71.976568
 11
-62.62009
 21
71.976568
  0
ENDBLK
  0
BLOCK
  2
*GRP_0048
 70
    65
 10
0.0
 20
0.0
  0
LINE
  8
型材断面
  6
CONTINUOUS
 10
-34.619687
 20
77.479047
 11
-36.119687
 21
77.479047
  0
LINE
  8
型材断面
  6
CONTINUOUS
 10
-36.119687
 20
77.479047
 11
-36.119687
 21
70.979023
  0
LINE
  8
型材断面
  6
CONTINUOUS
 10
-34.619687
 20
77.479047
 11
-34.619687
 21
70.979023
  0
ARC
  8
型材断面
  6
CONTINUOUS
 10
-36.119683
 20
70.979023
 40
1.5
 50
270.0
 51
360.0
  0
LINE
  8
型材断面
  6
CONTINUOUS
 10
-36.119687
 20
70.979023
 11
-59.62009
 21
70.979023
  0
LINE
  8
型材断面
  6
CONTINUOUS
 62
    47
 10
-36.119687
 20
69.479023
 11
-59.62009
 21
69.479023
  0
ARC
  8
型材断面
  6
CONTINUOUS
 10
-59.62009
 20
70.979022
 40
1.5
 50
180.0
 51
270.0
  0
LINE
  8
型材断面
  6
CONTINUOUS
 10
-61.12009
 20
70.979023
 11
-61.12009
 21
85.476568
  0
LINE
  8
型材断面
  6
CONTINUOUS
 10
-59.62009
 20
70.979023
 11
-59.62009
 21
85.476568
  0
LINE
  8
型材断面
  6
CONTINUOUS
 10
-59.62009
 20
85.476568
 11
-61.12009
 21
85.476568
  0
ENDBLK
  0
BLOCK
  2
*GRP_0049
 70
    65
 10
0.0
 20
0.0
  0
LINE
  8
ボルト／ビス
  6
CONTINUOUS
 62
    64
 10
-61.42009
 20
78.47657
 11
-61.42009
 21
82.476568
  0
LINE
  8
ボルト／ビス
  6
CONTINUOUS
 62
    64
 10
-69.120093
 20
78.47657
 11
-69.620088
 21
78.976565
  0
LINE
  8
ボルト／ビス
  6
CONTINUOUS
 62
    64
 10
-69.120093
 20
82.476568
 11
-69.620088
 21
81.976565
  0
LINE
  8
ボルト／ビス
  6
CONTINUOUS
 62
    64
 10
-69.620088
 20
78.976565
 11
-69.620088
 21
81.976565
  0
LINE
  8
ボルト／ビス
  6
CONTINUOUS
 62
    64
 10
-69.120093
 20
78.47657
 11
-69.120093
 21
82.476568
  0
LINE
  8
ボルト／ビス
  6
CONTINUOUS
 62
    64
 10
-61.42009
 20
81.976565
 11
-69.620088
 21
81.976565
  0
LINE
  8
ボルト／ビス
  6
CONTINUOUS
 62
    64
 10
-61.42009
 20
78.976565
 11
-69.620088
 21
78.976565
  0
LINE
  8
ボルト／ビス
  6
CONTINUOUS
 62
    64
 10
-61.42009
 20
78.47657
 11
-69.120093
 21
78.47657
  0
LINE
  8
ボルト／ビス
  6
CONTINUOUS
 62
    64
 10
-61.42009
 20
82.476568
 11
-69.120093
 21
82.476568
  0
LINE
  8
ボルト／ビス
  6
DASHDOT
 62
    64
 10
-56.62009
 20
80.476565
 11
-72.620088
 21
80.476565
  0
LINE
  8
ボルト／ビス
  6
DOT
 62
    64
 10
-59.62009
 20
77.476565
 11
-61.42009
 21
78.47657
  0
LINE
  8
ボルト／ビス
  6
DOT
 62
    64
 10
-59.62009
 20
77.476565
 11
-59.62009
 21
83.476565
  0
LINE
  8
ボルト／ビス
  6
DOT
 62
    64
 10
-59.62009
 20
83.476565
 11
-61.42009
 21
82.476568
  0
ENDBLK
  0
BLOCK
  2
*GRP_0050
 70
    65
 10
0.0
 20
0.0
  0
INSERT
  2
*GRP_0051
  8
ボルト／ビス
  6
CONTINUOUS
 62
    64
 10
0.0
 20
0.0
  0
INSERT
  2
*GRP_0052
  8
ボルト／ビス
  6
CONTINUOUS
 10
0.0
 20
0.0
  0
INSERT
  2
*GRP_0053
  8
ボルト／ビス
  6
CONTINUOUS
 62
    64
 10
0.0
 20
0.0
  0
INSERT
  2
*GRP_0054
  8
ボルト／ビス
  6
CONTINUOUS
 10
0.0
 20
0.0
  0
INSERT
  2
*GRP_0055
  8
別途部材
  6
CONTINUOUS
 10
0.0
 20
0.0
  0
INSERT
  2
*GRP_0056
  8
St
  6
CONTINUOUS
 10
0.0
 20
0.0
  0
INSERT
  2
*GRP_0057
  8
St
  6
CONTINUOUS
 10
0.0
 20
0.0
  0
LINE
  8
St
  6
CONTINUOUS
 10
-34.586755
 20
64.47902
 11
-37.78675
 21
61.279025
  0
LINE
  8
St
  6
CONTINUOUS
 10
-43.420082
 20
55.645693
 11
-46.620085
 21
52.44569
  0
LINE
  8
St
  6
CONTINUOUS
 10
-33.879655
 20
64.47902
 11
-37.07965
 21
61.279025
  0
LINE
  8
St
  6
CONTINUOUS
 10
-43.420082
 20
54.938593
 11
-46.620085
 21
51.73859
  0
LINE
  8
St
  6
CONTINUOUS
 10
-2.825043
 20
64.47902
 11
-6.025037
 21
61.279025
  0
LINE
  8
St
  6
CONTINUOUS
 10
-2.117943
 20
64.47902
 11
-5.317937
 21
61.279025
  0
LINE
  8
St
  6
CONTINUOUS
 10
-43.420082
 20
31.726377
 11
-46.620085
 21
28.526375
  0
LINE
  8
St
  6
CONTINUOUS
 10
-43.420082
 20
31.019277
 11
-46.620085
 21
27.819275
  0
LINE
  8
St
  6
CONTINUOUS
 10
-43.420082
 20
-18.357115
 11
-46.620085
 21
-21.557118
  0
LINE
  8
St
  6
CONTINUOUS
 10
-43.420082
 20
-19.064215
 11
-46.620085
 21
-22.264217
  0
LINE
  8
St
  6
CONTINUOUS
 10
-43.420082
 20
-38.845382
 11
-46.620085
 21
-42.045385
  0
LINE
  8
St
  6
CONTINUOUS
 10
-43.420082
 20
-39.552483
 11
-46.620085
 21
-42.752485
  0
LINE
  8
St
  6
CONTINUOUS
 10
-34.586755
 20
-55.819862
 11
-37.78675
 21
-59.019858
  0
LINE
  8
St
  6
CONTINUOUS
 10
-33.879655
 20
-55.819862
 11
-37.07965
 21
-59.019858
  0
LINE
  8
St
  6
CONTINUOUS
 10
-16.420082
 20
-68.332712
 11
-19.620085
 21
-71.532715
  0
LINE
  8
St
  6
CONTINUOUS
 10
-16.420082
 20
-69.039812
 11
-19.620085
 21
-72.239815
  0
LINE
  8
St
  6
CONTINUOUS
 10
-16.420082
 20
-111.563935
 11
-19.620085
 21
-114.763937
  0
LINE
  8
St
  6
CONTINUOUS
 10
-16.420082
 20
-112.271035
 11
-19.620085
 21
-115.471037
  0
ENDBLK
  0
BLOCK
  2
*GRP_0051
 70
    65
 10
0.0
 20
0.0
  0
LINE
  8
ボルト／ビス
  6
CONTINUOUS
 62
    64
 10
-4.570135
 20
46.224395
 11
-4.114735
 21
44.973395
  0
ARC
  8
ボルト／ビス
  6
CONTINUOUS
 62
    64
 10
-0.47599
 20
46.849807
 40
4.09417
 50
152.722034
 51
180.0
  0
LINE
  8
ボルト／ビス
  6
CONTINUOUS
 62
    64
 10
-4.570135
 20
58.733645
 11
-4.114735
 21
59.984495
  0
ARC
  8
ボルト／ビス
  6
CONTINUOUS
 62
    64
 10
-0.47599
 20
58.108142
 40
4.09417
 50
180.0
 51
207.277966
  0
ARC
  8
ボルト／ビス
  6
CONTINUOUS
 62
    64
 10
11.123572
 20
52.478975
 40
15.693732
 50
166.165046
 51
193.834954
  0
LINE
  8
ボルト／ビス
  6
CONTINUOUS
 62
    64
 10
0.57989
 20
44.973395
 11
-4.114735
 21
44.973395
  0
LINE
  8
ボルト／ビス
  6
CONTINUOUS
 62
    64
 10
0.57989
 20
59.984495
 11
-4.114735
 21
59.984495
  0
LINE
  8
ボルト／ビス
  6
CONTINUOUS
 62
    64
 10
-4.570135
 20
58.733645
 11
-4.570135
 21
46.224395
  0
LINE
  8
ボルト／ビス
  6
CONTINUOUS
 62
    64
 10
-4.114735
 20
56.231795
 11
0.57989
 21
56.231795
  0
LINE
  8
ボルト／ビス
  6
CONTINUOUS
 62
    64
 10
-4.114735
 20
48.726245
 11
0.57989
 21
48.726245
  0
LINE
  8
ボルト／ビス
  6
CONTINUOUS
 62
    64
 10
0.57989
 20
59.984495
 11
0.57989
 21
44.973395
  0
LINE
  8
ボルト／ビス
  6
CONTINUOUS
 62
    64
 10
2.37989
 20
43.728995
 11
3.379865
 21
43.728995
  0
LINE
  8
ボルト／ビス
  6
CONTINUOUS
 62
    64
 10
2.37989
 20
61.229045
 11
3.379865
 21
61.229045
  0
LINE
  8
ボルト／ビス
  6
CONTINUOUS
 62
    64
 10
2.37989
 20
43.728995
 11
2.37989
 21
61.229045
  0
LINE
  8
ボルト／ビス
  6
CONTINUOUS
 62
    64
 10
3.379865
 20
43.728995
 11
3.379865
 21
61.229045
  0
LINE
  8
ボルト／ビス
  6
CONTINUOUS
 62
    64
 10
0.57989
 20
52.47902
 11
2.37989
 21
52.47902
  0
LINE
  8
ボルト／ビス
  6
CONTINUOUS
 62
    64
 10
0.57989
 20
60.378995
 11
2.37989
 21
60.378995
  0
LINE
  8
ボルト／ビス
  6
CONTINUOUS
 62
    64
 10
0.57989
 20
44.579045
 11
2.37989
 21
44.579045
  0
LINE
  8
ボルト／ビス
  6
CONTINUOUS
 62
    64
 10
0.57989
 20
60.378995
 11
0.57989
 21
44.579045
  0
ENDBLK
  0
BLOCK
  2
*GRP_0052
 70
    65
 10
0.0
 20
0.0
  0
LINE
  8
ボルト／ビス
  6
CONTINUOUS
 62
    64
 10
14.729915
 20
46.224395
 11
14.274665
 21
44.973395
  0
ARC
  8
ボルト／ビス
  6
CONTINUOUS
 62
    64
 10
10.635739
 20
46.849783
 40
4.09417
 50
0.0
 51
27.277966
  0
LINE
  8
ボルト／ビス
  6
CONTINUOUS
 62
    64
 10
14.729915
 20
58.733645
 11
14.274665
 21
59.98457
  0
ARC
  8
ボルト／ビス
  6
CONTINUOUS
 62
    64
 10
10.635739
 20
58.108118
 40
4.09417
 50
332.722034
 51
360.0
  0
ARC
  8
ボルト／ビス
  6
CONTINUOUS
 62
    64
 10
-0.963823
 20
52.478951
 40
15.693732
 50
346.165046
 51
373.834954
  0
LINE
  8
ボルト／ビス
  6
CONTINUOUS
 62
    64
 10
9.57989
 20
44.973395
 11
14.274665
 21
44.973395
  0
LINE
  8
ボルト／ビス
  6
CONTINUOUS
 62
    64
 10
9.57989
 20
59.98457
 11
14.274665
 21
59.98457
  0
LINE
  8
ボルト／ビス
  6
CONTINUOUS
 62
    64
 10
14.729915
 20
58.733645
 11
14.729915
 21
46.224395
  0
LINE
  8
ボルト／ビス
  6
CONTINUOUS
 62
    64
 10
14.274665
 20
56.231795
 11
9.57989
 21
56.231795
  0
LINE
  8
ボルト／ビス
  6
CONTINUOUS
 62
    64
 10
14.274665
 20
48.72617
 11
9.57989
 21
48.72617
  0
LINE
  8
ボルト／ビス
  6
CONTINUOUS
 62
    64
 10
9.57989
 20
59.98457
 11
9.57989
 21
44.973395
  0
LINE
  8
ボルト／ビス
  6
CONTINUOUS
 62
    64
 10
9.57989
 20
52.47902
 11
7.77989
 21
52.47902
  0
LINE
  8
ボルト／ビス
  6
CONTINUOUS
 62
    64
 10
-9.220135
 20
56.47907
 11
-10.420135
 21
55.679045
  0
LINE
  8
ボルト／ビス
  6
CONTINUOUS
 62
    64
 10
-9.220135
 20
48.479045
 11
-10.420135
 21
49.27907
  0
LINE
  8
ボルト／ビス
  6
CONTINUOUS
 62
    64
 10
-10.420135
 20
55.679045
 11
-10.420135
 21
49.27907
  0
LINE
  8
ボルト／ビス
  6
CONTINUOUS
 62
    64
 10
-9.220135
 20
56.47907
 11
-9.220135
 21
48.479045
  0
LINE
  8
ボルト／ビス
  6
CONTINUOUS
 62
    64
 10
-9.220135
 20
48.479045
 11
9.57989
 21
48.479045
  0
LINE
  8
ボルト／ビス
  6
CONTINUOUS
 62
    64
 10
-10.420135
 20
49.27907
 11
9.57989
 21
49.27907
  0
LINE
  8
ボルト／ビス
  6
CONTINUOUS
 62
    64
 10
-10.420135
 20
55.679045
 11
9.57989
 21
55.679045
  0
LINE
  8
ボルト／ビス
  6
CONTINUOUS
 62
    64
 10
-9.220135
 20
56.47907
 11
9.57989
 21
56.47907
  0
LINE
  8
ボルト／ビス
  6
DASHDOT
 62
    64
 10
19.729865
 20
52.47902
 11
-15.420085
 21
52.47902
  0
ENDBLK
  0
BLOCK
  2
*GRP_0053
 70
    65
 10
0.0
 20
0.0
  0
LINE
  8
ボルト／ビス
  6
CONTINUOUS
 62
    64
 10
-4.570135
 20
-117.274488
 11
-4.114735
 21
-118.525487
  0
ARC
  8
ボルト／ビス
  6
CONTINUOUS
 62
    64
 10
-0.47599
 20
-116.649075
 40
4.09417
 50
152.722034
 51
180.0
  0
LINE
  8
ボルト／ビス
  6
CONTINUOUS
 62
    64
 10
-4.570135
 20
-104.765237
 11
-4.114735
 21
-103.514387
  0
ARC
  8
ボルト／ビス
  6
CONTINUOUS
 62
    64
 10
-0.47599
 20
-105.39074
 40
4.09417
 50
180.0
 51
207.277966
  0
ARC
  8
ボルト／ビス
  6
CONTINUOUS
 62
    64
 10
11.123572
 20
-111.019908
 40
15.693732
 50
166.165046
 51
193.834954
  0
LINE
  8
ボルト／ビス
  6
CONTINUOUS
 62
    64
 10
0.57989
 20
-118.525487
 11
-4.114735
 21
-118.525487
  0
LINE
  8
ボルト／ビス
  6
CONTINUOUS
 62
    64
 10
0.57989
 20
-103.514387
 11
-4.114735
 21
-103.514387
  0
LINE
  8
ボルト／ビス
  6
CONTINUOUS
 62
    64
 10
-4.570135
 20
-104.765237
 11
-4.570135
 21
-117.274488
  0
LINE
  8
ボルト／ビス
  6
CONTINUOUS
 62
    64
 10
-4.114735
 20
-107.267087
 11
0.57989
 21
-107.267087
  0
LINE
  8
ボルト／ビス
  6
CONTINUOUS
 62
    64
 10
-4.114735
 20
-114.772638
 11
0.57989
 21
-114.772638
  0
LINE
  8
ボルト／ビス
  6
CONTINUOUS
 62
    64
 10
0.57989
 20
-103.514387
 11
0.57989
 21
-118.525487
  0
LINE
  8
ボルト／ビス
  6
CONTINUOUS
 62
    64
 10
2.37989
 20
-119.769888
 11
3.379865
 21
-119.769888
  0
LINE
  8
ボルト／ビス
  6
CONTINUOUS
 62
    64
 10
2.37989
 20
-102.269837
 11
3.379865
 21
-102.269837
  0
LINE
  8
ボルト／ビス
  6
CONTINUOUS
 62
    64
 10
2.37989
 20
-119.769888
 11
2.37989
 21
-102.269837
  0
LINE
  8
ボルト／ビス
  6
CONTINUOUS
 62
    64
 10
3.379865
 20
-119.769888
 11
3.379865
 21
-102.269837
  0
LINE
  8
ボルト／ビス
  6
CONTINUOUS
 62
    64
 10
0.57989
 20
-111.019863
 11
2.37989
 21
-111.019863
  0
LINE
  8
ボルト／ビス
  6
CONTINUOUS
 62
    64
 10
0.57989
 20
-103.119888
 11
2.37989
 21
-103.119888
  0
LINE
  8
ボルト／ビス
  6
CONTINUOUS
 62
    64
 10
0.57989
 20
-118.919838
 11
2.37989
 21
-118.919838
  0
LINE
  8
ボルト／ビス
  6
CONTINUOUS
 62
    64
 10
0.57989
 20
-103.119888
 11
0.57989
 21
-118.919838
  0
ENDBLK
  0
BLOCK
  2
*GRP_0054
 70
    65
 10
0.0
 20
0.0
  0
LINE
  8
ボルト／ビス
  6
CONTINUOUS
 62
    64
 10
14.729915
 20
-117.274488
 11
14.274665
 21
-118.525487
  0
ARC
  8
ボルト／ビス
  6
CONTINUOUS
 62
    64
 10
10.635739
 20
-116.649099
 40
4.09417
 50
0.0
 51
27.277966
  0
LINE
  8
ボルト／ビス
  6
CONTINUOUS
 62
    64
 10
14.729915
 20
-104.765237
 11
14.274665
 21
-103.514312
  0
ARC
  8
ボルト／ビス
  6
CONTINUOUS
 62
    64
 10
10.635739
 20
-105.390764
 40
4.09417
 50
332.722034
 51
360.0
  0
ARC
  8
ボルト／ビス
  6
CONTINUOUS
 62
    64
 10
-0.963823
 20
-111.019932
 40
15.693732
 50
346.165046
 51
373.834954
  0
LINE
  8
ボルト／ビス
  6
CONTINUOUS
 62
    64
 10
9.57989
 20
-118.525487
 11
14.274665
 21
-118.525487
  0
LINE
  8
ボルト／ビス
  6
CONTINUOUS
 62
    64
 10
9.57989
 20
-103.514312
 11
14.274665
 21
-103.514312
  0
LINE
  8
ボルト／ビス
  6
CONTINUOUS
 62
    64
 10
14.729915
 20
-104.765237
 11
14.729915
 21
-117.274488
  0
LINE
  8
ボルト／ビス
  6
CONTINUOUS
 62
    64
 10
14.274665
 20
-107.267087
 11
9.57989
 21
-107.267087
  0
LINE
  8
ボルト／ビス
  6
CONTINUOUS
 62
    64
 10
14.274665
 20
-114.772713
 11
9.57989
 21
-114.772713
  0
LINE
  8
ボルト／ビス
  6
CONTINUOUS
 62
    64
 10
9.57989
 20
-103.514312
 11
9.57989
 21
-118.525487
  0
LINE
  8
ボルト／ビス
  6
CONTINUOUS
 62
    64
 10
9.57989
 20
-111.019863
 11
7.77989
 21
-111.019863
  0
LINE
  8
ボルト／ビス
  6
CONTINUOUS
 62
    64
 10
-9.220135
 20
-107.019812
 11
-10.420135
 21
-107.819837
  0
LINE
  8
ボルト／ビス
  6
CONTINUOUS
 62
    64
 10
-9.220135
 20
-115.019837
 11
-10.420135
 21
-114.219812
  0
LINE
  8
ボルト／ビス
  6
CONTINUOUS
 62
    64
 10
-10.420135
 20
-107.819837
 11
-10.420135
 21
-114.219812
  0
LINE
  8
ボルト／ビス
  6
CONTINUOUS
 62
    64
 10
-9.220135
 20
-107.019812
 11
-9.220135
 21
-115.019837
  0
LINE
  8
ボルト／ビス
  6
CONTINUOUS
 62
    64
 10
-9.220135
 20
-115.019837
 11
9.57989
 21
-115.019837
  0
LINE
  8
ボルト／ビス
  6
CONTINUOUS
 62
    64
 10
-10.420135
 20
-114.219812
 11
9.57989
 21
-114.219812
  0
LINE
  8
ボルト／ビス
  6
CONTINUOUS
 62
    64
 10
-10.420135
 20
-107.819837
 11
9.57989
 21
-107.819837
  0
LINE
  8
ボルト／ビス
  6
CONTINUOUS
 62
    64
 10
-9.220135
 20
-107.019812
 11
9.57989
 21
-107.019812
  0
LINE
  8
ボルト／ビス
  6
DASHDOT
 62
    64
 10
19.729865
 20
-111.019863
 11
-15.420085
 21
-111.019863
  0
ENDBLK
  0
BLOCK
  2
*GRP_0055
 70
    65
 10
0.0
 20
0.0
  0
LINE
  8
別途部材
  6
CONTINUOUS
 10
-6.420107
 20
20.479025
 11
15.57989
 21
20.479025
  0
LINE
  8
別途部材
  6
CONTINUOUS
 10
-6.420107
 20
21.479
 11
15.57989
 21
21.479
  0
ARC
  8
別途部材
  6
CONTINUOUS
 10
-1.420121
 20
21.479099
 40
5.0
 50
90.0
 51
180.0
  0
LINE
  8
別途部材
  6
CONTINUOUS
 10
-1.420082
 20
26.479025
 11
10.579918
 21
26.479025
  0
ARC
  8
別途部材
  6
CONTINUOUS
 10
10.579879
 20
21.479099
 40
5.0
 50
0.0
 51
90.0
  0
LINE
  8
別途部材
  6
CONTINUOUS
 10
10.579918
 20
26.479025
 11
10.579918
 21
28.47902
  0
LINE
  8
別途部材
  6
CONTINUOUS
 10
-1.420082
 20
26.479025
 11
-1.420082
 21
28.47902
  0
LINE
  8
別途部材
  6
CONTINUOUS
 10
6.379918
 20
61.47902
 11
6.379918
 21
31.679
  0
LINE
  8
別途部材
  6
CONTINUOUS
 10
6.379918
 20
31.679
 11
-0.420107
 21
31.679
  0
LINE
  8
別途部材
  6
CONTINUOUS
 10
-0.420107
 20
31.679
 11
-0.420107
 21
28.47902
  0
LINE
  8
別途部材
  6
CONTINUOUS
 10
9.57989
 20
61.47902
 11
9.57989
 21
31.679
  0
ARC
  8
別途部材
  6
CONTINUOUS
 10
6.379879
 20
31.679099
 40
3.2
 50
-90.0
 51
0.0
  0
LINE
  8
別途部材
  6
CONTINUOUS
 10
-1.420082
 20
28.47902
 11
10.579918
 21
28.47902
  0
LINE
  8
別途部材
  6
CONTINUOUS
 10
6.379918
 20
61.47902
 11
9.57989
 21
61.47902
  0
LINE
  8
別途部材
  6
CONTINUOUS
 10
6.379918
 20
47.97902
 11
9.57989
 21
47.97902
  0
LINE
  8
別途部材
  6
CONTINUOUS
 10
6.379918
 20
56.97902
 11
9.57989
 21
56.97902
  0
LINE
  8
別途部材
  6
CONTINUOUS
 10
4.579918
 20
52.47902
 11
11.995693
 21
52.47902
  0
LINE
  8
別途部材
  6
CONTINUOUS
 10
-6.420107
 20
-55.111285
 11
15.57989
 21
-55.111285
  0
LINE
  8
別途部材
  6
CONTINUOUS
 10
-6.420107
 20
-53.611285
 11
15.57989
 21
-53.611285
  0
LINE
  8
別途部材
  6
CONTINUOUS
 10
14.579892
 20
-56.611285
 11
14.579892
 21
-55.111285
  0
LINE
  8
別途部材
  6
CONTINUOUS
 10
14.579892
 20
-56.611285
 11
-5.42011
 21
-56.611285
  0
LINE
  8
別途部材
  6
CONTINUOUS
 10
-5.42011
 20
-56.611285
 11
-5.42011
 21
-55.111285
  0
LINE
  8
別途部材
  6
CONTINUOUS
 10
11.579892
 20
-59.611285
 11
11.579892
 21
-56.611285
  0
LINE
  8
別途部材
  6
CONTINUOUS
 10
-2.42011
 20
-59.611285
 11
11.579892
 21
-59.611285
  0
LINE
  8
別途部材
  6
CONTINUOUS
 10
-2.42011
 20
-56.611285
 11
-2.42011
 21
-59.611285
  0
LINE
  8
別途部材
  6
CONTINUOUS
 10
9.57989
 20
-59.611285
 11
9.57989
 21
-86.659862
  0
LINE
  8
別途部材
  6
CONTINUOUS
 10
-0.420107
 20
-89.859835
 11
6.379918
 21
-89.859835
  0
LINE
  8
別途部材
  6
CONTINUOUS
 10
-0.420107
 20
-59.611285
 11
-0.420107
 21
-89.859835
  0
ARC
  8
別途部材
  6
CONTINUOUS
 10
6.379881
 20
-89.859756
 40
3.2
 50
0.0
 51
90.0
  0
LINE
  8
別途部材
  6
CONTINUOUS
 10
-0.420107
 20
-86.659862
 11
9.57989
 21
-86.659862
  0
LINE
  8
別途部材
  6
CONTINUOUS
 10
9.57989
 20
-120.019863
 11
6.379918
 21
-120.019863
  0
LINE
  8
別途部材
  6
CONTINUOUS
 10
9.57989
 20
-115.519863
 11
6.379918
 21
-115.519863
  0
LINE
  8
別途部材
  6
CONTINUOUS
 10
9.57989
 20
-106.519863
 11
6.379918
 21
-106.519863
  0
LINE
  8
別途部材
  6
CONTINUOUS
 10
11.693442
 20
-111.019863
 11
4.579918
 21
-111.019863
  0
LINE
  8
別途部材
  6
CONTINUOUS
 10
9.57989
 20
-86.659862
 11
9.57989
 21
-120.019863
  0
LINE
  8
別途部材
  6
CONTINUOUS
 10
6.379918
 20
-89.859835
 11
6.379918
 21
-120.019863
  0
LINE
  8
別途部材
  6
CONTINUOUS
 10
15.57989
 20
21.479
 11
15.57989
 21
-55.111285
  0
LINE
  8
別途部材
  6
CONTINUOUS
 10
-6.420107
 20
21.479
 11
-6.420107
 21
-55.111285
  0
ENDBLK
  0
BLOCK
  2
*GRP_0056
 70
    65
 10
0.0
 20
0.0
  0
LINE
  8
St
  6
CONTINUOUS
 62
   127
 10
3.179915
 20
-101.019858
 11
3.179915
 21
-127.819863
  0
LINE
  8
St
  6
CONTINUOUS
 62
   127
 10
3.179915
 20
-101.019858
 11
6.379918
 21
-101.019858
  0
LINE
  8
St
  6
CONTINUOUS
 62
   127
 10
-16.420082
 20
-127.819863
 11
3.179915
 21
-127.819863
  0
LINE
  8
St
  6
CONTINUOUS
 62
   127
 10
-43.420082
 20
-14.51986
 11
-43.420082
 21
-55.819862
  0
LINE
  8
St
  6
CONTINUOUS
 62
   127
 10
-46.620085
 20
-14.51986
 11
-43.420082
 21
-14.51986
  0
LINE
  8
St
  6
CONTINUOUS
 62
   127
 10
6.379918
 20
-101.019858
 11
6.379918
 21
-36.519858
  0
LINE
  8
St
  6
CONTINUOUS
 62
   127
 10
-43.420082
 20
-14.51986
 11
6.379918
 21
-36.519858
  0
LINE
  8
St
  6
DOT
 10
-46.620085
 20
-24.019862
 11
-43.420082
 21
-24.019862
  0
LINE
  8
St
  6
DOT
 10
-46.620085
 20
-29.019858
 11
-43.420082
 21
-29.019858
  0
LINE
  8
St
  6
DASHDOT
 10
-48.279242
 20
-26.51986
 11
-41.455307
 21
-26.51986
  0
LINE
  8
St
  6
DOT
 10
-46.620085
 20
-44.019865
 11
-43.420082
 21
-44.019865
  0
LINE
  8
St
  6
DOT
 10
-46.620085
 20
-49.01986
 11
-43.420082
 21
-49.01986
  0
LINE
  8
St
  6
DASHDOT
 10
-48.279242
 20
-46.519863
 11
-41.455307
 21
-46.519863
  0
LINE
  8
St
  6
CONTINUOUS
 62
   127
 10
-46.620085
 20
-14.51986
 11
-46.620085
 21
-55.819855
  0
LINE
  8
St
  6
CONTINUOUS
 62
   127
 10
-43.420082
 20
-59.019858
 11
-19.620085
 21
-59.019858
  0
ARC
  8
St
  6
CONTINUOUS
 10
-43.42008
 20
-55.819858
 40
3.2
 50
180.0
 51
270.0
  0
LINE
  8
St
  6
CONTINUOUS
 62
   127
 10
-43.420082
 20
-55.819862
 11
-19.620085
 21
-55.819862
  0
LINE
  8
St
  6
CONTINUOUS
 62
   127
 10
-16.420082
 20
-59.019865
 11
-16.420082
 21
-127.819863
  0
ARC
  8
St
  6
CONTINUOUS
 10
-19.620077
 20
-59.019863
 40
3.2
 50
0.0
 51
90.0
  0
LINE
  8
St
  6
CONTINUOUS
 62
   127
 10
-19.620085
 20
-59.019858
 11
-19.620085
 21
-127.819855
  0
ARC
  8
St
  6
CONTINUOUS
 10
-16.42008
 20
-127.819858
 40
3.2
 50
180.0
 51
270.0
  0
LINE
  8
St
  6
CONTINUOUS
 62
   127
 10
-16.420082
 20
-131.019858
 11
3.179915
 21
-131.019858
  0
LINE
  8
St
  6
CONTINUOUS
 62
   127
 10
6.379918
 20
-101.019858
 11
6.379918
 21
-127.819855
  0
ARC
  8
St
  6
CONTINUOUS
 10
3.179923
 20
-127.819858
 40
3.2
 50
-90.0
 51
0.0
  0
LINE
  8
St
  6
DOT
 10
3.179915
 20
-107.019865
 11
6.379918
 21
-107.019865
  0
LINE
  8
St
  6
DOT
 10
3.179915
 20
-115.01986
 11
6.379918
 21
-115.01986
  0
LINE
  8
St
  6
DASHDOT
 10
1.520758
 20
-111.019863
 11
8.344693
 21
-111.019863
  0
ENDBLK
  0
BLOCK
  2
*GRP_0057
 70
    65
 10
0.0
 20
0.0
  0
LINE
  8
St
  6
CONTINUOUS
 62
   127
 10
3.169917
 20
42.479023
 11
6.379918
 21
42.479023
  0
LINE
  8
St
  6
CONTINUOUS
 62
   127
 10
3.169917
 20
42.479023
 11
3.169917
 21
61.279025
  0
LINE
  8
St
  6
CONTINUOUS
 62
   127
 10
-43.420082
 20
61.279025
 11
3.169917
 21
61.279025
  0
LINE
  8
St
  6
CONTINUOUS
 62
   127
 10
-43.420082
 20
14.479025
 11
3.169917
 21
42.479023
  0
LINE
  8
St
  6
CONTINUOUS
 62
   127
 10
-43.420082
 20
61.279025
 11
-43.420082
 21
14.479025
  0
LINE
  8
St
  6
CONTINUOUS
 62
   127
 10
-43.420082
 20
14.479025
 11
-46.620085
 21
14.479025
  0
LINE
  8
St
  6
CONTINUOUS
 62
   127
 10
6.379918
 20
42.479023
 11
6.379918
 21
61.279018
  0
ARC
  8
St
  6
CONTINUOUS
 10
3.179923
 20
61.279019
 40
3.2
 50
0.0
 51
90.0
  0
LINE
  8
St
  6
CONTINUOUS
 62
   127
 10
-43.420082
 20
64.47902
 11
3.179915
 21
64.47902
  0
LINE
  8
St
  6
CONTINUOUS
 62
   127
 10
-46.620085
 20
61.279018
 11
-46.620085
 21
14.479025
  0
ARC
  8
St
  6
CONTINUOUS
 10
-43.42008
 20
61.279019
 40
3.2
 50
90.0
 51
180.0
  0
LINE
  8
St
  6
DOT
 10
3.169917
 20
56.479018
 11
6.36992
 21
56.479018
  0
LINE
  8
St
  6
DOT
 10
3.169917
 20
48.479023
 11
6.36992
 21
48.479023
  0
LINE
  8
St
  6
DASHDOT
 10
1.51076
 20
52.47902
 11
8.334695
 21
52.47902
  0
LINE
  8
St
  6
DOT
 10
-46.620085
 20
44.97902
 11
-43.420082
 21
44.97902
  0
LINE
  8
St
  6
DOT
 10
-46.620085
 20
39.979025
 11
-43.420082
 21
39.979025
  0
LINE
  8
St
  6
DASHDOT
 10
-48.279242
 20
42.479023
 11
-41.455307
 21
42.479023
  0
LINE
  8
St
  6
DOT
 10
-46.620085
 20
24.979018
 11
-43.420082
 21
24.979018
  0
LINE
  8
St
  6
DOT
 10
-46.620085
 20
19.979023
 11
-43.420082
 21
19.979023
  0
LINE
  8
St
  6
DASHDOT
 10
-48.279242
 20
22.47902
 11
-41.455307
 21
22.47902
  0
ENDBLK
  0
ENDSEC
  0
SECTION
  2
ENTITIES
  0
POLYLINE
  8
通り芯
  6
CONTINUOUS
 66
     1
 70
     1
  0
VERTEX
  8
通り芯
 10
-210.0
 20
-148.5
  0
VERTEX
  8
通り芯
 10
210.0
 20
-148.5
  0
VERTEX
  8
通り芯
 10
210.0
 20
148.5
  0
VERTEX
  8
通り芯
 10
-210.0
 20
148.5
  0
SEQEND
  0
INSERT
  2
*GRP_0001
  8
型材断面
  6
CONTINUOUS
 10
0.0
 20
0.0
  0
INSERT
  2
*GRP_0002
  8
型材断面
  6
CONTINUOUS
 10
0.0
 20
0.0
  0
ARC
  8
型材断面
  6
CONTINUOUS
 10
-78.120077
 20
-72.01987
 40
1.675118
 50
146.056732
 51
180.725203
  0
ARC
  8
型材断面
  6
CONTINUOUS
 10
-78.120077
 20
-72.01987
 40
2.12133
 50
134.999838
 51
182.029989
  0
LINE
  8
型材断面
  6
CONTINUOUS
 10
-19.620085
 20
-59.019858
 11
-21.120085
 21
-59.019858
  0
LINE
  8
型材断面
  6
CONTINUOUS
 10
-21.120085
 20
-59.019858
 11
-21.120085
 21
-72.019863
  0
LINE
  8
型材断面
  6
CONTINUOUS
 10
-19.620085
 20
-59.019858
 11
-19.620085
 21
-72.019863
  0
ARC
  8
型材断面
  6
CONTINUOUS
 10
-21.120087
 20
-72.019865
 40
1.5
 50
270.0
 51
360.0
  0
LINE
  8
型材断面
  6
CONTINUOUS
 10
-21.120085
 20
-72.019863
 11
-79.620085
 21
-72.019863
  0
LINE
  8
型材断面
  6
CONTINUOUS
 10
-21.120085
 20
-73.519863
 11
-79.529493
 21
-73.519863
  0
LINE
  8
型材断面
  6
CONTINUOUS
 10
-79.620085
 20
-72.019863
 11
-152.116173
 21
-80.80727
  0
LINE
  8
型材断面
  6
CONTINUOUS
 10
-79.529493
 20
-73.519863
 11
-152.116173
 21
-82.318253
  0
LINE
  8
型材断面
  6
CONTINUOUS
 10
57.585407
 20
126.090603
 11
46.895585
 21
129.610782
  0
LINE
  8
型材断面
  6
CONTINUOUS
 10
46.895585
 20
129.610782
 11
46.895585
 21
126.090603
  0
LINE
  8
型材断面
  6
CONTINUOUS
 10
53.631892
 20
126.090603
 11
42.94207
 21
129.610782
  0
LINE
  8
型材断面
  6
CONTINUOUS
 10
42.94207
 20
129.610782
 11
42.94207
 21
126.090603
  0
LINE
  8
型材断面
  6
CONTINUOUS
 10
57.585407
 20
119.0135
 11
46.895585
 21
122.53368
  0
LINE
  8
型材断面
  6
CONTINUOUS
 10
46.895585
 20
122.53368
 11
46.895585
 21
119.0135
  0
LINE
  8
型材断面
  6
CONTINUOUS
 10
53.631892
 20
119.0135
 11
42.94207
 21
122.53368
  0
LINE
  8
型材断面
  6
CONTINUOUS
 10
42.94207
 20
122.53368
 11
42.94207
 21
119.0135
  0
LINE
  8
型材断面
  6
CONTINUOUS
 10
-149.554475
 20
126.090603
 11
-138.864653
 21
129.610782
  0
LINE
  8
型材断面
  6
CONTINUOUS
 10
-138.864653
 20
129.610782
 11
-138.864653
 21
126.090603
  0
LINE
  8
型材断面
  6
CONTINUOUS
 10
-145.60096
 20
126.090603
 11
-134.911138
 21
129.610782
  0
LINE
  8
型材断面
  6
CONTINUOUS
 10
-134.911138
 20
129.610782
 11
-134.911138
 21
126.090603
  0
INSERT
  2
*GRP_0003
  8
型材断面
  6
CONTINUOUS
 10
0.0
 20
0.0
  0
LINE
  8
型材断面
  6
DASHDOT
 10
-49.61974
 20
126.090603
 11
-49.61974
 21
70.979023
  0
INSERT
  2
*GRP_0047
  8
型材断面
  6
CONTINUOUS
 10
0.0
 20
0.0
  0
INSERT
  2
*GRP_0048
  8
型材断面
  6
CONTINUOUS
 10
0.0
 20
0.0
  0
LINE
  8
型材断面
  6
DOT
 10
-59.62009
 20
70.979023
 11
-59.62009
 21
69.479023
  0
LINE
  8
型材断面
  6
DOT
 10
-51.620088
 20
70.979023
 11
-51.620088
 21
69.479023
  0
LINE
  8
型材断面
  6
DOT
 10
-59.62009
 20
70.604023
 11
-51.620088
 21
70.604023
  0
LINE
  8
型材断面
  6
DOT
 10
-59.62009
 20
70.229023
 11
-51.620088
 21
70.229023
  0
LINE
  8
型材断面
  6
DOT
 10
-59.62009
 20
69.854023
 11
-51.620088
 21
69.854023
  0
LINE
  8
ガラス
  6
CONTINUOUS
 10
-49.619687
 20
78.979047
 11
-49.619687
 21
96.779053
  0
LINE
  8
ガラス
  6
CONTINUOUS
 10
-43.619687
 20
91.77905
 11
-43.619687
 21
85.77905
  0
LINE
  8
ガラス
  6
CONTINUOUS
 10
-49.619687
 20
85.77905
 11
-43.619687
 21
91.77905
  0
LINE
  8
ガラス
  6
CONTINUOUS
 10
-49.619687
 20
91.77905
 11
-43.619687
 21
85.77905
  0
LINE
  8
ガラス
  6
CONTINUOUS
 10
-49.620265
 20
78.979047
 11
27.450065
 21
78.979047
  0
LINE
  8
ガラス
  6
CONTINUOUS
 10
-49.620265
 20
85.77905
 11
27.450065
 21
85.77905
  0
LINE
  8
ガラス
  6
CONTINUOUS
 10
-49.620265
 20
85.279047
 11
27.450065
 21
85.279047
  0
LINE
  8
ガラス
  6
CONTINUOUS
 10
-49.620265
 20
79.47905
 11
27.450065
 21
79.47905
  0
LINE
  8
ガラス
  6
CONTINUOUS
 10
-49.620265
 20
91.77905
 11
27.450065
 21
91.77905
  0
LINE
  8
ガラス
  6
CONTINUOUS
 10
-49.620265
 20
92.279053
 11
27.450065
 21
92.279053
  0
LINE
  8
ガラス
  6
CONTINUOUS
 10
-49.620265
 20
96.779053
 11
27.450065
 21
96.779053
  0
LINE
  8
ガラス
  6
CONTINUOUS
 10
-49.620265
 20
96.27905
 11
27.450065
 21
96.27905
  0
INSERT
  2
*GRP_0004
  8
ゴム等
  6
CONTINUOUS
 10
0.0
 20
0.0
  0
INSERT
  2
*GRP_0005
  8
ゴム等
  6
CONTINUOUS
 10
0.0
 20
0.0
  0
INSERT
  2
*GRP_0006
  8
ゴム等
  6
DOT
 10
0.0
 20
0.0
  0
INSERT
  2
*GRP_0007
  8
ゴム等
  6
DOT
 10
0.0
 20
0.0
  0
INSERT
  2
*GRP_0008
  8
ゴム等
  6
CONTINUOUS
 10
0.0
 20
0.0
  0
INSERT
  2
*GRP_0009
  8
ボルト／ビス
  6
CONTINUOUS
 10
0.0
 20
0.0
  0
INSERT
  2
*GRP_0010
  8
ボルト／ビス
  6
CONTINUOUS
 10
0.0
 20
0.0
  0
INSERT
  2
*GRP_0011
  8
ボルト／ビス
  6
CONTINUOUS
 10
0.0
 20
0.0
  0
INSERT
  2
*GRP_0012
  8
ボルト／ビス
  6
CONTINUOUS
 10
0.0
 20
0.0
  0
INSERT
  2
*GRP_0013
  8
ボルト／ビス
  6
CONTINUOUS
 10
0.0
 20
0.0
  0
INSERT
  2
*GRP_0014
  8
ボルト／ビス
  6
CONTINUOUS
 10
0.0
 20
0.0
  0
INSERT
  2
*GRP_0015
  8
ボルト／ビス
  6
CONTINUOUS
 10
0.0
 20
0.0
  0
INSERT
  2
*GRP_0016
  8
ボルト／ビス
  6
CONTINUOUS
 10
0.0
 20
0.0
  0
INSERT
  2
*GRP_0017
  8
ボルト／ビス
  6
CONTINUOUS
 10
0.0
 20
0.0
  0
INSERT
  2
*GRP_0018
  8
ボルト／ビス
  6
CONTINUOUS
 10
0.0
 20
0.0
  0
INSERT
  2
*GRP_0019
  8
ボルト／ビス
  6
CONTINUOUS
 10
0.0
 20
0.0
  0
INSERT
  2
*GRP_0049
  8
ボルト／ビス
  6
CONTINUOUS
 10
0.0
 20
0.0
  0
TEXT
  7
TextStyle03
  8
文字
  6
CONTINUOUS
 10
78.225
 20
123.1
  1
シリーズ：ＳＴＦＦＨ
 40
5.0
 72
     5
 11
133.85
 21
123.1
  0
TEXT
  7
TextStyle03
  8
文字
  6
CONTINUOUS
 10
78.225
 20
117.475
  1
　　　　　（固定）
 40
5.0
 72
     5
 11
128.225
 21
117.475
  0
TEXT
  7
TextStyle03
  8
文字
  6
CONTINUOUS
 10
78.225
 20
111.85
  1
図面名　：下枠断面詳細図（ダンパー側）
 40
5.0
 72
     5
 11
184.475
 21
111.85
  0
TEXT
  7
TextStyle03
  8
文字
  6
CONTINUOUS
 10
-125.125
 20
127.0
  1
※
 40
4.0
 72
     5
 11
-121.125
 21
127.0
  0
TEXT
  7
TextStyle03
  8
文字
  6
CONTINUOUS
 10
-129.25
 20
121.55
  1
物件対応
 40
3.0
 72
     5
 11
-116.125
 21
121.55
  0
TEXT
  7
TextStyle03
  8
文字
  6
CONTINUOUS
 10
-6.45
 20
127.0
  1
ドーム呼称寸法
 40
3.0
 72
     5
 11
16.8
 21
127.0
  0
TEXT
  7
TextStyle03
  8
文字
  6
CONTINUOUS
 10
0.25
 20
119.75
  1
有効開口
 40
3.0
 72
     5
 11
13.375
 21
119.75
  0
TEXT
  7
TextStyle03
  8
文字
  6
CONTINUOUS
 10
-118.5
 20
-59.925
  1
排水穴　LH-8×16
 40
3.0
 72
     5
 11
-91.6875
 21
-59.925
  0
TEXT
  7
TextStyle03
  8
文字
  6
CONTINUOUS
 10
-118.525
 20
-99.85
  1
L-30×30×3　St
 40
3.0
 72
     5
 11
-93.4
 21
-99.85
  0
TEXT
  7
TextStyle03
  8
文字
  6
CONTINUOUS
 10
73.075
 20
31.75
  1
ダンパーブラケット：St-3.2t(メッキ＋塗装)
 40
3.0
 72
     5
 11
142.075
 21
31.75
  0
TEXT
  7
TextStyle03
  8
文字
  6
CONTINUOUS
 10
70.8
 20
-18.85
  1
ガスダンパー
 40
3.0
 72
     5
 11
90.675
 21
-18.85
  0
INSERT
  2
*DIM_0020
  8
寸法
  6
CONTINUOUS
 10
0.0
 20
0.0
  0
INSERT
  2
*DIM_0021
  8
寸法
  6
CONTINUOUS
 10
0.0
 20
0.0
  0
LINE
  8
寸法
  6
CONTINUOUS
 10
57.585407
 20
119.0135
 11
-19.620085
 21
119.0135
  0
LINE
  8
寸法
  6
CONTINUOUS
 10
-99.619765
 20
126.090603
 11
-149.554475
 21
126.090603
  0
INSERT
  2
*GRP_0022
  8
寸法
  6
CONTINUOUS
 10
0.0
 20
0.0
  0
INSERT
  2
*GRP_0023
  8
寸法
  6
CONTINUOUS
 10
0.0
 20
0.0
  0
INSERT
  2
*GRP_0024
  8
寸法
  6
CONTINUOUS
 10
0.0
 20
0.0
  0
INSERT
  2
*GRP_0025
  8
寸法
  6
CONTINUOUS
 10
0.0
 20
0.0
  0
INSERT
  2
*DIM_0026
  8
寸法
  6
CONTINUOUS
 10
0.0
 20
0.0
  0
INSERT
  2
*DIM_0027
  8
寸法
  6
CONTINUOUS
 10
0.0
 20
0.0
  0
INSERT
  2
*DIM_0028
  8
寸法
  6
CONTINUOUS
 10
0.0
 20
0.0
  0
INSERT
  2
*DIM_0029
  8
寸法
  6
CONTINUOUS
 10
0.0
 20
0.0
  0
INSERT
  2
*DIM_0030
  8
寸法
  6
CONTINUOUS
 10
0.0
 20
0.0
  0
INSERT
  2
*DIM_0031
  8
寸法
  6
CONTINUOUS
 10
0.0
 20
0.0
  0
INSERT
  2
*DIM_0032
  8
寸法
  6
CONTINUOUS
 10
0.0
 20
0.0
  0
INSERT
  2
*DIM_0033
  8
寸法
  6
CONTINUOUS
 10
0.0
 20
0.0
  0
INSERT
  2
*DIM_0034
  8
寸法
  6
CONTINUOUS
 10
0.0
 20
0.0
  0
INSERT
  2
*DIM_0035
  8
寸法
  6
CONTINUOUS
 10
0.0
 20
0.0
  0
INSERT
  2
*DIM_0036
  8
寸法
  6
CONTINUOUS
 10
0.0
 20
0.0
  0
INSERT
  2
*DIM_0037
  8
寸法
  6
CONTINUOUS
 10
0.0
 20
0.0
  0
INSERT
  2
*DIM_0038
  8
寸法
  6
CONTINUOUS
 10
0.0
 20
0.0
  0
INSERT
  2
*DIM_0039
  8
寸法
  6
CONTINUOUS
 10
0.0
 20
0.0
  0
LINE
  8
寸法
  6
CONTINUOUS
 10
-49.61974
 20
126.090603
 11
57.585407
 21
126.090603
  0
INSERT
  2
*DIM_0040
  8
寸法
  6
CONTINUOUS
 10
0.0
 20
0.0
  0
INSERT
  2
*DIM_0041
  8
寸法
  6
CONTINUOUS
 10
0.0
 20
0.0
  0
INSERT
  2
*DIM_0045
  8
寸法
  6
CONTINUOUS
 10
0.0
 20
0.0
  0
INSERT
  2
*DIM_0046
  8
寸法
  6
CONTINUOUS
 10
0.0
 20
0.0
  0
INSERT
  2
*HAT_0001
  8
ﾊｯﾁﾝｸﾞ
 10
0.0
 20
0.0
  0
INSERT
  2
*GRP_0042
  8
St
  6
CONTINUOUS
 10
0.0
 20
0.0
  0
INSERT
  2
*GRP_0043
  8
St
  6
CONTINUOUS
 10
0.0
 20
0.0
  0
INSERT
  2
*GRP_0044
  8
St
  6
CONTINUOUS
 10
0.0
 20
0.0
  0
INSERT
  2
*GRP_0050
  8
St
  6
CONTINUOUS
 10
0.0
 20
0.0
  0
LINE
  8
その他部品等
  6
CONTINUOUS
 10
-34.619687
 20
104.779055
 11
-34.619687
 21
96.779053
  0
LINE
  8
その他部品等
  6
CONTINUOUS
 10
-42.61969
 20
104.779055
 11
-42.61969
 21
96.779053
  0
LINE
  8
その他部品等
  6
CONTINUOUS
 10
-47.619685
 20
104.779055
 11
-47.619685
 21
96.779053
  0
LINE
  8
その他部品等
  6
CONTINUOUS
 10
-47.619685
 20
96.779053
 11
-42.61969
 21
104.779055
  0
ENDSEC
  0
EOF
