  0
SECTION
  2
HEADER
  9
$EXTMIN
 10
-210.0
 20
-148.5
  9
$EXTMAX
 10
210.0
 20
148.5
  9
$PDMODE
 70
    32
  9
$PDSIZE
 40
1.5
  9
$LTSCALE
 40
10.0
  0
ENDSEC
  0
SECTION
  2
TABLES
  0
TABLE
  2
LTYPE
 70
    15
  0
LTYPE
  2
CONTINUOUS
 70
    64
  3
実線
 72
    65
 73
     0
 40
0.0
  0
LTYPE
  2
DASHED
 70
    64
  3
破線A
 72
    65
 73
     2
 40
0.6
 49
0.4
 49
-0.2
  0
LTYPE
  2
DASHEDX2
 70
    64
  3
破線B
 72
    65
 73
     2
 40
1.3
 49
0.9
 49
-0.4
  0
LTYPE
  2
DASHDOT
 70
    64
  3
１点鎖線A
 72
    65
 73
     4
 40
0.5375
 49
0.375
 49
-0.05
 49
0.0625
 49
-0.05
  0
LTYPE
  2
DASHDOTX2
 70
    64
  3
１点鎖線B
 72
    65
 73
     4
 40
1.075
 49
0.75
 49
-0.1
 49
0.125
 49
-0.1
  0
LTYPE
  2
DIVIDE2
 70
    64
  3
２点鎖線A
 72
    65
 73
     6
 40
0.5125
 49
0.3
 49
-0.0375
 49
0.05
 49
-0.0375
 49
0.05
 49
-0.0375
  0
LTYPE
  2
DIVIDE
 70
    64
  3
２点鎖線B
 72
    65
 73
     6
 40
1.05
 49
0.55
 49
-0.1
 49
0.1
 49
-0.1
 49
0.1
 49
-0.1
  0
LTYPE
  2
DOT
 70
    64
  3
点線A
 72
    65
 73
     2
 40
0.1125
 49
0.0625
 49
-0.05
  0
LTYPE
  2
DOTX2
 70
    64
  3
点線B
 72
    65
 73
     2
 40
0.275
 49
0.15
 49
-0.125
  0
LTYPE
  2
CONTINUOUS
 70
    64
  3
実線
 72
    65
 73
     0
 40
0.0
  0
LTYPE
  2
CONTINUOUS
 70
    64
  3
実線
 72
    65
 73
     0
 40
0.0
  0
LTYPE
  2
CONTINUOUS
 70
    64
  3
実線
 72
    65
 73
     0
 40
0.0
  0
LTYPE
  2
CONTINUOUS
 70
    64
  3
実線
 72
    65
 73
     0
 40
0.0
  0
LTYPE
  2
CONTINUOUS
 70
    64
  3
実線
 72
    65
 73
     0
 40
0.0
  0
LTYPE
  2
CONTINUOUS
 70
    64
  3
実線
 72
    65
 73
     0
 40
0.0
  0
ENDTAB
  0
TABLE
  2
LAYER
 70
    34
  0
LAYER
  2
通り芯
 70
     0
 62
    15
  6
CONTINUOUS
  0
LAYER
  2
補助線
 70
     0
 62
    16
  6
DOT
  0
LAYER
  2
躯体
 70
     0
 62
    31
  6
CONTINUOUS
  0
LAYER
  2
型材
 70
     0
 62
    32
  6
CONTINUOUS
  0
LAYER
  2
型材断面
 70
     0
 62
    47
  6
CONTINUOUS
  0
LAYER
  2
ガラス
 70
     0
 62
    48
  6
CONTINUOUS
  0
LAYER
  2
ゴム等
 70
     0
 62
    63
  6
CONTINUOUS
  0
LAYER
  2
ボルト／ビス
 70
     0
 62
    64
  6
CONTINUOUS
  0
LAYER
  2
文字
 70
     0
 62
    79
  6
CONTINUOUS
  0
LAYER
  2
寸法
 70
     0
 62
    80
  6
CONTINUOUS
  0
LAYER
  2
ﾊｯﾁﾝｸﾞ
 70
     0
 62
    95
  6
CONTINUOUS
  0
LAYER
  2
別途部材
 70
     0
 62
    96
  6
CONTINUOUS
  0
LAYER
  2
曲げ物
 70
     0
 62
   111
  6
CONTINUOUS
  0
LAYER
  2
鉄骨等
 70
     0
 62
   112
  6
CONTINUOUS
  0
LAYER
  2
St
 70
     0
 62
   127
  6
CONTINUOUS
  0
LAYER
  2
その他部品等
 70
     0
 62
   128
  6
CONTINUOUS
  0
LAYER
  2
ｶﾞｽｹｯﾄ
 70
     0
 62
   143
  6
CONTINUOUS
  0
LAYER
  2
ｽｹｯﾁ
 70
     0
 62
    14
  6
CONTINUOUS
  0
LAYER
  2
0
 70
     0
 62
    17
  6
CONTINUOUS
  0
LAYER
  2
1
 70
     0
 62
    30
  6
CONTINUOUS
  0
LAYER
  2
4
 70
     0
 62
    33
  6
CONTINUOUS
  0
LAYER
  2
ﾚｲﾔ3
 70
     0
 62
    46
  6
CONTINUOUS
  0
LAYER
  2
外形線
 70
     0
 62
    49
  6
CONTINUOUS
  0
LAYER
  2
部品
 70
     0
 62
    14
  6
CONTINUOUS
  0
LAYER
  2
サッシ芯
 70
     0
 62
    17
  6
DASHDOTX2
  0
LAYER
  2
寸法線
 70
     0
 62
    62
  6
CONTINUOUS
  0
LAYER
  2
姿図外形線
 70
     0
 62
    65
  6
CONTINUOUS
  0
LAYER
  2
姿補助線
 70
     0
 62
    30
  6
CONTINUOUS
  0
LAYER
  2
透視線
 70
     0
 62
    78
  6
DOT
  0
LAYER
  2
用紙
 70
     0
 62
    81
  6
CONTINUOUS
  0
LAYER
  2
実線図枠
 70
     0
 62
    94
  6
CONTINUOUS
  0
LAYER
  2
補助図枠
 70
     0
 62
    97
  6
CONTINUOUS
  0
LAYER
  2
建具記号
 70
     0
 62
   110
  6
CONTINUOUS
  0
LAYER
  2
補助文字
 70
     0
 62
   113
  6
CONTINUOUS
  0
ENDTAB
  0
TABLE
  2
STYLE
 70
    10
  0
STYLE
  2
STANDARD
 70
     0
 40
1.0
 41
1.0
 42
1.0
 50
0.0
 71
     0
  3
TXT
  4
BIGFONT
  0
STYLE
  2
TATE
 70
     4
 40
1.0
 41
1.0
 42
1.0
 50
0.0
 71
     0
  3
TXT
  4
BIGFONT
  0
STYLE
  2
TextStyle03
 70
     0
 40
1.0
 41
1.0
 42
1.0
 50
0.0
 71
     0
  3
MONOTXT
  4
BIGFONT
  0
STYLE
  2
TextStyle04
 70
     0
 40
1.0
 41
1.0
 42
1.0
 50
0.0
 71
     0
  3
MONOTXT
  4
BIGFONT
  0
STYLE
  2
TextStyle05
 70
     0
 40
1.0
 41
1.0
 42
1.0
 50
0.0
 71
     0
  3
MONOTXT
  4
BIGFONT
  0
STYLE
  2
TextStyle06
 70
     0
 40
1.0
 41
1.0
 42
1.0
 50
0.0
 71
     0
  3
MONOTXT
  4
BIGFONT
  0
STYLE
  2
TextStyle07
 70
     0
 40
1.0
 41
1.0
 42
1.0
 50
0.0
 71
     0
  3
MONOTXT
  4
BIGFONT
  0
STYLE
  2
TextStyle08
 70
     0
 40
1.0
 41
1.0
 42
1.0
 50
0.0
 71
     0
  3
MONOTXT
  4
BIGFONT
  0
STYLE
  2
TextStyle09
 70
     0
 40
1.0
 41
1.0
 42
1.0
 50
0.0
 71
     0
  3
MONOTXT
  4
BIGFONT
  0
STYLE
  2
TextStyle10
 70
     0
 40
1.0
 41
1.0
 42
1.0
 50
0.0
 71
     0
  3
MONOTXT
  4
BIGFONT
  0
ENDTAB
  0
ENDSEC
  0
SECTION
  2
BLOCKS
  0
BLOCK
  2
*GRP_0001
 70
    65
 10
0.0
 20
0.0
  0
LINE
  8
型材断面
  6
CONTINUOUS
 10
195.0
 20
133.5
 11
195.0
 21
-133.5
  0
LINE
  8
型材断面
  6
CONTINUOUS
 10
195.0
 20
-133.5
 11
-185.0
 21
-133.5
  0
LINE
  8
型材断面
  6
CONTINUOUS
 10
-185.0
 20
-133.5
 11
-185.0
 21
133.5
  0
LINE
  8
型材断面
  6
CONTINUOUS
 10
195.0
 20
133.5
 11
-185.0
 21
133.5
  0
LINE
  8
型材断面
  6
CONTINUOUS
 10
145.0
 20
-133.5
 11
145.0
 21
-118.5
  0
LINE
  8
型材断面
  6
CONTINUOUS
 10
195.0
 20
-118.5
 11
145.0
 21
-118.5
  0
ENDBLK
  0
BLOCK
  2
*DIM_0002
 70
    65
 10
0.0
 20
0.0
  0
LINE
  8
寸法
  6
BYBLOCK
 62
     0
 10
-81.66511
 20
23.399048
 11
-110.610275
 21
23.399048
  0
LINE
  8
寸法
  6
BYBLOCK
 62
     0
 10
-81.66511
 20
46.732382
 11
-110.610275
 21
46.732382
  0
LINE
  8
寸法
  6
BYBLOCK
 62
     0
 10
-110.610275
 20
23.399048
 11
-110.610275
 21
46.732382
  0
POINT
  8
寸法
 62
     0
 10
-110.610275
 20
23.399048
  0
POINT
  8
寸法
 62
     0
 10
-110.610275
 20
46.732382
  0
TEXT
  7
TextStyle03
  8
寸法
  6
CONTINUOUS
 62
     0
 10
-111.075
 20
32.6125
  1
700
 40
3.0
 50
90.0
 72
     5
 11
-111.075
 21
37.4875
  0
ENDBLK
  0
BLOCK
  2
*DIM_0003
 70
    65
 10
0.0
 20
0.0
  0
LINE
  8
寸法
  6
BYBLOCK
 62
     0
 10
-68.66511
 20
59.73238
 11
-68.66511
 21
88.840452
  0
LINE
  8
寸法
  6
BYBLOCK
 62
     0
 10
-41.998442
 20
59.73238
 11
-41.998442
 21
88.840452
  0
LINE
  8
寸法
  6
BYBLOCK
 62
     0
 10
-68.66511
 20
88.840452
 11
-41.998442
 21
88.840452
  0
POINT
  8
寸法
 62
     0
 10
-68.66511
 20
88.840452
  0
POINT
  8
寸法
 62
     0
 10
-41.998442
 20
88.840452
  0
TEXT
  7
TextStyle03
  8
寸法
  6
CONTINUOUS
 62
     0
 10
-57.7875
 20
89.2
  1
800
 40
3.0
 72
     5
 11
-52.9125
 21
89.2
  0
ENDBLK
  0
BLOCK
  2
*DIM_0004
 70
    65
 10
0.0
 20
0.0
  0
LINE
  8
寸法
  6
BYBLOCK
 62
     0
 10
-15.331778
 20
59.73238
 11
-15.331778
 21
88.840452
  0
LINE
  8
寸法
  6
BYBLOCK
 62
     0
 10
-41.998442
 20
88.840452
 11
-15.331778
 21
88.840452
  0
POINT
  8
寸法
 62
     0
 10
-15.331778
 20
88.840452
  0
TEXT
  7
TextStyle03
  8
寸法
  6
CONTINUOUS
 62
     0
 10
-31.1125
 20
89.2
  1
800
 40
3.0
 72
     5
 11
-26.2375
 21
89.2
  0
ENDBLK
  0
BLOCK
  2
*DIM_0005
 70
    65
 10
0.0
 20
0.0
  0
LINE
  8
寸法
  6
BYBLOCK
 62
     0
 10
11.33489
 20
59.73238
 11
11.33489
 21
88.840452
  0
LINE
  8
寸法
  6
BYBLOCK
 62
     0
 10
-15.331778
 20
88.840452
 11
11.33489
 21
88.840452
  0
POINT
  8
寸法
 62
     0
 10
11.33489
 20
88.840452
  0
TEXT
  7
TextStyle03
  8
寸法
  6
CONTINUOUS
 62
     0
 10
-4.4375
 20
89.2
  1
800
 40
3.0
 72
     5
 11
0.4375
 21
89.2
  0
ENDBLK
  0
BLOCK
  2
*DIM_0006
 70
    65
 10
0.0
 20
0.0
  0
LINE
  8
寸法
  6
BYBLOCK
 62
     0
 10
-61.998442
 20
3.102882
 11
-61.998442
 21
-1.46801
  0
LINE
  8
寸法
  6
BYBLOCK
 62
     0
 10
4.668223
 20
3.102882
 11
4.668223
 21
-1.46801
  0
LINE
  8
寸法
  6
BYBLOCK
 62
     0
 10
-61.998442
 20
-1.46801
 11
4.668223
 21
-1.46801
  0
POINT
  8
寸法
 62
     0
 10
-61.998442
 20
-1.46801
  0
POINT
  8
寸法
 62
     0
 10
4.668223
 20
-1.46801
  0
TEXT
  7
TextStyle03
  8
寸法
  6
CONTINUOUS
 62
     0
 10
-31.95625
 20
-1.1
  1
2000
 40
3.0
 72
     5
 11
-25.39375
 21
-1.1
  0
ENDBLK
  0
BLOCK
  2
*DIM_0007
 70
    65
 10
0.0
 20
0.0
  0
LINE
  8
寸法
  6
CONTINUOUS
 10
88.2387
 20
-42.657643
 11
88.2387
 21
-33.303115
  0
LINE
  8
寸法
  6
CONTINUOUS
 10
120.572033
 20
-42.657643
 11
120.572033
 21
-33.303115
  0
LINE
  8
寸法
  6
CONTINUOUS
 10
88.2387
 20
-33.303115
 11
120.572033
 21
-33.303115
  0
POINT
  8
寸法
 10
88.2387
 20
-33.303115
  0
POINT
  8
寸法
 10
120.572033
 20
-33.303115
  0
TEXT
  7
TextStyle03
  8
寸法
  6
CONTINUOUS
 10
101.9375
 20
-32.95
  1
970
 40
3.0
 72
     5
 11
106.8125
 21
-32.95
  0
ENDBLK
  0
BLOCK
  2
*DIM_0008
 70
    65
 10
0.0
 20
0.0
  0
LINE
  8
寸法
  6
CONTINUOUS
 10
121.572033
 20
-43.657643
 11
130.54774
 21
-43.657643
  0
LINE
  8
寸法
  6
CONTINUOUS
 10
121.572033
 20
-86.990975
 11
130.54774
 21
-86.990975
  0
LINE
  8
寸法
  6
CONTINUOUS
 10
130.54774
 20
-43.657643
 11
130.54774
 21
-86.990975
  0
POINT
  8
寸法
 10
130.54774
 20
-43.657643
  0
POINT
  8
寸法
 10
130.54774
 20
-86.990975
  0
TEXT
  7
TextStyle03
  8
寸法
  6
CONTINUOUS
 10
130.15
 20
-68.60625
  1
1300
 40
3.0
 50
90.0
 72
     5
 11
130.15
 21
-62.04375
  0
ENDBLK
  0
BLOCK
  2
*GRP_0009
 70
    65
 10
0.0
 20
0.0
  0
LINE
  8
型材断面
  6
DOT
 62
    47
 10
79.9005
 20
27.149688
 11
81.24403
 21
25.806157
  0
LINE
  8
型材断面
  6
DOT
 62
    47
 10
111.95603
 20
59.205218
 11
113.29956
 21
57.861687
  0
LINE
  8
型材断面
  6
DOT
 10
81.24403
 20
25.806157
 11
113.29956
 21
57.861687
  0
LINE
  8
型材断面
  6
DOT
 10
110.777572
 20
59.370095
 11
110.428675
 21
59.718993
  0
LINE
  8
型材断面
  6
DOT
 10
111.755727
 20
60.34825
 11
112.227132
 21
59.876848
  0
LINE
  8
型材断面
  6
DOT
 10
79.73559
 20
28.328112
 11
79.386695
 21
28.677012
  0
LINE
  8
型材断面
  6
DOT
 10
110.428675
 20
59.718993
 11
79.386695
 21
28.677012
  0
LINE
  8
型材断面
  6
DOT
 10
111.755727
 20
60.34825
 11
78.757435
 21
27.349957
  0
LINE
  8
型材断面
  6
DOT
 10
78.757435
 20
27.349957
 11
79.22884
 21
26.878552
  0
LINE
  8
型材断面
  6
DOT
 10
112.227132
 20
59.876848
 11
79.22884
 21
26.878552
  0
ENDBLK
  0
BLOCK
  2
*GRP_0010
 70
    65
 10
0.0
 20
0.0
  0
LINE
  8
ボルト／ビス
  6
CONTINUOUS
 10
110.511655
 20
12.732382
 11
110.044985
 21
12.732382
  0
LINE
  8
ボルト／ビス
  6
CONTINUOUS
 10
110.511655
 20
12.365712
 11
110.444985
 21
12.365712
  0
LINE
  8
ボルト／ビス
  6
CONTINUOUS
 10
110.444985
 20
12.365712
 11
110.444985
 21
13.099048
  0
LINE
  8
ボルト／ビス
  6
CONTINUOUS
 10
110.444985
 20
13.099048
 11
110.511655
 21
13.099048
  0
LINE
  8
ボルト／ビス
  6
CONTINUOUS
 10
110.511655
 20
12.365712
 11
110.511655
 21
13.099048
  0
LINE
  8
ボルト／ビス
  6
CONTINUOUS
 10
110.411655
 20
12.432382
 11
110.444985
 21
12.432382
  0
LINE
  8
ボルト／ビス
  6
CONTINUOUS
 10
110.411655
 20
12.432382
 11
110.411655
 21
13.032382
  0
LINE
  8
ボルト／ビス
  6
CONTINUOUS
 10
110.411655
 20
13.032382
 11
110.444985
 21
13.032382
  0
LINE
  8
ボルト／ビス
  6
CONTINUOUS
 62
    64
 10
110.211655
 20
12.572007
 11
110.22333
 21
12.539933
  0
ARC
  8
ボルト／ビス
  6
CONTINUOUS
 62
    64
 10
110.316635
 20
12.588042
 40
0.104978
 50
152.721967
 51
180.0
  0
ARC
  8
ボルト／ビス
  6
CONTINUOUS
 62
    64
 10
110.614059
 20
12.73238
 40
0.402402
 50
166.165002
 51
193.834985
  0
LINE
  8
ボルト／ビス
  6
CONTINUOUS
 62
    64
 10
110.211655
 20
12.892757
 11
110.22333
 21
12.924833
  0
ARC
  8
ボルト／ビス
  6
CONTINUOUS
 62
    64
 10
110.316635
 20
12.876718
 40
0.104978
 50
180.0
 51
207.278033
  0
LINE
  8
ボルト／ビス
  6
CONTINUOUS
 62
    64
 10
110.211655
 20
12.572007
 11
110.211655
 21
12.892757
  0
LINE
  8
ボルト／ビス
  6
CONTINUOUS
 62
    64
 10
110.22333
 20
12.924833
 11
110.344985
 21
12.924833
  0
LINE
  8
ボルト／ビス
  6
CONTINUOUS
 62
    64
 10
110.22333
 20
12.828607
 11
110.344985
 21
12.828607
  0
LINE
  8
ボルト／ビス
  6
CONTINUOUS
 62
    64
 10
110.22333
 20
12.539933
 11
110.344985
 21
12.539933
  0
LINE
  8
ボルト／ビス
  6
CONTINUOUS
 62
    64
 10
110.22333
 20
12.636158
 11
110.344985
 21
12.636158
  0
LINE
  8
ボルト／ビス
  6
CONTINUOUS
 10
110.344985
 20
12.539933
 11
110.344985
 21
12.924833
  0
LINE
  8
ボルト／ビス
  6
CONTINUOUS
 10
110.344985
 20
12.532382
 11
110.411655
 21
12.532382
  0
LINE
  8
ボルト／ビス
  6
CONTINUOUS
 10
110.344985
 20
12.532382
 11
110.344985
 21
12.932382
  0
LINE
  8
ボルト／ビス
  6
CONTINUOUS
 10
110.344985
 20
12.932382
 11
110.411655
 21
12.932382
  0
ENDBLK
  0
BLOCK
  2
*GRP_0011
 70
    65
 10
0.0
 20
0.0
  0
LINE
  8
ボルト／ビス
  6
CONTINUOUS
 10
110.511655
 20
57.399052
 11
110.044985
 21
57.399052
  0
LINE
  8
ボルト／ビス
  6
CONTINUOUS
 10
110.511655
 20
57.76572
 11
110.444985
 21
57.76572
  0
LINE
  8
ボルト／ビス
  6
CONTINUOUS
 10
110.444985
 20
57.76572
 11
110.444985
 21
57.032385
  0
LINE
  8
ボルト／ビス
  6
CONTINUOUS
 10
110.444985
 20
57.032385
 11
110.511655
 21
57.032385
  0
LINE
  8
ボルト／ビス
  6
CONTINUOUS
 10
110.511655
 20
57.76572
 11
110.511655
 21
57.032385
  0
LINE
  8
ボルト／ビス
  6
CONTINUOUS
 10
110.411655
 20
57.699052
 11
110.444985
 21
57.699052
  0
LINE
  8
ボルト／ビス
  6
CONTINUOUS
 10
110.411655
 20
57.699052
 11
110.411655
 21
57.099052
  0
LINE
  8
ボルト／ビス
  6
CONTINUOUS
 10
110.411655
 20
57.099052
 11
110.444985
 21
57.099052
  0
LINE
  8
ボルト／ビス
  6
CONTINUOUS
 62
    64
 10
110.211655
 20
57.559427
 11
110.22333
 21
57.591503
  0
ARC
  8
ボルト／ビス
  6
CONTINUOUS
 62
    64
 10
110.316635
 20
57.54339
 40
0.104978
 50
180.0
 51
207.278033
  0
ARC
  8
ボルト／ビス
  6
CONTINUOUS
 62
    64
 10
110.614059
 20
57.399052
 40
0.402402
 50
166.165015
 51
193.834998
  0
LINE
  8
ボルト／ビス
  6
CONTINUOUS
 62
    64
 10
110.211655
 20
57.238678
 11
110.22333
 21
57.206603
  0
ARC
  8
ボルト／ビス
  6
CONTINUOUS
 62
    64
 10
110.316635
 20
57.254715
 40
0.104978
 50
152.721967
 51
180.0
  0
LINE
  8
ボルト／ビス
  6
CONTINUOUS
 62
    64
 10
110.211655
 20
57.559427
 11
110.211655
 21
57.238678
  0
LINE
  8
ボルト／ビス
  6
CONTINUOUS
 62
    64
 10
110.22333
 20
57.206603
 11
110.344985
 21
57.206603
  0
LINE
  8
ボルト／ビス
  6
CONTINUOUS
 62
    64
 10
110.22333
 20
57.302828
 11
110.344985
 21
57.302828
  0
LINE
  8
ボルト／ビス
  6
CONTINUOUS
 62
    64
 10
110.22333
 20
57.591503
 11
110.344985
 21
57.591503
  0
LINE
  8
ボルト／ビス
  6
CONTINUOUS
 62
    64
 10
110.22333
 20
57.495277
 11
110.344985
 21
57.495277
  0
LINE
  8
ボルト／ビス
  6
CONTINUOUS
 10
110.344985
 20
57.591503
 11
110.344985
 21
57.206603
  0
LINE
  8
ボルト／ビス
  6
CONTINUOUS
 10
110.344985
 20
57.599052
 11
110.411655
 21
57.599052
  0
LINE
  8
ボルト／ビス
  6
CONTINUOUS
 10
110.344985
 20
57.599052
 11
110.344985
 21
57.199052
  0
LINE
  8
ボルト／ビス
  6
CONTINUOUS
 10
110.344985
 20
57.199052
 11
110.411655
 21
57.199052
  0
ENDBLK
  0
BLOCK
  2
*GRP_0012
 70
    65
 10
0.0
 20
0.0
  0
INSERT
  2
*GRP_0013
  8
補助線
  6
CONTINUOUS
 10
0.0
 20
0.0
  0
CIRCLE
  8
別途部材
  6
CONTINUOUS
 10
113.51169
 20
57.932397
 40
0.2
  0
CIRCLE
  8
別途部材
  6
CONTINUOUS
 10
113.51169
 20
57.932397
 40
0.1
  0
LINE
  8
別途部材
  6
CONTINUOUS
 10
112.11169
 20
57.832397
 11
112.11169
 21
57.732397
  0
LINE
  8
別途部材
  6
CONTINUOUS
 10
113.51169
 20
57.732397
 11
112.11169
 21
57.732397
  0
LINE
  8
別途部材
  6
CONTINUOUS
 10
112.11169
 20
57.832397
 11
113.338485
 21
57.832397
  0
LINE
  8
別途部材
  6
CONTINUOUS
 10
114.91169
 20
57.832397
 11
114.91169
 21
57.732397
  0
LINE
  8
別途部材
  6
CONTINUOUS
 10
113.51169
 20
57.732397
 11
114.91169
 21
57.732397
  0
LINE
  8
別途部材
  6
CONTINUOUS
 10
114.91169
 20
57.832397
 11
113.684895
 21
57.832397
  0
LINE
  8
別途部材
  6
CONTINUOUS
 10
112.378355
 20
57.832397
 11
112.378355
 21
57.732397
  0
LINE
  8
別途部材
  6
CONTINUOUS
 10
112.645023
 20
57.832397
 11
112.645023
 21
57.732397
  0
LINE
  8
別途部材
  6
CONTINUOUS
 10
112.91169
 20
57.832397
 11
112.91169
 21
57.732397
  0
LINE
  8
別途部材
  6
CONTINUOUS
 10
114.645023
 20
57.832397
 11
114.645023
 21
57.732397
  0
LINE
  8
別途部材
  6
CONTINUOUS
 10
114.378355
 20
57.832397
 11
114.378355
 21
57.732397
  0
LINE
  8
別途部材
  6
CONTINUOUS
 10
114.11169
 20
57.832397
 11
114.11169
 21
57.732397
  0
ENDBLK
  0
BLOCK
  2
*GRP_0013
 70
    65
 10
0.0
 20
0.0
  0
LINE
  8
補助線
  6
BYBLOCK
 62
     0
 10
113.51169
 20
57.76573
 11
113.51169
 21
58.099063
  0
LINE
  8
補助線
  6
BYBLOCK
 62
     0
 10
113.345023
 20
57.932397
 11
113.678355
 21
57.932397
  0
ENDBLK
  0
BLOCK
  2
*DIM_0014
 70
    65
 10
0.0
 20
0.0
  0
LINE
  8
寸法
  6
CONTINUOUS
 10
119.011652
 20
64.232397
 11
119.011652
 21
70.020713
  0
LINE
  8
寸法
  6
CONTINUOUS
 10
116.011652
 20
58.732397
 11
116.011652
 21
70.020713
  0
LINE
  8
寸法
  6
CONTINUOUS
 10
119.011652
 20
70.020713
 11
116.011652
 21
70.020713
  0
POINT
  8
寸法
 10
119.011652
 20
70.020713
  0
POINT
  8
寸法
 10
116.011652
 20
70.020713
  0
TEXT
  7
TextStyle03
  8
寸法
  6
CONTINUOUS
 10
116.0
 20
70.375
  1
※
 40
3.0
 72
     5
 11
119.0
 21
70.375
  0
ENDBLK
  0
BLOCK
  2
*DIM_0015
 70
    65
 10
0.0
 20
0.0
  0
LINE
  8
寸法
  6
CONTINUOUS
 10
110.068355
 20
58.015688
 11
110.068355
 21
70.020713
  0
LINE
  8
寸法
  6
CONTINUOUS
 10
116.011652
 20
70.020713
 11
110.068355
 21
70.020713
  0
POINT
  8
寸法
 10
110.068355
 20
70.020713
  0
TEXT
  7
TextStyle03
  8
寸法
  6
CONTINUOUS
 10
100.05
 20
67.375
  1
178.3
 40
3.0
 72
     5
 11
108.3
 21
67.375
  0
ENDBLK
  0
BLOCK
  2
*DIM_0016
 70
    65
 10
0.0
 20
0.0
  0
LINE
  8
寸法
  6
CONTINUOUS
 10
115.67832
 20
6.899033
 11
73.197543
 21
6.899033
  0
LINE
  8
寸法
  6
CONTINUOUS
 10
73.197543
 20
13.399048
 11
73.197543
 21
6.899033
  0
POINT
  8
寸法
 10
73.197543
 20
13.399048
  0
POINT
  8
寸法
 10
73.197543
 20
6.899033
  0
TEXT
  7
TextStyle03
  8
寸法
  6
CONTINUOUS
 10
72.8
 20
8.625
  1
※
 40
3.0
 50
90.0
 72
     5
 11
72.8
 21
11.625
  0
ENDBLK
  0
BLOCK
  2
*DIM_0017
 70
    65
 10
0.0
 20
0.0
  0
LINE
  8
寸法
  6
CONTINUOUS
 10
115.67832
 20
63.232397
 11
73.197543
 21
63.232397
  0
LINE
  8
寸法
  6
CONTINUOUS
 10
73.197543
 20
56.732382
 11
73.197543
 21
63.232397
  0
POINT
  8
寸法
 10
73.197543
 20
56.732382
  0
POINT
  8
寸法
 10
73.197543
 20
63.232397
  0
TEXT
  7
TextStyle03
  8
寸法
  6
CONTINUOUS
 10
72.8
 20
58.475
  1
※
 40
3.0
 50
90.0
 72
     5
 11
72.8
 21
61.475
  0
ENDBLK
  0
BLOCK
  2
*DIM_0018
 70
    65
 10
0.0
 20
0.0
  0
LINE
  8
寸法
  6
CONTINUOUS
 10
73.197543
 20
56.732382
 11
73.197543
 21
13.399048
  0
POINT
  8
寸法
 10
73.197543
 20
56.732382
  0
POINT
  8
寸法
 10
73.197543
 20
13.399048
  0
TEXT
  7
TextStyle03
  8
寸法
  6
CONTINUOUS
 10
72.8
 20
23.33125
  1
呼称寸法　1300
 40
3.0
 50
90.0
 72
     5
 11
72.8
 21
46.76875
  0
ENDBLK
  0
BLOCK
  2
*DIM_0019
 70
    65
 10
0.0
 20
0.0
  0
LINE
  8
寸法
  6
BYBLOCK
 62
     0
 10
21.33489
 20
-22.536362
 11
-78.66511
 21
-22.536362
  0
POINT
  8
寸法
 62
     0
 10
21.33489
 20
-22.536362
  0
POINT
  8
寸法
 62
     0
 10
-78.66511
 20
-22.536362
  0
TEXT
  7
TextStyle03
  8
寸法
  6
CONTINUOUS
 62
     0
 10
-40.41875
 20
-22.15
  1
呼称寸法　3000
 40
3.0
 72
     5
 11
-16.98125
 21
-22.15
  0
ENDBLK
  0
BLOCK
  2
*GRP_0020
 70
    65
 10
0.0
 20
0.0
  0
LINE
  8
ボルト／ビス
  6
CONTINUOUS
 10
-79.331775
 20
-79.624593
 11
-79.331775
 21
-79.157925
  0
LINE
  8
ボルト／ビス
  6
CONTINUOUS
 10
-78.965107
 20
-79.624593
 11
-78.965107
 21
-79.557925
  0
LINE
  8
ボルト／ビス
  6
CONTINUOUS
 10
-78.965107
 20
-79.557925
 11
-79.698442
 21
-79.557925
  0
LINE
  8
ボルト／ビス
  6
CONTINUOUS
 10
-79.698442
 20
-79.557925
 11
-79.698442
 21
-79.624593
  0
LINE
  8
ボルト／ビス
  6
CONTINUOUS
 10
-78.965107
 20
-79.624593
 11
-79.698442
 21
-79.624593
  0
LINE
  8
ボルト／ビス
  6
CONTINUOUS
 10
-79.031775
 20
-79.524593
 11
-79.031775
 21
-79.557925
  0
LINE
  8
ボルト／ビス
  6
CONTINUOUS
 10
-79.031775
 20
-79.524593
 11
-79.631775
 21
-79.524593
  0
LINE
  8
ボルト／ビス
  6
CONTINUOUS
 10
-79.631775
 20
-79.524593
 11
-79.631775
 21
-79.557925
  0
LINE
  8
ボルト／ビス
  6
CONTINUOUS
 62
    64
 10
-79.1714
 20
-79.324593
 11
-79.139325
 21
-79.336268
  0
ARC
  8
ボルト／ビス
  6
CONTINUOUS
 62
    64
 10
-79.187437
 20
-79.429573
 40
0.104978
 50
90.0
 51
117.278033
  0
ARC
  8
ボルト／ビス
  6
CONTINUOUS
 62
    64
 10
-79.331774
 20
-79.726997
 40
0.402402
 50
76.165015
 51
103.834998
  0
LINE
  8
ボルト／ビス
  6
CONTINUOUS
 62
    64
 10
-79.49215
 20
-79.324593
 11
-79.524225
 21
-79.336268
  0
ARC
  8
ボルト／ビス
  6
CONTINUOUS
 62
    64
 10
-79.476112
 20
-79.429573
 40
0.104978
 50
62.721967
 51
90.0
  0
LINE
  8
ボルト／ビス
  6
CONTINUOUS
 62
    64
 10
-79.1714
 20
-79.324593
 11
-79.49215
 21
-79.324593
  0
LINE
  8
ボルト／ビス
  6
CONTINUOUS
 62
    64
 10
-79.524225
 20
-79.336268
 11
-79.524225
 21
-79.457925
  0
LINE
  8
ボルト／ビス
  6
CONTINUOUS
 62
    64
 10
-79.428
 20
-79.336268
 11
-79.428
 21
-79.457925
  0
LINE
  8
ボルト／ビス
  6
CONTINUOUS
 62
    64
 10
-79.139325
 20
-79.336268
 11
-79.139325
 21
-79.457925
  0
LINE
  8
ボルト／ビス
  6
CONTINUOUS
 62
    64
 10
-79.23555
 20
-79.336268
 11
-79.23555
 21
-79.457925
  0
LINE
  8
ボルト／ビス
  6
CONTINUOUS
 10
-79.139325
 20
-79.457925
 11
-79.524225
 21
-79.457925
  0
LINE
  8
ボルト／ビス
  6
CONTINUOUS
 10
-79.131775
 20
-79.457925
 11
-79.131775
 21
-79.524593
  0
LINE
  8
ボルト／ビス
  6
CONTINUOUS
 10
-79.131775
 20
-79.457925
 11
-79.531775
 21
-79.457925
  0
LINE
  8
ボルト／ビス
  6
CONTINUOUS
 10
-79.531775
 20
-79.457925
 11
-79.531775
 21
-79.524593
  0
ENDBLK
  0
BLOCK
  2
*GRP_0021
 70
    65
 10
0.0
 20
0.0
  0
LINE
  8
ボルト／ビス
  6
CONTINUOUS
 10
22.00156
 20
-79.624597
 11
22.00156
 21
-79.15793
  0
LINE
  8
ボルト／ビス
  6
CONTINUOUS
 10
22.368227
 20
-79.624597
 11
22.368227
 21
-79.55793
  0
LINE
  8
ボルト／ビス
  6
CONTINUOUS
 10
22.368227
 20
-79.55793
 11
21.634893
 21
-79.55793
  0
LINE
  8
ボルト／ビス
  6
CONTINUOUS
 10
21.634893
 20
-79.55793
 11
21.634893
 21
-79.624597
  0
LINE
  8
ボルト／ビス
  6
CONTINUOUS
 10
22.368227
 20
-79.624597
 11
21.634893
 21
-79.624597
  0
LINE
  8
ボルト／ビス
  6
CONTINUOUS
 10
22.30156
 20
-79.524597
 11
22.30156
 21
-79.55793
  0
LINE
  8
ボルト／ビス
  6
CONTINUOUS
 10
22.30156
 20
-79.524597
 11
21.70156
 21
-79.524597
  0
LINE
  8
ボルト／ビス
  6
CONTINUOUS
 10
21.70156
 20
-79.524597
 11
21.70156
 21
-79.55793
  0
LINE
  8
ボルト／ビス
  6
CONTINUOUS
 62
    64
 10
22.161935
 20
-79.324597
 11
22.19401
 21
-79.336272
  0
ARC
  8
ボルト／ビス
  6
CONTINUOUS
 62
    64
 10
22.145898
 20
-79.429578
 40
0.104978
 50
90.0
 51
117.278033
  0
ARC
  8
ボルト／ビス
  6
CONTINUOUS
 62
    64
 10
22.001561
 20
-79.727002
 40
0.402402
 50
76.165015
 51
103.834998
  0
LINE
  8
ボルト／ビス
  6
CONTINUOUS
 62
    64
 10
21.841185
 20
-79.324597
 11
21.80911
 21
-79.336272
  0
ARC
  8
ボルト／ビス
  6
CONTINUOUS
 62
    64
 10
21.857223
 20
-79.429578
 40
0.104978
 50
62.721967
 51
90.0
  0
LINE
  8
ボルト／ビス
  6
CONTINUOUS
 62
    64
 10
22.161935
 20
-79.324597
 11
21.841185
 21
-79.324597
  0
LINE
  8
ボルト／ビス
  6
CONTINUOUS
 62
    64
 10
21.80911
 20
-79.336272
 11
21.80911
 21
-79.45793
  0
LINE
  8
ボルト／ビス
  6
CONTINUOUS
 62
    64
 10
21.905335
 20
-79.336272
 11
21.905335
 21
-79.45793
  0
LINE
  8
ボルト／ビス
  6
CONTINUOUS
 62
    64
 10
22.19401
 20
-79.336272
 11
22.19401
 21
-79.45793
  0
LINE
  8
ボルト／ビス
  6
CONTINUOUS
 62
    64
 10
22.097785
 20
-79.336272
 11
22.097785
 21
-79.45793
  0
LINE
  8
ボルト／ビス
  6
CONTINUOUS
 10
22.19401
 20
-79.45793
 11
21.80911
 21
-79.45793
  0
LINE
  8
ボルト／ビス
  6
CONTINUOUS
 10
22.20156
 20
-79.45793
 11
22.20156
 21
-79.524597
  0
LINE
  8
ボルト／ビス
  6
CONTINUOUS
 10
22.20156
 20
-79.45793
 11
21.80156
 21
-79.45793
  0
LINE
  8
ボルト／ビス
  6
CONTINUOUS
 10
21.80156
 20
-79.45793
 11
21.80156
 21
-79.524597
  0
ENDBLK
  0
BLOCK
  2
*DIM_0022
 70
    65
 10
0.0
 20
0.0
  0
LINE
  8
寸法
  6
CONTINUOUS
 10
28.834902
 20
-88.124595
 11
37.30454
 21
-88.124595
  0
LINE
  8
寸法
  6
CONTINUOUS
 10
37.30454
 20
-85.124595
 11
37.30454
 21
-88.124595
  0
POINT
  8
寸法
 10
37.30454
 20
-88.124595
  0
TEXT
  7
TextStyle03
  8
寸法
  6
CONTINUOUS
 10
36.9
 20
-88.125
  1
※
 40
3.0
 50
90.0
 72
     5
 11
36.9
 21
-85.125
  0
ENDBLK
  0
BLOCK
  2
*DIM_0023
 70
    65
 10
0.0
 20
0.0
  0
LINE
  8
寸法
  6
CONTINUOUS
 10
27.834902
 20
-84.791265
 11
27.834902
 21
-22.536362
  0
LINE
  8
寸法
  6
CONTINUOUS
 10
21.33489
 20
-22.536362
 11
27.834902
 21
-22.536362
  0
POINT
  8
寸法
 10
21.33489
 20
-22.536362
  0
POINT
  8
寸法
 10
27.834902
 20
-22.536362
  0
TEXT
  7
TextStyle03
  8
寸法
  6
CONTINUOUS
 10
23.05
 20
-22.15
  1
※
 40
3.0
 72
     5
 11
26.05
 21
-22.15
  0
ENDBLK
  0
BLOCK
  2
*DIM_0024
 70
    65
 10
0.0
 20
0.0
  0
LINE
  8
寸法
  6
CONTINUOUS
 10
-85.165125
 20
-84.791265
 11
-85.165125
 21
-22.536362
  0
LINE
  8
寸法
  6
CONTINUOUS
 10
-78.66511
 20
-22.536362
 11
-85.165125
 21
-22.536362
  0
POINT
  8
寸法
 10
-78.66511
 20
-22.536362
  0
POINT
  8
寸法
 10
-85.165125
 20
-22.536362
  0
TEXT
  7
TextStyle03
  8
寸法
  6
CONTINUOUS
 10
-83.45
 20
-22.15
  1
※
 40
3.0
 72
     5
 11
-80.45
 21
-22.15
  0
ENDBLK
  0
BLOCK
  2
*DIM_0025
 70
    65
 10
0.0
 20
0.0
  0
LINE
  8
寸法
  6
CONTINUOUS
 10
23.334902
 20
-85.124595
 11
37.30454
 21
-85.124595
  0
LINE
  8
寸法
  6
CONTINUOUS
 10
22.568238
 20
-79.181297
 11
37.30454
 21
-79.181297
  0
LINE
  8
寸法
  6
CONTINUOUS
 10
37.30454
 20
-85.124595
 11
37.30454
 21
-79.181297
  0
POINT
  8
寸法
 10
37.30454
 20
-85.124595
  0
POINT
  8
寸法
 10
37.30454
 20
-79.181297
  0
TEXT
  7
TextStyle03
  8
寸法
  6
CONTINUOUS
 10
41.4
 20
-86.125
  1
178.3
 40
3.0
 50
90.0
 72
     5
 11
41.4
 21
-77.875
  0
ENDBLK
  0
ENDSEC
  0
SECTION
  2
ENTITIES
  0
POLYLINE
  8
通り芯
  6
CONTINUOUS
 66
     1
 70
     1
  0
VERTEX
  8
通り芯
 10
-210.0
 20
-148.5
  0
VERTEX
  8
通り芯
 10
210.0
 20
-148.5
  0
VERTEX
  8
通り芯
 10
210.0
 20
148.5
  0
VERTEX
  8
通り芯
 10
-210.0
 20
148.5
  0
SEQEND
  0
INSERT
  2
*GRP_0001
  8
型材断面
  6
CONTINUOUS
 10
0.0
 20
0.0
  0
LINE
  8
型材断面
  6
DASHDOT
 10
21.33489
 20
-87.251428
 11
21.33489
 21
56.73238
  0
LINE
  8
型材断面
  6
DASHDOT
 10
-28.66511
 20
-87.251428
 11
-28.66511
 21
56.73238
  0
LINE
  8
型材断面
  6
DASHDOT
 10
-78.66511
 20
-87.251428
 11
-78.66511
 21
56.73238
  0
LINE
  8
型材断面
  6
DASHDOT
 10
119.011652
 20
13.399048
 11
-78.66511
 21
13.399048
  0
LINE
  8
型材断面
  6
DASHDOT
 10
119.011652
 20
35.065715
 11
-78.66511
 21
35.065715
  0
LINE
  8
型材断面
  6
DASHDOT
 10
119.011652
 20
56.73238
 11
-78.66511
 21
56.73238
  0
LINE
  8
型材断面
  6
CONTINUOUS
 10
-81.29524
 20
35.065715
 11
-83.885747
 21
36.561345
  0
LINE
  8
型材断面
  6
CONTINUOUS
 10
-81.29524
 20
35.065715
 11
-83.885747
 21
33.570085
  0
LINE
  8
型材断面
  6
CONTINUOUS
 10
-83.885747
 20
33.570085
 11
-83.885747
 21
36.561345
  0
LINE
  8
型材断面
  6
CONTINUOUS
 10
-61.998442
 20
59.36251
 11
-63.494073
 21
61.953017
  0
LINE
  8
型材断面
  6
CONTINUOUS
 10
-61.998442
 20
59.36251
 11
-60.502812
 21
61.953017
  0
LINE
  8
型材断面
  6
CONTINUOUS
 10
-60.502812
 20
61.953017
 11
-63.494073
 21
61.953017
  0
LINE
  8
型材断面
  6
CONTINUOUS
 10
-119.517317
 20
94.709852
 11
-118.921263
 21
92.119345
  0
LINE
  8
型材断面
  6
CONTINUOUS
 10
-119.517317
 20
94.709852
 11
-120.113375
 21
92.119345
  0
LINE
  8
型材断面
  6
CONTINUOUS
 10
-120.113375
 20
92.119345
 11
-118.921263
 21
92.119345
  0
LINE
  8
型材断面
  6
CONTINUOUS
 10
-125.539905
 20
88.840452
 11
-79.298128
 21
88.840452
  0
LINE
  8
型材断面
  6
CONTINUOUS
 10
-119.517317
 20
101.239727
 11
-121.012947
 21
98.64922
  0
LINE
  8
型材断面
  6
CONTINUOUS
 10
-119.517317
 20
101.239727
 11
-118.021688
 21
98.64922
  0
LINE
  8
型材断面
  6
CONTINUOUS
 10
-118.021688
 20
98.64922
 11
-121.012947
 21
98.64922
  0
LINE
  8
型材断面
  6
CONTINUOUS
 10
-125.539905
 20
97.710625
 11
-79.298128
 21
97.710625
  0
LINE
  8
型材断面
  6
CONTINUOUS
 10
-125.539905
 20
83.05242
 11
-79.298128
 21
83.05242
  0
LINE
  8
型材断面
  6
CONTINUOUS
 10
-61.998442
 20
10.76892
 11
-63.494073
 21
8.178413
  0
LINE
  8
型材断面
  6
CONTINUOUS
 10
-61.998442
 20
10.76892
 11
-60.502812
 21
8.178413
  0
LINE
  8
型材断面
  6
CONTINUOUS
 10
-60.502812
 20
8.178413
 11
-63.494073
 21
8.178413
  0
LINE
  8
型材断面
  6
CONTINUOUS
 10
23.96502
 20
35.065715
 11
26.555528
 21
36.561345
  0
LINE
  8
型材断面
  6
CONTINUOUS
 10
23.96502
 20
35.065715
 11
26.555528
 21
33.570085
  0
LINE
  8
型材断面
  6
CONTINUOUS
 10
26.555528
 20
33.570085
 11
26.555528
 21
36.561345
  0
LINE
  8
型材断面
  6
CONTINUOUS
 10
4.668223
 20
59.36251
 11
6.163853
 21
61.953017
  0
LINE
  8
型材断面
  6
CONTINUOUS
 10
4.668223
 20
59.36251
 11
3.172593
 21
61.953017
  0
LINE
  8
型材断面
  6
CONTINUOUS
 10
3.172593
 20
61.953017
 11
6.163853
 21
61.953017
  0
LINE
  8
型材断面
  6
CONTINUOUS
 10
4.668223
 20
10.76892
 11
6.163853
 21
8.178413
  0
LINE
  8
型材断面
  6
CONTINUOUS
 10
4.668223
 20
10.76892
 11
3.172593
 21
8.178413
  0
LINE
  8
型材断面
  6
CONTINUOUS
 10
3.172593
 20
8.178413
 11
6.163853
 21
8.178413
  0
LINE
  8
型材断面
  6
CONTINUOUS
 10
-85.165125
 20
6.899033
 11
-80.73178
 21
11.332378
  0
LINE
  8
型材断面
  6
CONTINUOUS
 10
23.401557
 20
11.332378
 11
27.834902
 21
6.899033
  0
LINE
  8
型材断面
  6
CONTINUOUS
 10
27.834902
 20
6.899033
 11
-85.165125
 21
6.899033
  0
LINE
  8
型材断面
  6
CONTINUOUS
 10
-80.73178
 20
58.79905
 11
-85.165125
 21
63.232395
  0
LINE
  8
型材断面
  6
CONTINUOUS
 10
-85.165125
 20
6.899033
 11
-85.165125
 21
63.232395
  0
LINE
  8
型材断面
  6
CONTINUOUS
 10
23.401557
 20
58.79905
 11
27.834902
 21
63.232395
  0
LINE
  8
型材断面
  6
CONTINUOUS
 10
27.834902
 20
63.232395
 11
27.834902
 21
6.899033
  0
LINE
  8
型材断面
  6
CONTINUOUS
 10
27.834902
 20
63.232395
 11
-85.165125
 21
63.232395
  0
POLYLINE
  8
型材断面
  6
DASHDOT
 66
     1
  0
VERTEX
  8
型材断面
 10
-78.66511
 20
13.399048
  0
VERTEX
  8
型材断面
 10
-28.66511
 20
56.73238
  0
VERTEX
  8
型材断面
 10
21.334887
 20
13.399048
  0
SEQEND
  0
LINE
  8
型材断面
  6
DASHDOT
 10
-11.748445
 20
56.73238
 11
-11.748445
 21
13.399048
  0
LINE
  8
型材断面
  6
DASHDOT
 10
-45.58178
 20
56.73238
 11
-45.58178
 21
13.399048
  0
LINE
  8
型材断面
  6
CONTINUOUS
 10
119.011652
 20
63.232397
 11
119.011652
 21
6.899033
  0
LINE
  8
型材断面
  6
CONTINUOUS
 10
116.67832
 20
63.232397
 11
116.67832
 21
6.899033
  0
LINE
  8
型材断面
  6
CONTINUOUS
 62
    47
 10
111.511652
 20
12.399033
 11
113.41169
 21
12.399033
  0
LINE
  8
型材断面
  6
CONTINUOUS
 10
113.61169
 20
12.399033
 11
116.011652
 21
12.399033
  0
LINE
  8
型材断面
  6
CONTINUOUS
 10
116.011652
 20
12.399033
 11
116.67832
 21
6.899033
  0
LINE
  8
型材断面
  6
CONTINUOUS
 10
119.011652
 20
6.899033
 11
116.67832
 21
6.899033
  0
LINE
  8
型材断面
  6
CONTINUOUS
 62
    47
 10
111.511652
 20
57.732397
 11
113.41169
 21
57.732397
  0
LINE
  8
型材断面
  6
CONTINUOUS
 10
113.61169
 20
57.732397
 11
116.011652
 21
57.732397
  0
LINE
  8
型材断面
  6
CONTINUOUS
 10
116.011652
 20
57.732397
 11
116.67832
 21
63.232397
  0
LINE
  8
型材断面
  6
CONTINUOUS
 10
119.011652
 20
63.232397
 11
116.67832
 21
63.232397
  0
LINE
  8
型材断面
  6
CONTINUOUS
 10
113.41169
 20
12.399033
 11
113.41169
 21
57.732397
  0
LINE
  8
型材断面
  6
CONTINUOUS
 10
113.61169
 20
12.399033
 11
113.61169
 21
57.732397
  0
LINE
  8
型材断面
  6
CONTINUOUS
 10
116.011652
 20
12.399033
 11
116.011652
 21
57.732397
  0
ARC
  8
型材断面
  6
DASHDOT
 10
113.511693
 20
57.932395
 40
46.297318
 50
221.284665
 51
266.284665
  0
LINE
  8
型材断面
  6
CONTINUOUS
 10
110.56177
 20
57.015688
 11
110.068355
 21
57.015688
  0
LINE
  8
型材断面
  6
CONTINUOUS
 10
110.56177
 20
58.39901
 11
111.228437
 21
58.39901
  0
LINE
  8
型材断面
  6
CONTINUOUS
 10
110.56177
 20
13.115697
 11
110.068355
 21
13.115697
  0
LINE
  8
型材断面
  6
CONTINUOUS
 10
110.068355
 20
57.015688
 11
110.068355
 21
13.115697
  0
LINE
  8
型材断面
  6
CONTINUOUS
 10
110.56177
 20
58.39901
 11
110.56177
 21
11.732378
  0
LINE
  8
型材断面
  6
CONTINUOUS
 10
110.56177
 20
11.732378
 11
111.228437
 21
11.732378
  0
LINE
  8
型材断面
  6
CONTINUOUS
 10
111.228437
 20
58.39901
 11
111.228437
 21
11.732378
  0
INSERT
  2
*GRP_0009
  8
型材断面
  6
DASHDOT
 10
0.0
 20
0.0
  0
LINE
  8
型材断面
  6
CONTINUOUS
 10
-80.33176
 20
11.732397
 11
-78.165092
 21
13.899067
  0
LINE
  8
型材断面
  6
CONTINUOUS
 10
-78.165092
 20
13.899067
 11
-78.165092
 21
56.232363
  0
LINE
  8
型材断面
  6
CONTINUOUS
 10
-78.948437
 20
13.11572
 11
-78.948437
 21
57.01571
  0
LINE
  8
型材断面
  6
CONTINUOUS
 10
-80.33176
 20
11.732397
 11
-80.33176
 21
58.399033
  0
LINE
  8
型材断面
  6
CONTINUOUS
 10
-80.33176
 20
58.399033
 11
-78.165092
 21
56.232363
  0
LINE
  8
型材断面
  6
CONTINUOUS
 10
20.834872
 20
13.899067
 11
23.00154
 21
11.732397
  0
LINE
  8
型材断面
  6
CONTINUOUS
 10
20.834872
 20
13.899067
 11
20.834872
 21
56.232363
  0
LINE
  8
型材断面
  6
CONTINUOUS
 10
21.618217
 20
13.11572
 11
21.618217
 21
57.01571
  0
LINE
  8
型材断面
  6
CONTINUOUS
 10
23.00154
 20
11.732397
 11
23.00154
 21
58.399033
  0
LINE
  8
型材断面
  6
CONTINUOUS
 10
20.834872
 20
56.232363
 11
23.00154
 21
58.399033
  0
LINE
  8
型材断面
  6
CONTINUOUS
 10
-78.165092
 20
13.899067
 11
20.834872
 21
13.899067
  0
LINE
  8
型材断面
  6
CONTINUOUS
 10
-78.948437
 20
13.11572
 11
21.618217
 21
13.11572
  0
LINE
  8
型材断面
  6
CONTINUOUS
 10
-80.33176
 20
11.732397
 11
23.00154
 21
11.732397
  0
LINE
  8
型材断面
  6
CONTINUOUS
 10
20.834872
 20
56.232363
 11
-78.165092
 21
56.232363
  0
LINE
  8
型材断面
  6
CONTINUOUS
 10
21.618217
 20
57.01571
 11
-78.948437
 21
57.01571
  0
LINE
  8
型材断面
  6
CONTINUOUS
 10
23.00154
 20
58.399033
 11
-80.33176
 21
58.399033
  0
LINE
  8
型材断面
  6
CONTINUOUS
 10
-46.748448
 20
14.732397
 11
-44.415113
 21
14.732397
  0
LINE
  8
型材断面
  6
CONTINUOUS
 10
-46.748448
 20
14.732397
 11
-46.748448
 21
55.399033
  0
LINE
  8
型材断面
  6
CONTINUOUS
 10
-46.748448
 20
55.399033
 11
-44.415113
 21
55.399033
  0
LINE
  8
型材断面
  6
CONTINUOUS
 10
-44.415113
 20
14.732397
 11
-44.415113
 21
55.399033
  0
LINE
  8
型材断面
  6
CONTINUOUS
 10
-45.248448
 20
14.732397
 11
-45.248448
 21
55.399033
  0
LINE
  8
型材断面
  6
CONTINUOUS
 10
-45.915113
 20
14.732397
 11
-45.915113
 21
55.399033
  0
LINE
  8
型材断面
  6
CONTINUOUS
 10
-12.915113
 20
14.732397
 11
-10.581778
 21
14.732397
  0
LINE
  8
型材断面
  6
CONTINUOUS
 10
-12.915113
 20
14.732397
 11
-12.915113
 21
55.399033
  0
LINE
  8
型材断面
  6
CONTINUOUS
 10
-12.915113
 20
55.399033
 11
-10.581778
 21
55.399033
  0
LINE
  8
型材断面
  6
CONTINUOUS
 10
-10.581778
 20
14.732397
 11
-10.581778
 21
55.399033
  0
LINE
  8
型材断面
  6
CONTINUOUS
 10
-11.415113
 20
14.732397
 11
-11.415113
 21
55.399033
  0
LINE
  8
型材断面
  6
CONTINUOUS
 10
-12.081778
 20
14.732397
 11
-12.081778
 21
55.399033
  0
LINE
  8
型材断面
  6
CONTINUOUS
 62
    47
 10
-79.665125
 20
-80.624595
 11
-79.665125
 21
-82.524635
  0
LINE
  8
型材断面
  6
CONTINUOUS
 10
-79.665125
 20
-82.724635
 11
-79.665125
 21
-85.124595
  0
LINE
  8
型材断面
  6
CONTINUOUS
 10
-79.665125
 20
-85.124595
 11
-85.165125
 21
-85.791265
  0
LINE
  8
型材断面
  6
CONTINUOUS
 10
-85.165125
 20
-88.124595
 11
-85.165125
 21
-85.791265
  0
LINE
  8
型材断面
  6
CONTINUOUS
 62
    47
 10
22.334902
 20
-80.624595
 11
22.334902
 21
-82.524635
  0
LINE
  8
型材断面
  6
CONTINUOUS
 10
22.334902
 20
-82.724635
 11
22.334902
 21
-85.124595
  0
LINE
  8
型材断面
  6
CONTINUOUS
 10
22.334902
 20
-85.124595
 11
27.834902
 21
-85.791265
  0
LINE
  8
型材断面
  6
CONTINUOUS
 10
27.834902
 20
-88.124595
 11
27.834902
 21
-85.791265
  0
LINE
  8
型材断面
  6
CONTINUOUS
 10
-85.165125
 20
-88.124595
 11
27.834902
 21
-88.124595
  0
LINE
  8
型材断面
  6
CONTINUOUS
 10
-85.165125
 20
-85.791265
 11
27.834902
 21
-85.791265
  0
LINE
  8
型材断面
  6
CONTINUOUS
 10
22.334902
 20
-82.524635
 11
-79.665125
 21
-82.524635
  0
LINE
  8
型材断面
  6
CONTINUOUS
 10
22.334902
 20
-82.724635
 11
-79.665125
 21
-82.724635
  0
LINE
  8
型材断面
  6
CONTINUOUS
 10
22.334902
 20
-85.124595
 11
-79.665125
 21
-85.124595
  0
LINE
  8
型材断面
  6
CONTINUOUS
 10
-78.94842
 20
-79.674712
 11
-78.94842
 21
-79.181297
  0
LINE
  8
型材断面
  6
CONTINUOUS
 10
-80.33174
 20
-79.674712
 11
-80.33174
 21
-80.34138
  0
LINE
  8
型材断面
  6
CONTINUOUS
 10
20.83489
 20
-79.181297
 11
21.568238
 21
-79.181297
  0
LINE
  8
型材断面
  6
CONTINUOUS
 10
21.618238
 20
-79.674712
 11
21.618238
 21
-79.181297
  0
LINE
  8
型材断面
  6
CONTINUOUS
 10
23.00156
 20
-79.674712
 11
23.00156
 21
-80.34138
  0
LINE
  8
型材断面
  6
CONTINUOUS
 10
-78.94842
 20
-79.181297
 11
21.618238
 21
-79.181297
  0
LINE
  8
型材断面
  6
CONTINUOUS
 10
-80.33174
 20
-79.674712
 11
23.00156
 21
-79.674712
  0
LINE
  8
型材断面
  6
CONTINUOUS
 10
-80.33174
 20
-80.34138
 11
23.00156
 21
-80.34138
  0
LINE
  8
ガラス
  6
CONTINUOUS
 10
120.572033
 20
-43.657643
 11
88.2387
 21
-43.657643
  0
LINE
  8
ガラス
  6
CONTINUOUS
 10
120.572033
 20
-43.657643
 11
120.572033
 21
-86.990975
  0
LINE
  8
ガラス
  6
CONTINUOUS
 10
88.2387
 20
-43.657643
 11
88.2387
 21
-86.990975
  0
LINE
  8
ガラス
  6
CONTINUOUS
 10
120.572033
 20
-86.990975
 11
88.2387
 21
-86.990975
  0
LINE
  8
ガラス
  6
CONTINUOUS
 10
-59.49404
 20
37.696675
 11
-64.75597
 21
32.434748
  0
LINE
  8
ガラス
  6
CONTINUOUS
 10
-60.80639
 20
33.747095
 11
-63.44362
 21
36.384338
  0
LINE
  8
ガラス
  6
CONTINUOUS
 10
-62.51248
 20
33.807995
 11
-60.479447
 21
35.841028
  0
LINE
  8
ガラス
  6
CONTINUOUS
 10
-61.737537
 20
36.323435
 11
-63.77056
 21
34.290405
  0
LINE
  8
ガラス
  6
CONTINUOUS
 10
-26.03415
 20
37.696675
 11
-31.29608
 21
32.434748
  0
LINE
  8
ガラス
  6
CONTINUOUS
 10
-27.3465
 20
33.747095
 11
-29.98373
 21
36.384338
  0
LINE
  8
ガラス
  6
CONTINUOUS
 10
-29.05259
 20
33.807995
 11
-27.019557
 21
35.841028
  0
LINE
  8
ガラス
  6
CONTINUOUS
 10
-28.277647
 20
36.323435
 11
-30.31067
 21
34.290405
  0
LINE
  8
ガラス
  6
CONTINUOUS
 10
8.45596
 20
37.696675
 11
3.19403
 21
32.434748
  0
LINE
  8
ガラス
  6
CONTINUOUS
 10
7.14361
 20
33.747095
 11
4.50638
 21
36.384338
  0
LINE
  8
ガラス
  6
CONTINUOUS
 10
5.43752
 20
33.807995
 11
7.470552
 21
35.841028
  0
LINE
  8
ガラス
  6
CONTINUOUS
 10
6.212463
 20
36.323435
 11
4.17944
 21
34.290405
  0
TEXT
  7
TextStyle03
  8
文字
  6
CONTINUOUS
 10
78.1
 20
125.25
  1
シリーズ：ＳＴＦＦＨＬ
 40
5.0
 72
     5
 11
139.35
 21
125.25
  0
TEXT
  7
TextStyle03
  8
文字
  6
CONTINUOUS
 10
78.1
 20
119.625
  1
　　　　　（片側開閉）1300×3000タイプ
 40
5.0
 72
     5
 11
184.35
 21
119.625
  0
TEXT
  7
TextStyle03
  8
文字
  6
CONTINUOUS
 10
78.1
 20
114.0
  1
図面名　：外観姿図
 40
5.0
 72
     5
 11
128.1
 21
114.0
  0
TEXT
  7
TextStyle03
  8
文字
  6
CONTINUOUS
 10
78.1
 20
108.375
  1
　　　　　　
 40
5.0
 72
     5
 11
111.225
 21
108.375
  0
TEXT
  7
TextStyle03
  8
文字
  6
CONTINUOUS
 10
-116.75
 20
98.85
  1
は排水穴位置を示す
 40
3.0
 72
     5
 11
-86.75
 21
98.85
  0
TEXT
  7
TextStyle03
  8
文字
  6
CONTINUOUS
 10
-120.475
 20
83.975
  1
アンカー数量　１２ヶ所
 40
3.0
 72
     5
 11
-83.725
 21
83.975
  0
TEXT
  7
TextStyle03
  8
文字
  6
CONTINUOUS
 10
-116.75
 20
93.325
  1
はケーシング位置を示す
 40
3.0
 72
     5
 11
-80.0
 21
93.325
  0
TEXT
  7
TextStyle03
  8
文字
  6
CONTINUOUS
 10
-116.75
 20
89.95
  1
２ヶ所中1ヶ所に設定
 40
3.0
 72
     5
 11
-85.0625
 21
89.95
  0
TEXT
  7
TextStyle03
  8
文字
  6
CONTINUOUS
 10
-116.275
 20
23.975
  1
アンカーピッチ
 40
3.0
 50
90.0
 72
     5
 11
-116.275
 21
47.225
  0
TEXT
  7
TextStyle03
  8
文字
  6
CONTINUOUS
 10
-68.7
 20
94.125
  1
アンカーピッチ
 40
3.0
 72
     5
 11
-45.45
 21
94.125
  0
TEXT
  7
TextStyle03
  8
文字
  6
CONTINUOUS
 10
28.675
 20
-98.425
  1
※は物件対応寸法
 40
3.0
 72
     5
 11
55.3
 21
-98.425
  0
TEXT
  7
TextStyle03
  8
文字
  6
CONTINUOUS
 10
101.7
 20
-80.0
  1
網入り6.8t
 40
3.0
 72
     5
 11
118.3875
 21
-80.0
  0
TEXT
  7
TextStyle03
  8
文字
  6
CONTINUOUS
 10
108.375
 20
-84.675
  1
×３枚
 40
3.0
 72
     5
 11
118.125
 21
-84.675
  0
TEXT
  7
TextStyle03
  8
文字
  6
CONTINUOUS
 10
84.75
 20
13.95
  1
45°
 40
3.0
 50
90.0
 72
     5
 11
84.75
 21
20.325
  0
INSERT
  2
*DIM_0002
  8
寸法
  6
CONTINUOUS
 10
0.0
 20
0.0
  0
INSERT
  2
*DIM_0003
  8
寸法
  6
CONTINUOUS
 10
0.0
 20
0.0
  0
INSERT
  2
*DIM_0004
  8
寸法
  6
CONTINUOUS
 10
0.0
 20
0.0
  0
INSERT
  2
*DIM_0005
  8
寸法
  6
CONTINUOUS
 10
0.0
 20
0.0
  0
INSERT
  2
*DIM_0006
  8
寸法
  6
CONTINUOUS
 10
0.0
 20
0.0
  0
INSERT
  2
*DIM_0007
  8
寸法
  6
CONTINUOUS
 10
0.0
 20
0.0
  0
INSERT
  2
*DIM_0008
  8
寸法
  6
CONTINUOUS
 10
0.0
 20
0.0
  0
INSERT
  2
*DIM_0014
  8
寸法
  6
CONTINUOUS
 10
0.0
 20
0.0
  0
INSERT
  2
*DIM_0015
  8
寸法
  6
CONTINUOUS
 10
0.0
 20
0.0
  0
INSERT
  2
*DIM_0016
  8
寸法
  6
CONTINUOUS
 10
0.0
 20
0.0
  0
INSERT
  2
*DIM_0017
  8
寸法
  6
CONTINUOUS
 10
0.0
 20
0.0
  0
INSERT
  2
*DIM_0018
  8
寸法
  6
CONTINUOUS
 10
0.0
 20
0.0
  0
INSERT
  2
*DIM_0019
  8
寸法
  6
CONTINUOUS
 10
0.0
 20
0.0
  0
INSERT
  2
*DIM_0022
  8
寸法
  6
CONTINUOUS
 10
0.0
 20
0.0
  0
INSERT
  2
*DIM_0023
  8
寸法
  6
CONTINUOUS
 10
0.0
 20
0.0
  0
INSERT
  2
*DIM_0024
  8
寸法
  6
CONTINUOUS
 10
0.0
 20
0.0
  0
INSERT
  2
*DIM_0025
  8
寸法
  6
CONTINUOUS
 10
0.0
 20
0.0
  0
INSERT
  2
*GRP_0010
  8
別途部材
  6
DOT
 10
0.0
 20
0.0
  0
INSERT
  2
*GRP_0011
  8
別途部材
  6
DOT
 10
0.0
 20
0.0
  0
INSERT
  2
*GRP_0012
  8
別途部材
  6
CONTINUOUS
 10
0.0
 20
0.0
  0
INSERT
  2
*GRP_0020
  8
別途部材
  6
DOT
 10
0.0
 20
0.0
  0
INSERT
  2
*GRP_0021
  8
別途部材
  6
DOT
 10
0.0
 20
0.0
  0
ENDSEC
  0
EOF
