  0
SECTION
  2
HEADER
  9
$EXTMIN
 10
-210.0
 20
-148.5
  9
$EXTMAX
 10
210.0
 20
148.5
  9
$PDMODE
 70
    32
  9
$PDSIZE
 40
1.5
  9
$LTSCALE
 40
10.0
  0
ENDSEC
  0
SECTION
  2
TABLES
  0
TABLE
  2
LTYPE
 70
    15
  0
LTYPE
  2
CONTINUOUS
 70
    64
  3
実線
 72
    65
 73
     0
 40
0.0
  0
LTYPE
  2
DASHED
 70
    64
  3
破線A
 72
    65
 73
     2
 40
0.6
 49
0.4
 49
-0.2
  0
LTYPE
  2
DASHEDX2
 70
    64
  3
破線B
 72
    65
 73
     2
 40
1.3
 49
0.9
 49
-0.4
  0
LTYPE
  2
DASHDOT
 70
    64
  3
１点鎖線A
 72
    65
 73
     4
 40
0.5375
 49
0.375
 49
-0.05
 49
0.0625
 49
-0.05
  0
LTYPE
  2
DASHDOTX2
 70
    64
  3
１点鎖線B
 72
    65
 73
     4
 40
1.075
 49
0.75
 49
-0.1
 49
0.125
 49
-0.1
  0
LTYPE
  2
DIVIDE2
 70
    64
  3
２点鎖線A
 72
    65
 73
     6
 40
0.5125
 49
0.3
 49
-0.0375
 49
0.05
 49
-0.0375
 49
0.05
 49
-0.0375
  0
LTYPE
  2
DIVIDE
 70
    64
  3
２点鎖線B
 72
    65
 73
     6
 40
1.05
 49
0.55
 49
-0.1
 49
0.1
 49
-0.1
 49
0.1
 49
-0.1
  0
LTYPE
  2
DOT
 70
    64
  3
点線A
 72
    65
 73
     2
 40
0.1125
 49
0.0625
 49
-0.05
  0
LTYPE
  2
DOTX2
 70
    64
  3
点線B
 72
    65
 73
     2
 40
0.275
 49
0.15
 49
-0.125
  0
LTYPE
  2
CONTINUOUS
 70
    64
  3
実線
 72
    65
 73
     0
 40
0.0
  0
LTYPE
  2
CONTINUOUS
 70
    64
  3
実線
 72
    65
 73
     0
 40
0.0
  0
LTYPE
  2
CONTINUOUS
 70
    64
  3
実線
 72
    65
 73
     0
 40
0.0
  0
LTYPE
  2
CONTINUOUS
 70
    64
  3
実線
 72
    65
 73
     0
 40
0.0
  0
LTYPE
  2
CONTINUOUS
 70
    64
  3
実線
 72
    65
 73
     0
 40
0.0
  0
LTYPE
  2
CONTINUOUS
 70
    64
  3
実線
 72
    65
 73
     0
 40
0.0
  0
ENDTAB
  0
TABLE
  2
LAYER
 70
    34
  0
LAYER
  2
通り芯
 70
     0
 62
    15
  6
CONTINUOUS
  0
LAYER
  2
補助線
 70
     0
 62
    16
  6
DOT
  0
LAYER
  2
躯体
 70
     0
 62
    31
  6
CONTINUOUS
  0
LAYER
  2
型材
 70
     0
 62
    32
  6
CONTINUOUS
  0
LAYER
  2
型材断面
 70
     0
 62
    47
  6
CONTINUOUS
  0
LAYER
  2
ガラス
 70
     0
 62
    48
  6
CONTINUOUS
  0
LAYER
  2
ゴム等
 70
     0
 62
    63
  6
CONTINUOUS
  0
LAYER
  2
ボルト／ビス
 70
     0
 62
    64
  6
CONTINUOUS
  0
LAYER
  2
文字
 70
     0
 62
    79
  6
CONTINUOUS
  0
LAYER
  2
寸法
 70
     0
 62
    80
  6
CONTINUOUS
  0
LAYER
  2
ﾊｯﾁﾝｸﾞ
 70
     0
 62
    95
  6
CONTINUOUS
  0
LAYER
  2
別途部材
 70
     0
 62
    96
  6
CONTINUOUS
  0
LAYER
  2
曲げ物
 70
     0
 62
   111
  6
CONTINUOUS
  0
LAYER
  2
鉄骨等
 70
     0
 62
   112
  6
CONTINUOUS
  0
LAYER
  2
St
 70
     0
 62
   127
  6
CONTINUOUS
  0
LAYER
  2
その他部品等
 70
     0
 62
   128
  6
CONTINUOUS
  0
LAYER
  2
ｶﾞｽｹｯﾄ
 70
     0
 62
   143
  6
CONTINUOUS
  0
LAYER
  2
ｽｹｯﾁ
 70
     0
 62
    14
  6
CONTINUOUS
  0
LAYER
  2
0
 70
     0
 62
    17
  6
CONTINUOUS
  0
LAYER
  2
1
 70
     0
 62
    30
  6
CONTINUOUS
  0
LAYER
  2
4
 70
     0
 62
    33
  6
CONTINUOUS
  0
LAYER
  2
ﾚｲﾔ3
 70
     0
 62
    46
  6
CONTINUOUS
  0
LAYER
  2
外形線
 70
     0
 62
    49
  6
CONTINUOUS
  0
LAYER
  2
部品
 70
     0
 62
    14
  6
CONTINUOUS
  0
LAYER
  2
サッシ芯
 70
     0
 62
    17
  6
DASHDOTX2
  0
LAYER
  2
寸法線
 70
     0
 62
    62
  6
CONTINUOUS
  0
LAYER
  2
姿図外形線
 70
     0
 62
    65
  6
CONTINUOUS
  0
LAYER
  2
姿補助線
 70
     0
 62
    30
  6
CONTINUOUS
  0
LAYER
  2
透視線
 70
     0
 62
    78
  6
DOT
  0
LAYER
  2
用紙
 70
     0
 62
    81
  6
CONTINUOUS
  0
LAYER
  2
実線図枠
 70
     0
 62
    94
  6
CONTINUOUS
  0
LAYER
  2
補助図枠
 70
     0
 62
    97
  6
CONTINUOUS
  0
LAYER
  2
建具記号
 70
     0
 62
   110
  6
CONTINUOUS
  0
LAYER
  2
補助文字
 70
     0
 62
   113
  6
CONTINUOUS
  0
ENDTAB
  0
TABLE
  2
STYLE
 70
    10
  0
STYLE
  2
STANDARD
 70
     0
 40
1.0
 41
1.0
 42
1.0
 50
0.0
 71
     0
  3
TXT
  4
BIGFONT
  0
STYLE
  2
TATE
 70
     4
 40
1.0
 41
1.0
 42
1.0
 50
0.0
 71
     0
  3
TXT
  4
BIGFONT
  0
STYLE
  2
TextStyle03
 70
     0
 40
1.0
 41
1.0
 42
1.0
 50
0.0
 71
     0
  3
MONOTXT
  4
BIGFONT
  0
STYLE
  2
TextStyle04
 70
     0
 40
1.0
 41
1.0
 42
1.0
 50
0.0
 71
     0
  3
MONOTXT
  4
BIGFONT
  0
STYLE
  2
TextStyle05
 70
     0
 40
1.0
 41
1.0
 42
1.0
 50
0.0
 71
     0
  3
MONOTXT
  4
BIGFONT
  0
STYLE
  2
TextStyle06
 70
     0
 40
1.0
 41
1.0
 42
1.0
 50
0.0
 71
     0
  3
MONOTXT
  4
BIGFONT
  0
STYLE
  2
TextStyle07
 70
     0
 40
1.0
 41
1.0
 42
1.0
 50
0.0
 71
     0
  3
MONOTXT
  4
BIGFONT
  0
STYLE
  2
TextStyle08
 70
     0
 40
1.0
 41
1.0
 42
1.0
 50
0.0
 71
     0
  3
MONOTXT
  4
BIGFONT
  0
STYLE
  2
TextStyle09
 70
     0
 40
1.0
 41
1.0
 42
1.0
 50
0.0
 71
     0
  3
MONOTXT
  4
BIGFONT
  0
STYLE
  2
TextStyle10
 70
     0
 40
1.0
 41
1.0
 42
1.0
 50
0.0
 71
     0
  3
MONOTXT
  4
BIGFONT
  0
ENDTAB
  0
ENDSEC
  0
SECTION
  2
BLOCKS
  0
BLOCK
  2
*GRP_0001
 70
    65
 10
0.0
 20
0.0
  0
LINE
  8
型材断面
  6
CONTINUOUS
 10
195.0
 20
133.5
 11
195.0
 21
-133.5
  0
LINE
  8
型材断面
  6
CONTINUOUS
 10
195.0
 20
-133.5
 11
-185.0
 21
-133.5
  0
LINE
  8
型材断面
  6
CONTINUOUS
 10
-185.0
 20
-133.5
 11
-185.0
 21
133.5
  0
LINE
  8
型材断面
  6
CONTINUOUS
 10
195.0
 20
133.5
 11
-185.0
 21
133.5
  0
LINE
  8
型材断面
  6
CONTINUOUS
 10
145.0
 20
-133.5
 11
145.0
 21
-118.5
  0
LINE
  8
型材断面
  6
CONTINUOUS
 10
195.0
 20
-118.5
 11
145.0
 21
-118.5
  0
ENDBLK
  0
BLOCK
  2
*DIM_0002
 70
    65
 10
0.0
 20
0.0
  0
LINE
  8
寸法
  6
BYBLOCK
 62
     0
 10
46.224393
 20
-13.121378
 11
-87.10894
 21
-13.121378
  0
POINT
  8
寸法
 62
     0
 10
46.224393
 20
-13.121378
  0
POINT
  8
寸法
 62
     0
 10
-87.10894
 20
-13.121378
  0
TEXT
  7
TextStyle03
  8
寸法
  6
CONTINUOUS
 62
     0
 10
-32.16875
 20
-12.75
  1
呼称寸法　4000
 40
3.0
 72
     5
 11
-8.73125
 21
-12.75
  0
ENDBLK
  0
BLOCK
  2
*DIM_0003
 70
    65
 10
0.0
 20
0.0
  0
LINE
  8
寸法
  6
BYBLOCK
 62
     0
 10
44.224393
 20
17.20722
 11
44.224393
 21
14.182178
  0
LINE
  8
寸法
  6
BYBLOCK
 62
     0
 10
46.224393
 20
14.182178
 11
44.224393
 21
14.182178
  0
POINT
  8
寸法
 62
     0
 10
46.224393
 20
14.182178
  0
POINT
  8
寸法
 62
     0
 10
44.224393
 20
14.182178
  0
TEXT
  7
TextStyle03
  8
寸法
  6
CONTINUOUS
 62
     0
 10
42.33125
 20
10.4
  1
60
 40
3.0
 72
     5
 11
45.51875
 21
10.4
  0
ENDBLK
  0
BLOCK
  2
*DIM_0004
 70
    65
 10
0.0
 20
0.0
  0
LINE
  8
寸法
  6
BYBLOCK
 62
     0
 10
-85.108943
 20
17.20722
 11
-85.108943
 21
14.182178
  0
LINE
  8
寸法
  6
BYBLOCK
 62
     0
 10
-87.108943
 20
14.182178
 11
-85.108943
 21
14.182178
  0
POINT
  8
寸法
 62
     0
 10
-87.108943
 20
14.182178
  0
POINT
  8
寸法
 62
     0
 10
-85.108943
 20
14.182178
  0
TEXT
  7
TextStyle03
  8
寸法
  6
CONTINUOUS
 62
     0
 10
-86.41875
 20
10.4
  1
60
 40
3.0
 72
     5
 11
-83.23125
 21
10.4
  0
ENDBLK
  0
BLOCK
  2
*DIM_0005
 70
    65
 10
0.0
 20
0.0
  0
LINE
  8
寸法
  6
BYBLOCK
 62
     0
 10
-90.10894
 20
39.4807
 11
-103.401778
 21
39.4807
  0
LINE
  8
寸法
  6
BYBLOCK
 62
     0
 10
-90.10894
 20
26.147365
 11
-103.401778
 21
26.147365
  0
LINE
  8
寸法
  6
BYBLOCK
 62
     0
 10
-103.401778
 20
39.4807
 11
-103.401778
 21
26.147365
  0
POINT
  8
寸法
 62
     0
 10
-103.401778
 20
39.4807
  0
POINT
  8
寸法
 62
     0
 10
-103.401778
 20
26.147365
  0
TEXT
  7
TextStyle03
  8
寸法
  6
CONTINUOUS
 62
     0
 10
-103.825
 20
30.3625
  1
400
 40
3.0
 50
90.0
 72
     5
 11
-103.825
 21
35.2375
  0
ENDBLK
  0
BLOCK
  2
*GRP_0011
 70
    65
 10
0.0
 20
0.0
  0
LINE
  8
ボルト／ビス
  6
CONTINUOUS
 10
-87.775605
 20
-70.209605
 11
-87.775605
 21
-69.742937
  0
LINE
  8
ボルト／ビス
  6
CONTINUOUS
 10
-87.408937
 20
-70.209605
 11
-87.408937
 21
-70.142937
  0
LINE
  8
ボルト／ビス
  6
CONTINUOUS
 10
-87.408937
 20
-70.142937
 11
-88.142273
 21
-70.142937
  0
LINE
  8
ボルト／ビス
  6
CONTINUOUS
 10
-88.142273
 20
-70.142937
 11
-88.142273
 21
-70.209605
  0
LINE
  8
ボルト／ビス
  6
CONTINUOUS
 10
-87.408937
 20
-70.209605
 11
-88.142273
 21
-70.209605
  0
LINE
  8
ボルト／ビス
  6
CONTINUOUS
 10
-87.475605
 20
-70.109605
 11
-87.475605
 21
-70.142937
  0
LINE
  8
ボルト／ビス
  6
CONTINUOUS
 10
-87.475605
 20
-70.109605
 11
-88.075605
 21
-70.109605
  0
LINE
  8
ボルト／ビス
  6
CONTINUOUS
 10
-88.075605
 20
-70.109605
 11
-88.075605
 21
-70.142937
  0
LINE
  8
ボルト／ビス
  6
CONTINUOUS
 62
    64
 10
-87.61523
 20
-69.909605
 11
-87.583155
 21
-69.92128
  0
ARC
  8
ボルト／ビス
  6
CONTINUOUS
 62
    64
 10
-87.631266
 20
-70.014586
 40
0.104978
 50
90.0
 51
117.278033
  0
ARC
  8
ボルト／ビス
  6
CONTINUOUS
 62
    64
 10
-87.775604
 20
-70.31201
 40
0.402402
 50
76.165015
 51
103.834998
  0
LINE
  8
ボルト／ビス
  6
CONTINUOUS
 62
    64
 10
-87.93598
 20
-69.909605
 11
-87.968055
 21
-69.92128
  0
ARC
  8
ボルト／ビス
  6
CONTINUOUS
 62
    64
 10
-87.919941
 20
-70.014586
 40
0.104978
 50
62.721967
 51
90.0
  0
LINE
  8
ボルト／ビス
  6
CONTINUOUS
 62
    64
 10
-87.61523
 20
-69.909605
 11
-87.93598
 21
-69.909605
  0
LINE
  8
ボルト／ビス
  6
CONTINUOUS
 62
    64
 10
-87.968055
 20
-69.92128
 11
-87.968055
 21
-70.042937
  0
LINE
  8
ボルト／ビス
  6
CONTINUOUS
 62
    64
 10
-87.87183
 20
-69.92128
 11
-87.87183
 21
-70.042937
  0
LINE
  8
ボルト／ビス
  6
CONTINUOUS
 62
    64
 10
-87.583155
 20
-69.92128
 11
-87.583155
 21
-70.042937
  0
LINE
  8
ボルト／ビス
  6
CONTINUOUS
 62
    64
 10
-87.67938
 20
-69.92128
 11
-87.67938
 21
-70.042937
  0
LINE
  8
ボルト／ビス
  6
CONTINUOUS
 10
-87.583155
 20
-70.042937
 11
-87.968055
 21
-70.042937
  0
LINE
  8
ボルト／ビス
  6
CONTINUOUS
 10
-87.575605
 20
-70.042937
 11
-87.575605
 21
-70.109605
  0
LINE
  8
ボルト／ビス
  6
CONTINUOUS
 10
-87.575605
 20
-70.042937
 11
-87.975605
 21
-70.042937
  0
LINE
  8
ボルト／ビス
  6
CONTINUOUS
 10
-87.975605
 20
-70.042937
 11
-87.975605
 21
-70.109605
  0
ENDBLK
  0
BLOCK
  2
*GRP_0012
 70
    65
 10
0.0
 20
0.0
  0
LINE
  8
ボルト／ビス
  6
CONTINUOUS
 10
46.891065
 20
-70.20961
 11
46.891065
 21
-69.742943
  0
LINE
  8
ボルト／ビス
  6
CONTINUOUS
 10
47.257733
 20
-70.20961
 11
47.257733
 21
-70.142943
  0
LINE
  8
ボルト／ビス
  6
CONTINUOUS
 10
47.257733
 20
-70.142943
 11
46.524397
 21
-70.142943
  0
LINE
  8
ボルト／ビス
  6
CONTINUOUS
 10
46.524397
 20
-70.142943
 11
46.524397
 21
-70.20961
  0
LINE
  8
ボルト／ビス
  6
CONTINUOUS
 10
47.257733
 20
-70.20961
 11
46.524397
 21
-70.20961
  0
LINE
  8
ボルト／ビス
  6
CONTINUOUS
 10
47.191065
 20
-70.10961
 11
47.191065
 21
-70.142943
  0
LINE
  8
ボルト／ビス
  6
CONTINUOUS
 10
47.191065
 20
-70.10961
 11
46.591065
 21
-70.10961
  0
LINE
  8
ボルト／ビス
  6
CONTINUOUS
 10
46.591065
 20
-70.10961
 11
46.591065
 21
-70.142943
  0
LINE
  8
ボルト／ビス
  6
CONTINUOUS
 62
    64
 10
47.05144
 20
-69.90961
 11
47.083515
 21
-69.921285
  0
ARC
  8
ボルト／ビス
  6
CONTINUOUS
 62
    64
 10
47.035404
 20
-70.014591
 40
0.104978
 50
90.0
 51
117.278033
  0
ARC
  8
ボルト／ビス
  6
CONTINUOUS
 62
    64
 10
46.891066
 20
-70.312015
 40
0.402402
 50
76.165015
 51
103.834998
  0
LINE
  8
ボルト／ビス
  6
CONTINUOUS
 62
    64
 10
46.73069
 20
-69.90961
 11
46.698615
 21
-69.921285
  0
ARC
  8
ボルト／ビス
  6
CONTINUOUS
 62
    64
 10
46.746729
 20
-70.014591
 40
0.104978
 50
62.721967
 51
90.0
  0
LINE
  8
ボルト／ビス
  6
CONTINUOUS
 62
    64
 10
47.05144
 20
-69.90961
 11
46.73069
 21
-69.90961
  0
LINE
  8
ボルト／ビス
  6
CONTINUOUS
 62
    64
 10
46.698615
 20
-69.921285
 11
46.698615
 21
-70.042943
  0
LINE
  8
ボルト／ビス
  6
CONTINUOUS
 62
    64
 10
46.79484
 20
-69.921285
 11
46.79484
 21
-70.042943
  0
LINE
  8
ボルト／ビス
  6
CONTINUOUS
 62
    64
 10
47.083515
 20
-69.921285
 11
47.083515
 21
-70.042943
  0
LINE
  8
ボルト／ビス
  6
CONTINUOUS
 62
    64
 10
46.98729
 20
-69.921285
 11
46.98729
 21
-70.042943
  0
LINE
  8
ボルト／ビス
  6
CONTINUOUS
 10
47.083515
 20
-70.042943
 11
46.698615
 21
-70.042943
  0
LINE
  8
ボルト／ビス
  6
CONTINUOUS
 10
47.091065
 20
-70.042943
 11
47.091065
 21
-70.10961
  0
LINE
  8
ボルト／ビス
  6
CONTINUOUS
 10
47.091065
 20
-70.042943
 11
46.691065
 21
-70.042943
  0
LINE
  8
ボルト／ビス
  6
CONTINUOUS
 10
46.691065
 20
-70.042943
 11
46.691065
 21
-70.10961
  0
ENDBLK
  0
BLOCK
  2
*DIM_0013
 70
    65
 10
0.0
 20
0.0
  0
LINE
  8
寸法
  6
BYBLOCK
 62
     0
 10
-70.442273
 20
13.498165
 11
-70.442273
 21
8.445843
  0
LINE
  8
寸法
  6
BYBLOCK
 62
     0
 10
29.557723
 20
13.498165
 11
29.557723
 21
8.445843
  0
LINE
  8
寸法
  6
BYBLOCK
 62
     0
 10
-70.442273
 20
8.445843
 11
29.557723
 21
8.445843
  0
POINT
  8
寸法
 62
     0
 10
-70.442273
 20
8.445843
  0
POINT
  8
寸法
 62
     0
 10
29.557723
 20
8.445843
  0
TEXT
  7
TextStyle03
  8
寸法
  6
CONTINUOUS
 62
     0
 10
-23.73125
 20
8.825
  1
3000
 40
3.0
 72
     5
 11
-17.16875
 21
8.825
  0
ENDBLK
  0
BLOCK
  2
*DIM_0014
 70
    65
 10
0.0
 20
0.0
  0
LINE
  8
寸法
  6
CONTINUOUS
 10
53.724408
 20
-78.709613
 11
62.194043
 21
-78.709613
  0
LINE
  8
寸法
  6
CONTINUOUS
 10
62.194043
 20
-75.709613
 11
62.194043
 21
-78.709613
  0
POINT
  8
寸法
 10
62.194043
 20
-78.709613
  0
TEXT
  7
TextStyle03
  8
寸法
  6
CONTINUOUS
 10
61.8
 20
-78.725
  1
※
 40
3.0
 50
90.0
 72
     5
 11
61.8
 21
-75.725
  0
ENDBLK
  0
BLOCK
  2
*DIM_0015
 70
    65
 10
0.0
 20
0.0
  0
LINE
  8
寸法
  6
CONTINUOUS
 10
-93.60895
 20
-75.376282
 11
-93.60895
 21
-13.121378
  0
LINE
  8
寸法
  6
CONTINUOUS
 10
-87.10894
 20
-13.121378
 11
-93.60895
 21
-13.121378
  0
POINT
  8
寸法
 10
-87.10894
 20
-13.121378
  0
POINT
  8
寸法
 10
-93.60895
 20
-13.121378
  0
TEXT
  7
TextStyle03
  8
寸法
  6
CONTINUOUS
 10
-91.875
 20
-12.75
  1
※
 40
3.0
 72
     5
 11
-88.875
 21
-12.75
  0
ENDBLK
  0
BLOCK
  2
*DIM_0016
 70
    65
 10
0.0
 20
0.0
  0
LINE
  8
寸法
  6
CONTINUOUS
 10
52.724408
 20
-75.376282
 11
52.724408
 21
-13.121378
  0
LINE
  8
寸法
  6
CONTINUOUS
 10
46.224393
 20
-13.121378
 11
52.724408
 21
-13.121378
  0
POINT
  8
寸法
 10
46.224393
 20
-13.121378
  0
POINT
  8
寸法
 10
52.724408
 20
-13.121378
  0
TEXT
  7
TextStyle03
  8
寸法
  6
CONTINUOUS
 10
47.95
 20
-12.75
  1
※
 40
3.0
 72
     5
 11
50.95
 21
-12.75
  0
ENDBLK
  0
BLOCK
  2
*DIM_0017
 70
    65
 10
0.0
 20
0.0
  0
LINE
  8
寸法
  6
CONTINUOUS
 10
139.035135
 20
-45.191913
 11
148.010843
 21
-45.191913
  0
LINE
  8
寸法
  6
CONTINUOUS
 10
139.035135
 20
-65.191913
 11
148.010843
 21
-65.191913
  0
LINE
  8
寸法
  6
CONTINUOUS
 10
148.010843
 20
-45.191913
 11
148.010843
 21
-65.191913
  0
POINT
  8
寸法
 10
148.010843
 20
-45.191913
  0
POINT
  8
寸法
 10
148.010843
 20
-65.191913
  0
TEXT
  7
TextStyle03
  8
寸法
  6
CONTINUOUS
 10
147.625
 20
-57.6625
  1
600
 40
3.0
 50
90.0
 72
     5
 11
147.625
 21
-52.7875
  0
ENDBLK
  0
BLOCK
  2
*DIM_0018
 70
    65
 10
0.0
 20
0.0
  0
LINE
  8
寸法
  6
CONTINUOUS
 10
138.035135
 20
-44.191913
 11
138.035135
 21
-34.852333
  0
LINE
  8
寸法
  6
CONTINUOUS
 10
105.825135
 20
-44.191913
 11
105.825135
 21
-34.852333
  0
LINE
  8
寸法
  6
CONTINUOUS
 10
138.035135
 20
-34.852333
 11
105.825135
 21
-34.852333
  0
POINT
  8
寸法
 10
138.035135
 20
-34.852333
  0
POINT
  8
寸法
 10
105.825135
 20
-34.852333
  0
TEXT
  7
TextStyle03
  8
寸法
  6
CONTINUOUS
 10
117.8
 20
-34.5
  1
966.3
 40
3.0
 72
     5
 11
126.05
 21
-34.5
  0
ENDBLK
  0
BLOCK
  2
*DIM_0019
 70
    65
 10
0.0
 20
0.0
  0
LINE
  8
寸法
  6
CONTINUOUS
 10
48.224408
 20
-75.709613
 11
62.194043
 21
-75.709613
  0
LINE
  8
寸法
  6
CONTINUOUS
 10
47.457742
 20
-69.766315
 11
62.194043
 21
-69.766315
  0
LINE
  8
寸法
  6
CONTINUOUS
 10
62.194043
 20
-75.709613
 11
62.194043
 21
-69.766315
  0
POINT
  8
寸法
 10
62.194043
 20
-75.709613
  0
POINT
  8
寸法
 10
62.194043
 20
-69.766315
  0
TEXT
  7
TextStyle03
  8
寸法
  6
CONTINUOUS
 10
66.8
 20
-76.925
  1
178.3
 40
3.0
 50
90.0
 72
     5
 11
66.8
 21
-68.675
  0
ENDBLK
  0
BLOCK
  2
*GRP_0020
 70
    65
 10
0.0
 20
0.0
  0
LINE
  8
ボルト／ビス
  6
CONTINUOUS
 10
135.75766
 20
43.480703
 11
135.290992
 21
43.480703
  0
LINE
  8
ボルト／ビス
  6
CONTINUOUS
 10
135.75766
 20
43.84737
 11
135.690992
 21
43.84737
  0
LINE
  8
ボルト／ビス
  6
CONTINUOUS
 10
135.690992
 20
43.84737
 11
135.690992
 21
43.114035
  0
LINE
  8
ボルト／ビス
  6
CONTINUOUS
 10
135.690992
 20
43.114035
 11
135.75766
 21
43.114035
  0
LINE
  8
ボルト／ビス
  6
CONTINUOUS
 10
135.75766
 20
43.84737
 11
135.75766
 21
43.114035
  0
LINE
  8
ボルト／ビス
  6
CONTINUOUS
 10
135.65766
 20
43.780703
 11
135.690992
 21
43.780703
  0
LINE
  8
ボルト／ビス
  6
CONTINUOUS
 10
135.65766
 20
43.780703
 11
135.65766
 21
43.180703
  0
LINE
  8
ボルト／ビス
  6
CONTINUOUS
 10
135.65766
 20
43.180703
 11
135.690992
 21
43.180703
  0
LINE
  8
ボルト／ビス
  6
CONTINUOUS
 62
    64
 10
135.45766
 20
43.641078
 11
135.469335
 21
43.673152
  0
ARC
  8
ボルト／ビス
  6
CONTINUOUS
 62
    64
 10
135.56264
 20
43.625043
 40
0.104978
 50
180.0
 51
207.278033
  0
ARC
  8
ボルト／ビス
  6
CONTINUOUS
 62
    64
 10
135.860064
 20
43.480705
 40
0.402402
 50
166.165015
 51
193.834998
  0
LINE
  8
ボルト／ビス
  6
CONTINUOUS
 62
    64
 10
135.45766
 20
43.320327
 11
135.469335
 21
43.288253
  0
ARC
  8
ボルト／ビス
  6
CONTINUOUS
 62
    64
 10
135.56264
 20
43.336368
 40
0.104978
 50
152.721967
 51
180.0
  0
LINE
  8
ボルト／ビス
  6
CONTINUOUS
 62
    64
 10
135.45766
 20
43.641078
 11
135.45766
 21
43.320327
  0
LINE
  8
ボルト／ビス
  6
CONTINUOUS
 62
    64
 10
135.469335
 20
43.288253
 11
135.590993
 21
43.288253
  0
LINE
  8
ボルト／ビス
  6
CONTINUOUS
 62
    64
 10
135.469335
 20
43.384477
 11
135.590993
 21
43.384477
  0
LINE
  8
ボルト／ビス
  6
CONTINUOUS
 62
    64
 10
135.469335
 20
43.673152
 11
135.590993
 21
43.673152
  0
LINE
  8
ボルト／ビス
  6
CONTINUOUS
 62
    64
 10
135.469335
 20
43.576928
 11
135.590993
 21
43.576928
  0
LINE
  8
ボルト／ビス
  6
CONTINUOUS
 10
135.590993
 20
43.673152
 11
135.590993
 21
43.288253
  0
LINE
  8
ボルト／ビス
  6
CONTINUOUS
 10
135.590993
 20
43.680703
 11
135.65766
 21
43.680703
  0
LINE
  8
ボルト／ビス
  6
CONTINUOUS
 10
135.590993
 20
43.680703
 11
135.590993
 21
43.280703
  0
LINE
  8
ボルト／ビス
  6
CONTINUOUS
 10
135.590993
 20
43.280703
 11
135.65766
 21
43.280703
  0
ENDBLK
  0
BLOCK
  2
*GRP_0021
 70
    65
 10
0.0
 20
0.0
  0
LINE
  8
ボルト／ビス
  6
CONTINUOUS
 10
135.75766
 20
22.147365
 11
135.290992
 21
22.147365
  0
LINE
  8
ボルト／ビス
  6
CONTINUOUS
 10
135.75766
 20
21.780697
 11
135.690992
 21
21.780697
  0
LINE
  8
ボルト／ビス
  6
CONTINUOUS
 10
135.690992
 20
21.780697
 11
135.690992
 21
22.514033
  0
LINE
  8
ボルト／ビス
  6
CONTINUOUS
 10
135.690992
 20
22.514033
 11
135.75766
 21
22.514033
  0
LINE
  8
ボルト／ビス
  6
CONTINUOUS
 10
135.75766
 20
21.780697
 11
135.75766
 21
22.514033
  0
LINE
  8
ボルト／ビス
  6
CONTINUOUS
 10
135.65766
 20
21.847365
 11
135.690992
 21
21.847365
  0
LINE
  8
ボルト／ビス
  6
CONTINUOUS
 10
135.65766
 20
21.847365
 11
135.65766
 21
22.447365
  0
LINE
  8
ボルト／ビス
  6
CONTINUOUS
 10
135.65766
 20
22.447365
 11
135.690992
 21
22.447365
  0
LINE
  8
ボルト／ビス
  6
CONTINUOUS
 62
    64
 10
135.45766
 20
21.98699
 11
135.469335
 21
21.954915
  0
ARC
  8
ボルト／ビス
  6
CONTINUOUS
 62
    64
 10
135.56264
 20
22.003029
 40
0.104978
 50
152.721967
 51
180.0
  0
ARC
  8
ボルト／ビス
  6
CONTINUOUS
 62
    64
 10
135.860064
 20
22.147367
 40
0.402402
 50
166.165002
 51
193.834985
  0
LINE
  8
ボルト／ビス
  6
CONTINUOUS
 62
    64
 10
135.45766
 20
22.30774
 11
135.469335
 21
22.339815
  0
ARC
  8
ボルト／ビス
  6
CONTINUOUS
 62
    64
 10
135.56264
 20
22.291704
 40
0.104978
 50
180.0
 51
207.278033
  0
LINE
  8
ボルト／ビス
  6
CONTINUOUS
 62
    64
 10
135.45766
 20
21.98699
 11
135.45766
 21
22.30774
  0
LINE
  8
ボルト／ビス
  6
CONTINUOUS
 62
    64
 10
135.469335
 20
22.339815
 11
135.590993
 21
22.339815
  0
LINE
  8
ボルト／ビス
  6
CONTINUOUS
 62
    64
 10
135.469335
 20
22.24359
 11
135.590993
 21
22.24359
  0
LINE
  8
ボルト／ビス
  6
CONTINUOUS
 62
    64
 10
135.469335
 20
21.954915
 11
135.590993
 21
21.954915
  0
LINE
  8
ボルト／ビス
  6
CONTINUOUS
 62
    64
 10
135.469335
 20
22.05114
 11
135.590993
 21
22.05114
  0
LINE
  8
ボルト／ビス
  6
CONTINUOUS
 10
135.590993
 20
21.954915
 11
135.590993
 21
22.339815
  0
LINE
  8
ボルト／ビス
  6
CONTINUOUS
 10
135.590993
 20
21.947365
 11
135.65766
 21
21.947365
  0
LINE
  8
ボルト／ビス
  6
CONTINUOUS
 10
135.590993
 20
21.947365
 11
135.590993
 21
22.347365
  0
LINE
  8
ボルト／ビス
  6
CONTINUOUS
 10
135.590993
 20
22.347365
 11
135.65766
 21
22.347365
  0
ENDBLK
  0
BLOCK
  2
*GRP_0022
 70
    65
 10
0.0
 20
0.0
  0
INSERT
  2
*GRP_0023
  8
補助線
  6
CONTINUOUS
 10
0.0
 20
0.0
  0
CIRCLE
  8
別途部材
  6
CONTINUOUS
 10
138.757698
 20
44.014048
 40
0.2
  0
CIRCLE
  8
別途部材
  6
CONTINUOUS
 10
138.757698
 20
44.014048
 40
0.1
  0
LINE
  8
別途部材
  6
CONTINUOUS
 10
137.357698
 20
43.914048
 11
137.357698
 21
43.814048
  0
LINE
  8
別途部材
  6
CONTINUOUS
 10
138.757698
 20
43.814048
 11
137.357698
 21
43.814048
  0
LINE
  8
別途部材
  6
CONTINUOUS
 10
137.357698
 20
43.914048
 11
138.584492
 21
43.914048
  0
LINE
  8
別途部材
  6
CONTINUOUS
 10
140.157697
 20
43.914048
 11
140.157697
 21
43.814048
  0
LINE
  8
別途部材
  6
CONTINUOUS
 10
138.757698
 20
43.814048
 11
140.157697
 21
43.814048
  0
LINE
  8
別途部材
  6
CONTINUOUS
 10
140.157697
 20
43.914048
 11
138.930903
 21
43.914048
  0
LINE
  8
別途部材
  6
CONTINUOUS
 10
137.624362
 20
43.914048
 11
137.624362
 21
43.814048
  0
LINE
  8
別途部材
  6
CONTINUOUS
 10
137.891028
 20
43.914048
 11
137.891028
 21
43.814048
  0
LINE
  8
別途部材
  6
CONTINUOUS
 10
138.157697
 20
43.914048
 11
138.157697
 21
43.814048
  0
LINE
  8
別途部材
  6
CONTINUOUS
 10
139.891028
 20
43.914048
 11
139.891028
 21
43.814048
  0
LINE
  8
別途部材
  6
CONTINUOUS
 10
139.624362
 20
43.914048
 11
139.624362
 21
43.814048
  0
LINE
  8
別途部材
  6
CONTINUOUS
 10
139.357698
 20
43.914048
 11
139.357698
 21
43.814048
  0
ENDBLK
  0
BLOCK
  2
*GRP_0023
 70
    65
 10
0.0
 20
0.0
  0
LINE
  8
補助線
  6
BYBLOCK
 62
     0
 10
138.757698
 20
43.84738
 11
138.757698
 21
44.180715
  0
LINE
  8
補助線
  6
BYBLOCK
 62
     0
 10
138.591028
 20
44.014048
 11
138.924362
 21
44.014048
  0
ENDBLK
  0
BLOCK
  2
*GRP_0024
 70
    65
 10
0.0
 20
0.0
  0
LINE
  8
型材断面
  6
DOT
 62
    47
 10
137.202038
 20
45.286867
 11
138.545567
 21
43.943338
  0
LINE
  8
型材断面
  6
DOT
 62
    47
 10
121.645667
 20
29.730497
 11
122.989198
 21
28.386967
  0
LINE
  8
型材断面
  6
DOT
 10
122.989198
 20
28.386967
 11
138.545567
 21
43.943338
  0
LINE
  8
型材断面
  6
DOT
 10
136.02358
 20
45.451748
 11
135.674683
 21
45.800642
  0
LINE
  8
型材断面
  6
DOT
 10
137.001735
 20
46.429903
 11
137.47314
 21
45.958497
  0
LINE
  8
型材断面
  6
DOT
 10
121.480758
 20
30.908922
 11
121.13186
 21
31.25782
  0
LINE
  8
型材断面
  6
DOT
 10
120.5026
 20
29.930768
 11
120.974005
 21
29.459362
  0
LINE
  8
型材断面
  6
DOT
 10
135.674683
 20
45.800642
 11
121.13186
 21
31.25782
  0
LINE
  8
型材断面
  6
DOT
 10
137.001735
 20
46.429903
 11
120.5026
 21
29.930768
  0
LINE
  8
型材断面
  6
DOT
 10
137.47314
 20
45.958497
 11
120.974005
 21
29.459362
  0
INSERT
  2
*GRP_0025
  8
別途部材
  6
DOT
 10
0.0
 20
0.0
  0
INSERT
  2
*GRP_0026
  8
別途部材
  6
DOT
 10
0.0
 20
0.0
  0
ENDBLK
  0
BLOCK
  2
*GRP_0025
 70
    65
 10
0.0
 20
0.0
  0
LINE
  8
ボルト／ビス
  6
DOT
 10
136.25922
 20
45.758262
 11
135.929238
 21
46.088248
  0
LINE
  8
ボルト／ビス
  6
DOT
 10
136.518492
 20
46.017538
 11
136.471352
 21
46.064677
  0
LINE
  8
ボルト／ビス
  6
DOT
 10
136.471352
 20
46.064677
 11
135.952808
 21
45.546133
  0
LINE
  8
ボルト／ビス
  6
DOT
 10
135.952808
 20
45.546133
 11
135.999948
 21
45.49899
  0
LINE
  8
ボルト／ビス
  6
DOT
 10
136.518492
 20
46.017538
 11
135.999948
 21
45.49899
  0
LINE
  8
ボルト／ビス
  6
DOT
 10
136.400642
 20
46.041105
 11
136.42421
 21
46.017538
  0
LINE
  8
ボルト／ビス
  6
DOT
 10
136.400642
 20
46.041105
 11
135.976377
 21
45.616842
  0
LINE
  8
ボルト／ビス
  6
DOT
 10
135.976377
 20
45.616842
 11
135.999948
 21
45.593273
  0
LINE
  8
ボルト／ビス
  6
DOT
 62
    64
 10
136.16049
 20
46.083798
 11
136.191427
 21
46.098222
  0
ARC
  8
ボルト／ビス
  6
DOT
 62
    64
 10
136.223383
 20
45.998226
 40
0.104978
 50
135.0
 51
162.278033
  0
ARC
  8
ボルト／ビス
  6
DOT
 62
    64
 10
136.331631
 20
45.685853
 40
0.402402
 50
121.165015
 51
148.834998
  0
LINE
  8
ボルト／ビス
  6
DOT
 62
    64
 10
135.933688
 20
45.856992
 11
135.919262
 21
45.826058
  0
ARC
  8
ボルト／ビス
  6
DOT
 62
    64
 10
136.019258
 20
45.794102
 40
0.104978
 50
107.721967
 51
135.0
  0
LINE
  8
ボルト／ビス
  6
DOT
 62
    64
 10
136.16049
 20
46.083798
 11
135.933688
 21
45.856992
  0
LINE
  8
ボルト／ビス
  6
DOT
 62
    64
 10
135.919262
 20
45.826058
 11
136.005285
 21
45.740033
  0
LINE
  8
ボルト／ビス
  6
DOT
 62
    64
 10
135.987303
 20
45.894097
 11
136.073328
 21
45.808072
  0
LINE
  8
ボルト／ビス
  6
DOT
 62
    64
 10
136.191427
 20
46.098222
 11
136.27745
 21
46.012197
  0
LINE
  8
ボルト／ビス
  6
DOT
 62
    64
 10
136.123385
 20
46.03018
 11
136.20941
 21
45.944158
  0
LINE
  8
ボルト／ビス
  6
DOT
 10
136.27745
 20
46.012197
 11
136.005285
 21
45.740033
  0
LINE
  8
ボルト／ビス
  6
DOT
 10
136.28279
 20
46.017538
 11
136.329932
 21
45.970395
  0
LINE
  8
ボルト／ビス
  6
DOT
 10
136.28279
 20
46.017538
 11
135.999948
 21
45.734692
  0
LINE
  8
ボルト／ビス
  6
DOT
 10
135.999948
 20
45.734692
 11
136.047088
 21
45.687552
  0
ENDBLK
  0
BLOCK
  2
*GRP_0026
 70
    65
 10
0.0
 20
0.0
  0
LINE
  8
ボルト／ビス
  6
DOT
 10
121.174273
 20
30.673315
 11
120.844288
 21
31.0033
  0
LINE
  8
ボルト／ビス
  6
DOT
 10
120.915
 20
30.414042
 11
120.867857
 21
30.461182
  0
LINE
  8
ボルト／ビス
  6
DOT
 10
120.867857
 20
30.461182
 11
121.386403
 21
30.97973
  0
LINE
  8
ボルト／ビス
  6
DOT
 10
121.386403
 20
30.97973
 11
121.433545
 21
30.932588
  0
LINE
  8
ボルト／ビス
  6
DOT
 10
120.915
 20
30.414042
 11
121.433545
 21
30.932588
  0
LINE
  8
ボルト／ビス
  6
DOT
 10
120.89143
 20
30.531895
 11
120.915
 21
30.508325
  0
LINE
  8
ボルト／ビス
  6
DOT
 10
120.89143
 20
30.531895
 11
121.315695
 21
30.956157
  0
LINE
  8
ボルト／ビス
  6
DOT
 10
121.315695
 20
30.956157
 11
121.339263
 21
30.93259
  0
LINE
  8
ボルト／ビス
  6
DOT
 62
    64
 10
120.848738
 20
30.772045
 11
120.834312
 21
30.74111
  0
ARC
  8
ボルト／ビス
  6
DOT
 62
    64
 10
120.93431
 20
30.709153
 40
0.104978
 50
107.721967
 51
135.0
  0
ARC
  8
ボルト／ビス
  6
DOT
 62
    64
 10
121.246682
 20
30.600905
 40
0.402402
 50
121.165002
 51
148.834985
  0
LINE
  8
ボルト／ビス
  6
DOT
 62
    64
 10
121.075542
 20
30.99885
 11
121.10648
 21
31.013275
  0
ARC
  8
ボルト／ビス
  6
DOT
 62
    64
 10
121.138434
 20
30.913277
 40
0.104978
 50
135.0
 51
162.278033
  0
LINE
  8
ボルト／ビス
  6
DOT
 62
    64
 10
120.848738
 20
30.772045
 11
121.075542
 21
30.99885
  0
LINE
  8
ボルト／ビス
  6
DOT
 62
    64
 10
121.10648
 20
31.013275
 11
121.192503
 21
30.92725
  0
LINE
  8
ボルト／ビス
  6
DOT
 62
    64
 10
121.038437
 20
30.945233
 11
121.124462
 21
30.85921
  0
LINE
  8
ボルト／ビス
  6
DOT
 62
    64
 10
120.834312
 20
30.74111
 11
120.920337
 21
30.655085
  0
LINE
  8
ボルト／ビス
  6
DOT
 62
    64
 10
120.902355
 20
30.809152
 11
120.98838
 21
30.723128
  0
LINE
  8
ボルト／ビス
  6
DOT
 10
120.920337
 20
30.655085
 11
121.192503
 21
30.92725
  0
LINE
  8
ボルト／ビス
  6
DOT
 10
120.915
 20
30.649748
 11
120.962142
 21
30.602605
  0
LINE
  8
ボルト／ビス
  6
DOT
 10
120.915
 20
30.649748
 11
121.197842
 21
30.93259
  0
LINE
  8
ボルト／ビス
  6
DOT
 10
121.197842
 20
30.93259
 11
121.244982
 21
30.885448
  0
ENDBLK
  0
BLOCK
  2
*DIM_0027
 70
    65
 10
0.0
 20
0.0
  0
LINE
  8
寸法
  6
CONTINUOUS
 10
144.257657
 20
50.314048
 11
144.257657
 21
60.666798
  0
LINE
  8
寸法
  6
CONTINUOUS
 10
141.257657
 20
60.666798
 11
144.257657
 21
60.666798
  0
POINT
  8
寸法
 10
144.257657
 20
60.666798
  0
TEXT
  7
TextStyle03
  8
寸法
  6
CONTINUOUS
 10
141.25
 20
61.025
  1
※
 40
3.0
 72
     5
 11
144.25
 21
61.025
  0
ENDBLK
  0
BLOCK
  2
*DIM_0028
 70
    65
 10
0.0
 20
0.0
  0
LINE
  8
寸法
  6
CONTINUOUS
 10
105.829868
 20
22.814033
 11
105.829868
 21
42.814033
  0
POINT
  8
寸法
 10
105.829868
 20
22.814033
  0
POINT
  8
寸法
 10
105.829868
 20
42.814033
  0
TEXT
  7
TextStyle03
  8
寸法
  6
CONTINUOUS
 10
105.45
 20
30.3625
  1
600
 40
3.0
 50
90.0
 72
     5
 11
105.45
 21
35.2375
  0
ENDBLK
  0
BLOCK
  2
*DIM_0029
 70
    65
 10
0.0
 20
0.0
  0
LINE
  8
寸法
  6
CONTINUOUS
 10
140.924328
 20
49.314048
 11
105.829868
 21
49.314048
  0
LINE
  8
寸法
  6
CONTINUOUS
 10
105.829868
 20
42.814033
 11
105.829868
 21
49.314048
  0
POINT
  8
寸法
 10
105.829868
 20
42.814033
  0
POINT
  8
寸法
 10
105.829868
 20
49.314048
  0
TEXT
  7
TextStyle03
  8
寸法
  6
CONTINUOUS
 10
105.45
 20
44.55
  1
※
 40
3.0
 50
90.0
 72
     5
 11
105.45
 21
47.55
  0
ENDBLK
  0
BLOCK
  2
*DIM_0030
 70
    65
 10
0.0
 20
0.0
  0
LINE
  8
寸法
  6
CONTINUOUS
 10
140.924328
 20
16.314018
 11
105.829868
 21
16.314018
  0
LINE
  8
寸法
  6
CONTINUOUS
 10
105.829868
 20
22.814033
 11
105.829868
 21
16.314018
  0
POINT
  8
寸法
 10
105.829868
 20
22.814033
  0
POINT
  8
寸法
 10
105.829868
 20
16.314018
  0
TEXT
  7
TextStyle03
  8
寸法
  6
CONTINUOUS
 10
105.45
 20
18.05
  1
※
 40
3.0
 50
90.0
 72
     5
 11
105.45
 21
21.05
  0
ENDBLK
  0
BLOCK
  2
*DIM_0031
 70
    65
 10
0.0
 20
0.0
  0
LINE
  8
寸法
  6
CONTINUOUS
 10
141.257657
 20
44.814048
 11
141.257657
 21
60.666798
  0
LINE
  8
寸法
  6
CONTINUOUS
 10
135.31436
 20
44.047382
 11
135.31436
 21
60.666798
  0
LINE
  8
寸法
  6
CONTINUOUS
 10
141.257657
 20
60.666798
 11
135.31436
 21
60.666798
  0
POINT
  8
寸法
 10
141.257657
 20
60.666798
  0
POINT
  8
寸法
 10
135.31436
 20
60.666798
  0
TEXT
  7
TextStyle03
  8
寸法
  6
CONTINUOUS
 10
124.7
 20
57.65
  1
178.3
 40
3.0
 72
     5
 11
132.95
 21
57.65
  0
ENDBLK
  0
BLOCK
  2
*DIM_0032
 70
    65
 10
0.0
 20
0.0
  0
LINE
  8
寸法
  6
BYBLOCK
 62
     0
 10
-78.775608
 20
52.97022
 11
-78.775608
 21
82.078292
  0
LINE
  8
寸法
  6
BYBLOCK
 62
     0
 10
-55.442275
 20
52.97022
 11
-55.442275
 21
82.078292
  0
LINE
  8
寸法
  6
BYBLOCK
 62
     0
 10
-78.775608
 20
82.078292
 11
-55.442275
 21
82.078292
  0
POINT
  8
寸法
 62
     0
 10
-78.775608
 20
82.078292
  0
POINT
  8
寸法
 62
     0
 10
-55.442275
 20
82.078292
  0
TEXT
  7
TextStyle03
  8
寸法
  6
CONTINUOUS
 62
     0
 10
-69.5625
 20
82.425
  1
700
 40
3.0
 72
     5
 11
-64.6875
 21
82.425
  0
ENDBLK
  0
BLOCK
  2
*DIM_0033
 70
    65
 10
0.0
 20
0.0
  0
LINE
  8
寸法
  6
BYBLOCK
 62
     0
 10
-32.108943
 20
52.97022
 11
-32.108943
 21
82.078292
  0
LINE
  8
寸法
  6
BYBLOCK
 62
     0
 10
-55.442275
 20
82.078292
 11
-32.108943
 21
82.078292
  0
POINT
  8
寸法
 62
     0
 10
-32.108943
 20
82.078292
  0
TEXT
  7
TextStyle03
  8
寸法
  6
CONTINUOUS
 62
     0
 10
-46.2375
 20
82.425
  1
700
 40
3.0
 72
     5
 11
-41.3625
 21
82.425
  0
ENDBLK
  0
BLOCK
  2
*DIM_0034
 70
    65
 10
0.0
 20
0.0
  0
LINE
  8
寸法
  6
BYBLOCK
 62
     0
 10
-8.775608
 20
52.97022
 11
-8.775608
 21
82.078292
  0
LINE
  8
寸法
  6
BYBLOCK
 62
     0
 10
-32.108943
 20
82.078292
 11
-8.775608
 21
82.078292
  0
POINT
  8
寸法
 62
     0
 10
-8.775608
 20
82.078292
  0
TEXT
  7
TextStyle03
  8
寸法
  6
CONTINUOUS
 62
     0
 10
-22.9125
 20
82.425
  1
700
 40
3.0
 72
     5
 11
-18.0375
 21
82.425
  0
ENDBLK
  0
BLOCK
  2
*DIM_0035
 70
    65
 10
0.0
 20
0.0
  0
LINE
  8
寸法
  6
BYBLOCK
 62
     0
 10
14.557725
 20
52.97022
 11
14.557725
 21
82.078292
  0
LINE
  8
寸法
  6
BYBLOCK
 62
     0
 10
-8.775608
 20
82.078292
 11
14.557725
 21
82.078292
  0
POINT
  8
寸法
 62
     0
 10
14.557725
 20
82.078292
  0
TEXT
  7
TextStyle03
  8
寸法
  6
CONTINUOUS
 62
     0
 10
0.4375
 20
82.425
  1
700
 40
3.0
 72
     5
 11
5.3125
 21
82.425
  0
ENDBLK
  0
BLOCK
  2
*DIM_0036
 70
    65
 10
0.0
 20
0.0
  0
LINE
  8
寸法
  6
BYBLOCK
 62
     0
 10
37.891057
 20
52.97022
 11
37.891057
 21
82.078292
  0
LINE
  8
寸法
  6
BYBLOCK
 62
     0
 10
14.557725
 20
82.078292
 11
37.891057
 21
82.078292
  0
POINT
  8
寸法
 62
     0
 10
37.891057
 20
82.078292
  0
TEXT
  7
TextStyle03
  8
寸法
  6
CONTINUOUS
 62
     0
 10
23.7625
 20
82.425
  1
700
 40
3.0
 72
     5
 11
28.6375
 21
82.425
  0
ENDBLK
  0
ENDSEC
  0
SECTION
  2
ENTITIES
  0
POLYLINE
  8
通り芯
  6
CONTINUOUS
 66
     1
 70
     1
  0
VERTEX
  8
通り芯
 10
-210.0
 20
-148.5
  0
VERTEX
  8
通り芯
 10
210.0
 20
-148.5
  0
VERTEX
  8
通り芯
 10
210.0
 20
148.5
  0
VERTEX
  8
通り芯
 10
-210.0
 20
148.5
  0
SEQEND
  0
INSERT
  2
*GRP_0001
  8
型材断面
  6
CONTINUOUS
 10
0.0
 20
0.0
  0
LINE
  8
型材断面
  6
DASHDOT
 10
46.224393
 20
-77.836442
 11
46.224393
 21
42.814033
  0
LINE
  8
型材断面
  6
DASHDOT
 10
-20.442275
 20
-77.836442
 11
-20.442275
 21
42.814033
  0
LINE
  8
型材断面
  6
DASHDOT
 10
-87.10894
 20
-77.836442
 11
-87.10894
 21
42.814033
  0
LINE
  8
型材断面
  6
DASHDOT
 10
143.901155
 20
22.814033
 11
-87.10894
 21
22.814033
  0
LINE
  8
型材断面
  6
DASHDOT
 10
143.901155
 20
32.814033
 11
-87.10894
 21
32.814033
  0
LINE
  8
型材断面
  6
DASHDOT
 10
143.901155
 20
42.814033
 11
-87.10894
 21
42.814033
  0
LINE
  8
型材断面
  6
CONTINUOUS
 10
-70.442273
 20
45.444162
 11
-71.937903
 21
48.03467
  0
LINE
  8
型材断面
  6
CONTINUOUS
 10
-70.442273
 20
45.444162
 11
-68.946642
 21
48.03467
  0
LINE
  8
型材断面
  6
CONTINUOUS
 10
-68.946642
 20
48.03467
 11
-71.937903
 21
48.03467
  0
LINE
  8
型材断面
  6
CONTINUOUS
 10
-127.961147
 20
80.791505
 11
-127.365092
 21
78.200998
  0
LINE
  8
型材断面
  6
CONTINUOUS
 10
-127.961147
 20
80.791505
 11
-128.557205
 21
78.200998
  0
LINE
  8
型材断面
  6
CONTINUOUS
 10
-128.557205
 20
78.200998
 11
-127.365092
 21
78.200998
  0
LINE
  8
型材断面
  6
CONTINUOUS
 10
-133.983735
 20
74.922105
 11
-87.741957
 21
74.922105
  0
LINE
  8
型材断面
  6
CONTINUOUS
 10
-127.961147
 20
87.32138
 11
-129.456778
 21
84.730873
  0
LINE
  8
型材断面
  6
CONTINUOUS
 10
-127.961147
 20
87.32138
 11
-126.465517
 21
84.730873
  0
LINE
  8
型材断面
  6
CONTINUOUS
 10
-126.465517
 20
84.730873
 11
-129.456778
 21
84.730873
  0
LINE
  8
型材断面
  6
CONTINUOUS
 10
-133.983735
 20
83.792277
 11
-87.741957
 21
83.792277
  0
LINE
  8
型材断面
  6
CONTINUOUS
 10
-133.983735
 20
69.134073
 11
-87.741957
 21
69.134073
  0
LINE
  8
型材断面
  6
CONTINUOUS
 10
-89.73907
 20
32.814033
 11
-92.329577
 21
34.309663
  0
LINE
  8
型材断面
  6
CONTINUOUS
 10
-89.73907
 20
32.814033
 11
-92.329577
 21
31.318403
  0
LINE
  8
型材断面
  6
CONTINUOUS
 10
-92.329577
 20
31.318403
 11
-92.329577
 21
34.309663
  0
LINE
  8
型材断面
  6
CONTINUOUS
 10
-70.442273
 20
20.183902
 11
-71.937903
 21
17.593395
  0
LINE
  8
型材断面
  6
CONTINUOUS
 10
-70.442273
 20
20.183902
 11
-68.946642
 21
17.593395
  0
LINE
  8
型材断面
  6
CONTINUOUS
 10
-68.946642
 20
17.593395
 11
-71.937903
 21
17.593395
  0
LINE
  8
型材断面
  6
CONTINUOUS
 10
29.557723
 20
45.444162
 11
31.053353
 21
48.03467
  0
LINE
  8
型材断面
  6
CONTINUOUS
 10
29.557723
 20
45.444162
 11
28.062092
 21
48.03467
  0
LINE
  8
型材断面
  6
CONTINUOUS
 10
28.062092
 20
48.03467
 11
31.053353
 21
48.03467
  0
LINE
  8
型材断面
  6
CONTINUOUS
 10
48.85452
 20
32.814033
 11
51.445027
 21
34.309663
  0
LINE
  8
型材断面
  6
CONTINUOUS
 10
48.85452
 20
32.814033
 11
51.445027
 21
31.318403
  0
LINE
  8
型材断面
  6
CONTINUOUS
 10
51.445027
 20
31.318403
 11
51.445027
 21
34.309663
  0
LINE
  8
型材断面
  6
CONTINUOUS
 10
29.557723
 20
20.183902
 11
31.053353
 21
17.593395
  0
LINE
  8
型材断面
  6
CONTINUOUS
 10
29.557723
 20
20.183902
 11
28.062092
 21
17.593395
  0
LINE
  8
型材断面
  6
CONTINUOUS
 10
28.062092
 20
17.593395
 11
31.053353
 21
17.593395
  0
LINE
  8
型材断面
  6
CONTINUOUS
 10
44.224393
 20
20.20722
 11
43.628335
 21
17.616715
  0
LINE
  8
型材断面
  6
CONTINUOUS
 10
44.224393
 20
20.20722
 11
44.82045
 21
17.616715
  0
LINE
  8
型材断面
  6
CONTINUOUS
 10
44.82045
 20
17.616715
 11
43.628335
 21
17.616715
  0
LINE
  8
型材断面
  6
CONTINUOUS
 10
-85.108943
 20
20.20722
 11
-84.512885
 21
17.616715
  0
LINE
  8
型材断面
  6
CONTINUOUS
 10
-85.108943
 20
20.20722
 11
-85.705
 21
17.616715
  0
LINE
  8
型材断面
  6
CONTINUOUS
 10
-85.705
 20
17.616715
 11
-84.512885
 21
17.616715
  0
LINE
  8
型材断面
  6
CONTINUOUS
 10
-89.175605
 20
44.880703
 11
-93.60895
 21
49.314048
  0
LINE
  8
型材断面
  6
CONTINUOUS
 10
-93.60895
 20
16.314018
 11
-89.175605
 21
20.747363
  0
LINE
  8
型材断面
  6
CONTINUOUS
 10
-93.60895
 20
16.314018
 11
-93.60895
 21
49.314048
  0
LINE
  8
型材断面
  6
CONTINUOUS
 10
48.291063
 20
44.880703
 11
52.724408
 21
49.314048
  0
LINE
  8
型材断面
  6
CONTINUOUS
 10
48.291063
 20
20.747363
 11
52.724408
 21
16.314018
  0
LINE
  8
型材断面
  6
CONTINUOUS
 10
52.724408
 20
49.314048
 11
52.724408
 21
16.314018
  0
LINE
  8
型材断面
  6
CONTINUOUS
 10
52.724408
 20
49.314048
 11
-93.60895
 21
49.314048
  0
LINE
  8
型材断面
  6
CONTINUOUS
 10
52.724408
 20
16.314018
 11
-93.60895
 21
16.314018
  0
POLYLINE
  8
型材断面
  6
DASHDOT
 66
     1
  0
VERTEX
  8
型材断面
 10
-87.108935
 20
22.814033
  0
VERTEX
  8
型材断面
 10
-20.44227
 20
42.814033
  0
VERTEX
  8
型材断面
 10
46.224393
 20
22.814033
  0
SEQEND
  0
LINE
  8
型材断面
  6
DASHDOT
 10
-20.44227
 20
42.814033
 11
-20.44227
 21
22.814033
  0
LINE
  8
型材断面
  6
DASHDOT
 10
-54.150602
 20
42.814033
 11
-54.150602
 21
22.814033
  0
LINE
  8
型材断面
  6
DASHDOT
 10
13.266063
 20
42.814033
 11
13.266063
 21
22.814033
  0
LINE
  8
型材断面
  6
DASHDOT
 10
-20.44227
 20
42.814033
 11
-20.44227
 21
22.814033
  0
LINE
  8
型材断面
  6
CONTINUOUS
 62
    47
 10
-88.10895
 20
-71.209613
 11
-88.10895
 21
-73.109652
  0
LINE
  8
型材断面
  6
CONTINUOUS
 10
-88.10895
 20
-73.309652
 11
-88.10895
 21
-75.709613
  0
LINE
  8
型材断面
  6
CONTINUOUS
 10
-88.10895
 20
-75.709613
 11
-93.60895
 21
-76.376282
  0
LINE
  8
型材断面
  6
CONTINUOUS
 10
-93.60895
 20
-78.709613
 11
-93.60895
 21
-76.376282
  0
LINE
  8
型材断面
  6
CONTINUOUS
 62
    47
 10
47.224408
 20
-71.209613
 11
47.224408
 21
-73.109652
  0
LINE
  8
型材断面
  6
CONTINUOUS
 10
47.224408
 20
-73.309652
 11
47.224408
 21
-75.709613
  0
LINE
  8
型材断面
  6
CONTINUOUS
 10
47.224408
 20
-75.709613
 11
52.724408
 21
-76.376282
  0
LINE
  8
型材断面
  6
CONTINUOUS
 10
52.724408
 20
-78.709613
 11
52.724408
 21
-76.376282
  0
LINE
  8
型材断面
  6
CONTINUOUS
 10
-93.60895
 20
-78.709613
 11
52.724408
 21
-78.709613
  0
LINE
  8
型材断面
  6
CONTINUOUS
 10
-93.60895
 20
-76.376282
 11
52.724408
 21
-76.376282
  0
LINE
  8
型材断面
  6
CONTINUOUS
 10
47.224408
 20
-73.109652
 11
-88.10895
 21
-73.109652
  0
LINE
  8
型材断面
  6
CONTINUOUS
 10
47.224408
 20
-73.309652
 11
-88.10895
 21
-73.309652
  0
LINE
  8
型材断面
  6
CONTINUOUS
 10
47.224408
 20
-75.709613
 11
-88.10895
 21
-75.709613
  0
LINE
  8
型材断面
  6
CONTINUOUS
 10
-20.442275
 20
-75.709613
 11
-20.44227
 21
-78.709613
  0
LINE
  8
型材断面
  6
CONTINUOUS
 10
-88.775593
 20
44.480682
 11
-86.608922
 21
42.314015
  0
LINE
  8
型材断面
  6
CONTINUOUS
 10
-88.775593
 20
21.147382
 11
-86.608922
 21
23.31405
  0
LINE
  8
型材断面
  6
CONTINUOUS
 10
-86.608922
 20
23.31405
 11
-86.608922
 21
42.314015
  0
LINE
  8
型材断面
  6
CONTINUOUS
 10
-87.39227
 20
22.530705
 11
-87.39227
 21
43.09736
  0
LINE
  8
型材断面
  6
CONTINUOUS
 10
-88.775593
 20
21.147382
 11
-88.775593
 21
44.480682
  0
LINE
  8
型材断面
  6
CONTINUOUS
 10
45.724373
 20
42.314015
 11
47.891043
 21
44.480682
  0
LINE
  8
型材断面
  6
CONTINUOUS
 10
45.724373
 20
23.31405
 11
47.891043
 21
21.147382
  0
LINE
  8
型材断面
  6
CONTINUOUS
 10
45.724373
 20
23.31405
 11
45.724373
 21
42.314015
  0
LINE
  8
型材断面
  6
CONTINUOUS
 10
46.50772
 20
22.530705
 11
46.50772
 21
43.09736
  0
LINE
  8
型材断面
  6
CONTINUOUS
 10
47.891043
 20
21.147382
 11
47.891043
 21
44.480682
  0
LINE
  8
型材断面
  6
CONTINUOUS
 10
45.724373
 20
42.314015
 11
-86.608922
 21
42.314015
  0
LINE
  8
型材断面
  6
CONTINUOUS
 10
46.50772
 20
43.09736
 11
-87.39227
 21
43.09736
  0
LINE
  8
型材断面
  6
CONTINUOUS
 10
47.891043
 20
44.480682
 11
-88.775593
 21
44.480682
  0
LINE
  8
型材断面
  6
CONTINUOUS
 10
-86.608922
 20
23.31405
 11
45.724373
 21
23.31405
  0
LINE
  8
型材断面
  6
CONTINUOUS
 10
-87.39227
 20
22.530705
 11
46.50772
 21
22.530705
  0
LINE
  8
型材断面
  6
CONTINUOUS
 10
-88.775593
 20
21.147382
 11
47.891043
 21
21.147382
  0
POLYLINE
  8
型材断面
  6
DASHDOT
 66
     1
  0
VERTEX
  8
型材断面
 10
-87.108943
 20
22.814033
  0
VERTEX
  8
型材断面
 10
-20.442275
 20
42.814033
  0
VERTEX
  8
型材断面
 10
46.224393
 20
22.814033
  0
SEQEND
  0
LINE
  8
型材断面
  6
CONTINUOUS
 10
-87.392248
 20
-70.25973
 11
-87.392248
 21
-69.766315
  0
LINE
  8
型材断面
  6
CONTINUOUS
 10
-88.77557
 20
-70.25973
 11
-88.77557
 21
-70.926397
  0
LINE
  8
型材断面
  6
CONTINUOUS
 10
45.724395
 20
-69.766315
 11
46.457742
 21
-69.766315
  0
LINE
  8
型材断面
  6
CONTINUOUS
 10
46.507742
 20
-70.25973
 11
46.507742
 21
-69.766315
  0
LINE
  8
型材断面
  6
CONTINUOUS
 10
47.891065
 20
-70.25973
 11
47.891065
 21
-70.926397
  0
LINE
  8
型材断面
  6
CONTINUOUS
 10
-87.392248
 20
-69.766315
 11
46.507742
 21
-69.766315
  0
LINE
  8
型材断面
  6
CONTINUOUS
 10
-88.77557
 20
-70.25973
 11
47.891065
 21
-70.25973
  0
LINE
  8
型材断面
  6
CONTINUOUS
 10
-88.77557
 20
-70.926397
 11
47.891065
 21
-70.926397
  0
LINE
  8
型材断面
  6
CONTINUOUS
 62
    47
 10
136.757657
 20
43.814048
 11
138.657697
 21
43.814048
  0
LINE
  8
型材断面
  6
CONTINUOUS
 10
138.857698
 20
43.814048
 11
141.257657
 21
43.814048
  0
LINE
  8
型材断面
  6
CONTINUOUS
 10
141.257657
 20
43.814048
 11
141.924328
 21
49.314048
  0
LINE
  8
型材断面
  6
CONTINUOUS
 10
144.257657
 20
49.314048
 11
141.924328
 21
49.314048
  0
LINE
  8
型材断面
  6
CONTINUOUS
 62
    47
 10
136.757657
 20
21.814018
 11
138.657697
 21
21.814018
  0
LINE
  8
型材断面
  6
CONTINUOUS
 10
138.857698
 20
21.814018
 11
141.257657
 21
21.814018
  0
LINE
  8
型材断面
  6
CONTINUOUS
 10
141.257657
 20
21.814018
 11
141.924328
 21
16.314018
  0
LINE
  8
型材断面
  6
CONTINUOUS
 10
144.257657
 20
16.314018
 11
141.924328
 21
16.314018
  0
LINE
  8
型材断面
  6
CONTINUOUS
 10
144.257657
 20
49.314048
 11
144.257657
 21
16.314018
  0
LINE
  8
型材断面
  6
CONTINUOUS
 10
141.924328
 20
49.314048
 11
141.924328
 21
16.314018
  0
LINE
  8
型材断面
  6
CONTINUOUS
 10
138.657697
 20
21.814018
 11
138.657697
 21
43.814048
  0
LINE
  8
型材断面
  6
CONTINUOUS
 10
138.857698
 20
21.814018
 11
138.857698
 21
43.814048
  0
LINE
  8
型材断面
  6
CONTINUOUS
 10
141.257657
 20
21.814018
 11
141.257657
 21
43.814048
  0
ARC
  8
型材断面
  6
DASHDOT
 10
138.757697
 20
44.014048
 40
23.06264
 50
217.525659
 51
262.525659
  0
INSERT
  2
*GRP_0024
  8
型材断面
  6
CONTINUOUS
 10
0.0
 20
0.0
  0
LINE
  8
型材断面
  6
CONTINUOUS
 10
135.807775
 20
22.530727
 11
135.31436
 21
22.530727
  0
LINE
  8
型材断面
  6
CONTINUOUS
 10
135.807775
 20
21.147405
 11
136.474443
 21
21.147405
  0
LINE
  8
型材断面
  6
CONTINUOUS
 10
135.31436
 20
42.314038
 11
135.31436
 21
43.047382
  0
LINE
  8
型材断面
  6
CONTINUOUS
 10
135.807775
 20
43.097382
 11
135.31436
 21
43.097382
  0
LINE
  8
型材断面
  6
CONTINUOUS
 10
135.807775
 20
44.480705
 11
136.474443
 21
44.480705
  0
LINE
  8
型材断面
  6
CONTINUOUS
 10
135.31436
 20
22.530727
 11
135.31436
 21
43.097382
  0
LINE
  8
型材断面
  6
CONTINUOUS
 10
135.807775
 20
21.147405
 11
135.807775
 21
44.480705
  0
LINE
  8
型材断面
  6
CONTINUOUS
 10
136.474443
 20
21.147405
 11
136.474443
 21
44.480705
  0
LINE
  8
型材断面
  6
CONTINUOUS
 10
-55.31727
 20
24.147382
 11
-52.983935
 21
24.147382
  0
LINE
  8
型材断面
  6
CONTINUOUS
 10
-52.983935
 20
24.147382
 11
-52.983935
 21
41.480682
  0
LINE
  8
型材断面
  6
CONTINUOUS
 10
-52.983935
 20
41.480682
 11
-55.31727
 21
41.480682
  0
LINE
  8
型材断面
  6
CONTINUOUS
 10
-55.31727
 20
24.147382
 11
-55.31727
 21
41.480682
  0
LINE
  8
型材断面
  6
CONTINUOUS
 10
-54.483935
 20
24.147382
 11
-54.483935
 21
41.480682
  0
LINE
  8
型材断面
  6
CONTINUOUS
 10
-53.81727
 20
24.147382
 11
-53.81727
 21
41.480682
  0
LINE
  8
型材断面
  6
CONTINUOUS
 10
-21.608943
 20
24.147382
 11
-19.275608
 21
24.147382
  0
LINE
  8
型材断面
  6
CONTINUOUS
 10
-19.275608
 20
24.147382
 11
-19.275608
 21
41.480682
  0
LINE
  8
型材断面
  6
CONTINUOUS
 10
-19.275608
 20
41.480682
 11
-21.608943
 21
41.480682
  0
LINE
  8
型材断面
  6
CONTINUOUS
 10
-21.608943
 20
24.147382
 11
-21.608943
 21
41.480682
  0
LINE
  8
型材断面
  6
CONTINUOUS
 10
-20.775608
 20
24.147382
 11
-20.775608
 21
41.480682
  0
LINE
  8
型材断面
  6
CONTINUOUS
 10
-20.108943
 20
24.147382
 11
-20.108943
 21
41.480682
  0
LINE
  8
型材断面
  6
CONTINUOUS
 10
12.099395
 20
24.147382
 11
14.43273
 21
24.147382
  0
LINE
  8
型材断面
  6
CONTINUOUS
 10
14.43273
 20
24.147382
 11
14.43273
 21
41.480682
  0
LINE
  8
型材断面
  6
CONTINUOUS
 10
14.43273
 20
41.480682
 11
12.099395
 21
41.480682
  0
LINE
  8
型材断面
  6
CONTINUOUS
 10
12.099395
 20
24.147382
 11
12.099395
 21
41.480682
  0
LINE
  8
型材断面
  6
CONTINUOUS
 10
12.93273
 20
24.147382
 11
12.93273
 21
41.480682
  0
LINE
  8
型材断面
  6
CONTINUOUS
 10
13.599395
 20
24.147382
 11
13.599395
 21
41.480682
  0
LINE
  8
型材断面
  6
CONTINUOUS
 10
-20.442275
 20
49.314048
 11
-20.442275
 21
44.480682
  0
LINE
  8
型材断面
  6
CONTINUOUS
 10
-20.442275
 20
16.314018
 11
-20.442275
 21
21.147382
  0
LINE
  8
ガラス
  6
CONTINUOUS
 10
138.035135
 20
-45.191913
 11
138.035135
 21
-65.191913
  0
LINE
  8
ガラス
  6
CONTINUOUS
 10
138.035135
 20
-45.191913
 11
105.825135
 21
-45.191913
  0
LINE
  8
ガラス
  6
CONTINUOUS
 10
105.825135
 20
-45.191913
 11
105.825135
 21
-65.191913
  0
LINE
  8
ガラス
  6
CONTINUOUS
 10
138.035135
 20
-65.191913
 11
105.825135
 21
-65.191913
  0
LINE
  8
ガラス
  6
CONTINUOUS
 10
-67.86904
 20
35.444993
 11
-73.13097
 21
30.183065
  0
LINE
  8
ガラス
  6
CONTINUOUS
 10
-69.18139
 20
31.495413
 11
-71.81862
 21
34.132655
  0
LINE
  8
ガラス
  6
CONTINUOUS
 10
-70.88748
 20
31.556313
 11
-68.854447
 21
33.589345
  0
LINE
  8
ガラス
  6
CONTINUOUS
 10
-70.112537
 20
34.071753
 11
-72.14556
 21
32.038723
  0
LINE
  8
ガラス
  6
CONTINUOUS
 10
-34.24404
 20
35.444993
 11
-39.50597
 21
30.183065
  0
LINE
  8
ガラス
  6
CONTINUOUS
 10
-35.55639
 20
31.495413
 11
-38.19362
 21
34.132655
  0
LINE
  8
ガラス
  6
CONTINUOUS
 10
-37.26248
 20
31.556313
 11
-35.229447
 21
33.589345
  0
LINE
  8
ガラス
  6
CONTINUOUS
 10
-36.487537
 20
34.071753
 11
-38.52056
 21
32.038723
  0
LINE
  8
ガラス
  6
CONTINUOUS
 10
-0.61904
 20
35.444993
 11
-5.88097
 21
30.183065
  0
LINE
  8
ガラス
  6
CONTINUOUS
 10
-1.93139
 20
31.495413
 11
-4.56862
 21
34.132655
  0
LINE
  8
ガラス
  6
CONTINUOUS
 10
-3.63748
 20
31.556313
 11
-1.604447
 21
33.589345
  0
LINE
  8
ガラス
  6
CONTINUOUS
 10
-2.862537
 20
34.071753
 11
-4.89556
 21
32.038723
  0
LINE
  8
ガラス
  6
CONTINUOUS
 10
32.50596
 20
35.444993
 11
27.24403
 21
30.183065
  0
LINE
  8
ガラス
  6
CONTINUOUS
 10
31.19361
 20
31.495413
 11
28.55638
 21
34.132655
  0
LINE
  8
ガラス
  6
CONTINUOUS
 10
29.48752
 20
31.556313
 11
31.520552
 21
33.589345
  0
LINE
  8
ガラス
  6
CONTINUOUS
 10
30.262463
 20
34.071753
 11
28.22944
 21
32.038723
  0
TEXT
  7
TextStyle03
  8
文字
  6
CONTINUOUS
 10
78.1
 20
125.25
  1
シリーズ：ＳＴＦＦＨＬ
 40
5.0
 72
     5
 11
139.35
 21
125.25
  0
TEXT
  7
TextStyle03
  8
文字
  6
CONTINUOUS
 10
78.1
 20
119.625
  1
　　　　　（片側開閉）600×4000タイプ
 40
5.0
 72
     5
 11
181.5375
 21
119.625
  0
TEXT
  7
TextStyle03
  8
文字
  6
CONTINUOUS
 10
78.1
 20
114.0
  1
図面名　：外観姿図
 40
5.0
 72
     5
 11
128.1
 21
114.0
  0
TEXT
  7
TextStyle03
  8
文字
  6
CONTINUOUS
 10
78.1
 20
108.375
  1
　　　　　　
 40
5.0
 72
     5
 11
111.225
 21
108.375
  0
TEXT
  7
TextStyle03
  8
文字
  6
CONTINUOUS
 10
-125.15
 20
84.95
  1
は排水穴位置を示す
 40
3.0
 72
     5
 11
-95.15
 21
84.95
  0
TEXT
  7
TextStyle03
  8
文字
  6
CONTINUOUS
 10
-125.15
 20
79.425
  1
はケーシング位置を示す
 40
3.0
 72
     5
 11
-88.4
 21
79.425
  0
TEXT
  7
TextStyle03
  8
文字
  6
CONTINUOUS
 10
-125.15
 20
76.05
  1
２ヶ所中1ヶ所に設定
 40
3.0
 72
     5
 11
-93.4625
 21
76.05
  0
TEXT
  7
TextStyle03
  8
文字
  6
CONTINUOUS
 10
-108.175
 20
11.275
  1
アンカーピッチ
 40
3.0
 50
90.0
 72
     5
 11
-108.175
 21
34.525
  0
TEXT
  7
TextStyle03
  8
文字
  6
CONTINUOUS
 10
-128.875
 20
70.075
  1
アンカー数量　１６ヶ所
 40
3.0
 72
     5
 11
-92.125
 21
70.075
  0
TEXT
  7
TextStyle03
  8
文字
  6
CONTINUOUS
 10
38.4
 20
-87.375
  1
※は物件対応寸法
 40
3.0
 72
     5
 11
65.025
 21
-87.375
  0
TEXT
  7
TextStyle03
  8
文字
  6
CONTINUOUS
 10
119.2
 20
-58.2
  1
網入り6.8t
 40
3.0
 72
     5
 11
135.8875
 21
-58.2
  0
TEXT
  7
TextStyle03
  8
文字
  6
CONTINUOUS
 10
125.875
 20
-62.875
  1
×４枚
 40
3.0
 72
     5
 11
135.625
 21
-62.875
  0
TEXT
  7
TextStyle03
  8
文字
  6
CONTINUOUS
 10
127.475
 20
17.6
  1
45°
 40
3.0
 50
90.0
 72
     5
 11
127.475
 21
23.975
  0
TEXT
  7
TextStyle03
  8
文字
  6
CONTINUOUS
 10
-79.025
 20
87.975
  1
アンカーピッチ
 40
3.0
 72
     5
 11
-55.775
 21
87.975
  0
INSERT
  2
*DIM_0002
  8
寸法
  6
CONTINUOUS
 10
0.0
 20
0.0
  0
INSERT
  2
*DIM_0003
  8
寸法
  6
CONTINUOUS
 10
0.0
 20
0.0
  0
INSERT
  2
*DIM_0004
  8
寸法
  6
CONTINUOUS
 10
0.0
 20
0.0
  0
INSERT
  2
*DIM_0005
  8
寸法
  6
CONTINUOUS
 10
0.0
 20
0.0
  0
INSERT
  2
*DIM_0013
  8
寸法
  6
CONTINUOUS
 10
0.0
 20
0.0
  0
INSERT
  2
*DIM_0014
  8
寸法
  6
CONTINUOUS
 10
0.0
 20
0.0
  0
INSERT
  2
*DIM_0015
  8
寸法
  6
CONTINUOUS
 10
0.0
 20
0.0
  0
INSERT
  2
*DIM_0016
  8
寸法
  6
CONTINUOUS
 10
0.0
 20
0.0
  0
INSERT
  2
*DIM_0017
  8
寸法
  6
CONTINUOUS
 10
0.0
 20
0.0
  0
INSERT
  2
*DIM_0018
  8
寸法
  6
CONTINUOUS
 10
0.0
 20
0.0
  0
INSERT
  2
*DIM_0019
  8
寸法
  6
CONTINUOUS
 10
0.0
 20
0.0
  0
INSERT
  2
*DIM_0027
  8
寸法
  6
CONTINUOUS
 10
0.0
 20
0.0
  0
INSERT
  2
*DIM_0028
  8
寸法
  6
CONTINUOUS
 10
0.0
 20
0.0
  0
INSERT
  2
*DIM_0029
  8
寸法
  6
CONTINUOUS
 10
0.0
 20
0.0
  0
INSERT
  2
*DIM_0030
  8
寸法
  6
CONTINUOUS
 10
0.0
 20
0.0
  0
INSERT
  2
*DIM_0031
  8
寸法
  6
CONTINUOUS
 10
0.0
 20
0.0
  0
INSERT
  2
*DIM_0032
  8
寸法
  6
CONTINUOUS
 10
0.0
 20
0.0
  0
INSERT
  2
*DIM_0033
  8
寸法
  6
CONTINUOUS
 10
0.0
 20
0.0
  0
INSERT
  2
*DIM_0034
  8
寸法
  6
CONTINUOUS
 10
0.0
 20
0.0
  0
INSERT
  2
*DIM_0035
  8
寸法
  6
CONTINUOUS
 10
0.0
 20
0.0
  0
INSERT
  2
*DIM_0036
  8
寸法
  6
CONTINUOUS
 10
0.0
 20
0.0
  0
INSERT
  2
*GRP_0011
  8
別途部材
  6
DOT
 10
0.0
 20
0.0
  0
INSERT
  2
*GRP_0012
  8
別途部材
  6
DOT
 10
0.0
 20
0.0
  0
INSERT
  2
*GRP_0020
  8
別途部材
  6
DOT
 10
0.0
 20
0.0
  0
INSERT
  2
*GRP_0021
  8
別途部材
  6
DOT
 10
0.0
 20
0.0
  0
INSERT
  2
*GRP_0022
  8
別途部材
  6
CONTINUOUS
 10
0.0
 20
0.0
  0
ENDSEC
  0
EOF
