  0
SECTION
  2
HEADER
  9
$EXTMIN
 10
-210.0
 20
-148.5
  9
$EXTMAX
 10
210.0
 20
148.5
  9
$PDMODE
 70
    32
  9
$PDSIZE
 40
1.5
  9
$LTSCALE
 40
10.0
  0
ENDSEC
  0
SECTION
  2
TABLES
  0
TABLE
  2
LTYPE
 70
    15
  0
LTYPE
  2
CONTINUOUS
 70
    64
  3
実線
 72
    65
 73
     0
 40
0.0
  0
LTYPE
  2
DASHED
 70
    64
  3
破線A
 72
    65
 73
     2
 40
0.6
 49
0.4
 49
-0.2
  0
LTYPE
  2
DASHEDX2
 70
    64
  3
破線B
 72
    65
 73
     2
 40
1.3
 49
0.9
 49
-0.4
  0
LTYPE
  2
DASHDOT
 70
    64
  3
１点鎖線A
 72
    65
 73
     4
 40
0.5375
 49
0.375
 49
-0.05
 49
0.0625
 49
-0.05
  0
LTYPE
  2
DASHDOTX2
 70
    64
  3
１点鎖線B
 72
    65
 73
     4
 40
1.075
 49
0.75
 49
-0.1
 49
0.125
 49
-0.1
  0
LTYPE
  2
DIVIDE2
 70
    64
  3
２点鎖線A
 72
    65
 73
     6
 40
0.5125
 49
0.3
 49
-0.0375
 49
0.05
 49
-0.0375
 49
0.05
 49
-0.0375
  0
LTYPE
  2
DIVIDE
 70
    64
  3
２点鎖線B
 72
    65
 73
     6
 40
1.05
 49
0.55
 49
-0.1
 49
0.1
 49
-0.1
 49
0.1
 49
-0.1
  0
LTYPE
  2
DOT
 70
    64
  3
点線A
 72
    65
 73
     2
 40
0.1125
 49
0.0625
 49
-0.05
  0
LTYPE
  2
DOTX2
 70
    64
  3
点線B
 72
    65
 73
     2
 40
0.275
 49
0.15
 49
-0.125
  0
LTYPE
  2
CONTINUOUS
 70
    64
  3
実線
 72
    65
 73
     0
 40
0.0
  0
LTYPE
  2
CONTINUOUS
 70
    64
  3
実線
 72
    65
 73
     0
 40
0.0
  0
LTYPE
  2
CONTINUOUS
 70
    64
  3
実線
 72
    65
 73
     0
 40
0.0
  0
LTYPE
  2
CONTINUOUS
 70
    64
  3
実線
 72
    65
 73
     0
 40
0.0
  0
LTYPE
  2
CONTINUOUS
 70
    64
  3
実線
 72
    65
 73
     0
 40
0.0
  0
LTYPE
  2
CONTINUOUS
 70
    64
  3
実線
 72
    65
 73
     0
 40
0.0
  0
ENDTAB
  0
TABLE
  2
LAYER
 70
    34
  0
LAYER
  2
通り芯
 70
     0
 62
    15
  6
CONTINUOUS
  0
LAYER
  2
補助線
 70
     0
 62
    16
  6
DOT
  0
LAYER
  2
躯体
 70
     0
 62
    31
  6
CONTINUOUS
  0
LAYER
  2
型材
 70
     0
 62
    32
  6
CONTINUOUS
  0
LAYER
  2
型材断面
 70
     0
 62
    47
  6
CONTINUOUS
  0
LAYER
  2
ガラス
 70
     0
 62
    48
  6
CONTINUOUS
  0
LAYER
  2
ゴム等
 70
     0
 62
    63
  6
CONTINUOUS
  0
LAYER
  2
ボルト／ビス
 70
     0
 62
    64
  6
CONTINUOUS
  0
LAYER
  2
文字
 70
     0
 62
    79
  6
CONTINUOUS
  0
LAYER
  2
寸法
 70
     0
 62
    80
  6
CONTINUOUS
  0
LAYER
  2
ﾊｯﾁﾝｸﾞ
 70
     0
 62
    95
  6
CONTINUOUS
  0
LAYER
  2
別途部材
 70
     0
 62
    96
  6
CONTINUOUS
  0
LAYER
  2
曲げ物
 70
     0
 62
   111
  6
CONTINUOUS
  0
LAYER
  2
鉄骨等
 70
     0
 62
   112
  6
CONTINUOUS
  0
LAYER
  2
St
 70
     0
 62
   127
  6
CONTINUOUS
  0
LAYER
  2
その他部品等
 70
     0
 62
   128
  6
CONTINUOUS
  0
LAYER
  2
ｶﾞｽｹｯﾄ
 70
     0
 62
   143
  6
CONTINUOUS
  0
LAYER
  2
ｽｹｯﾁ
 70
     0
 62
    14
  6
CONTINUOUS
  0
LAYER
  2
0
 70
     0
 62
    17
  6
CONTINUOUS
  0
LAYER
  2
1
 70
     0
 62
    30
  6
CONTINUOUS
  0
LAYER
  2
4
 70
     0
 62
    33
  6
CONTINUOUS
  0
LAYER
  2
ﾚｲﾔ3
 70
     0
 62
    46
  6
CONTINUOUS
  0
LAYER
  2
外形線
 70
     0
 62
    49
  6
CONTINUOUS
  0
LAYER
  2
部品
 70
     0
 62
    14
  6
CONTINUOUS
  0
LAYER
  2
サッシ芯
 70
     0
 62
    17
  6
DASHDOTX2
  0
LAYER
  2
寸法線
 70
     0
 62
    62
  6
CONTINUOUS
  0
LAYER
  2
姿図外形線
 70
     0
 62
    65
  6
CONTINUOUS
  0
LAYER
  2
姿補助線
 70
     0
 62
    30
  6
CONTINUOUS
  0
LAYER
  2
透視線
 70
     0
 62
    78
  6
DOT
  0
LAYER
  2
用紙
 70
     0
 62
    81
  6
CONTINUOUS
  0
LAYER
  2
実線図枠
 70
     0
 62
    94
  6
CONTINUOUS
  0
LAYER
  2
補助図枠
 70
     0
 62
    97
  6
CONTINUOUS
  0
LAYER
  2
建具記号
 70
     0
 62
   110
  6
CONTINUOUS
  0
LAYER
  2
補助文字
 70
     0
 62
   113
  6
CONTINUOUS
  0
ENDTAB
  0
TABLE
  2
STYLE
 70
    10
  0
STYLE
  2
STANDARD
 70
     0
 40
1.0
 41
1.0
 42
1.0
 50
0.0
 71
     0
  3
TXT
  4
BIGFONT
  0
STYLE
  2
TATE
 70
     4
 40
1.0
 41
1.0
 42
1.0
 50
0.0
 71
     0
  3
TXT
  4
BIGFONT
  0
STYLE
  2
TextStyle03
 70
     0
 40
1.0
 41
1.0
 42
1.0
 50
0.0
 71
     0
  3
MONOTXT
  4
BIGFONT
  0
STYLE
  2
TextStyle04
 70
     0
 40
1.0
 41
1.0
 42
1.0
 50
0.0
 71
     0
  3
MONOTXT
  4
BIGFONT
  0
STYLE
  2
TextStyle05
 70
     0
 40
1.0
 41
1.0
 42
1.0
 50
0.0
 71
     0
  3
MONOTXT
  4
BIGFONT
  0
STYLE
  2
TextStyle06
 70
     0
 40
1.0
 41
1.0
 42
1.0
 50
0.0
 71
     0
  3
MONOTXT
  4
BIGFONT
  0
STYLE
  2
TextStyle07
 70
     0
 40
1.0
 41
1.0
 42
1.0
 50
0.0
 71
     0
  3
MONOTXT
  4
BIGFONT
  0
STYLE
  2
TextStyle08
 70
     0
 40
1.0
 41
1.0
 42
1.0
 50
0.0
 71
     0
  3
MONOTXT
  4
BIGFONT
  0
STYLE
  2
TextStyle09
 70
     0
 40
1.0
 41
1.0
 42
1.0
 50
0.0
 71
     0
  3
MONOTXT
  4
BIGFONT
  0
STYLE
  2
TextStyle10
 70
     0
 40
1.0
 41
1.0
 42
1.0
 50
0.0
 71
     0
  3
MONOTXT
  4
BIGFONT
  0
ENDTAB
  0
ENDSEC
  0
SECTION
  2
BLOCKS
  0
BLOCK
  2
*GRP_0001
 70
    65
 10
0.0
 20
0.0
  0
LINE
  8
型材断面
  6
CONTINUOUS
 10
195.0
 20
133.5
 11
195.0
 21
-133.5
  0
LINE
  8
型材断面
  6
CONTINUOUS
 10
195.0
 20
-133.5
 11
-185.0
 21
-133.5
  0
LINE
  8
型材断面
  6
CONTINUOUS
 10
-185.0
 20
-133.5
 11
-185.0
 21
133.5
  0
LINE
  8
型材断面
  6
CONTINUOUS
 10
195.0
 20
133.5
 11
-185.0
 21
133.5
  0
LINE
  8
型材断面
  6
CONTINUOUS
 10
145.0
 20
-133.5
 11
145.0
 21
-118.5
  0
LINE
  8
型材断面
  6
CONTINUOUS
 10
195.0
 20
-118.5
 11
145.0
 21
-118.5
  0
ENDBLK
  0
BLOCK
  2
*DIM_0002
 70
    65
 10
0.0
 20
0.0
  0
LINE
  8
寸法
  6
BYBLOCK
 62
     0
 10
19.403067
 20
17.20722
 11
19.403067
 21
14.182178
  0
LINE
  8
寸法
  6
BYBLOCK
 62
     0
 10
21.403067
 20
14.182178
 11
19.403067
 21
14.182178
  0
POINT
  8
寸法
 62
     0
 10
21.403067
 20
14.182178
  0
POINT
  8
寸法
 62
     0
 10
19.403067
 20
14.182178
  0
TEXT
  7
TextStyle03
  8
寸法
  6
CONTINUOUS
 62
     0
 10
17.53125
 20
10.4
  1
60
 40
3.0
 72
     5
 11
20.71875
 21
10.4
  0
ENDBLK
  0
BLOCK
  2
*DIM_0003
 70
    65
 10
0.0
 20
0.0
  0
LINE
  8
寸法
  6
BYBLOCK
 62
     0
 10
-76.596933
 20
17.20722
 11
-76.596933
 21
14.182178
  0
LINE
  8
寸法
  6
BYBLOCK
 62
     0
 10
-78.596933
 20
14.182178
 11
-76.596933
 21
14.182178
  0
POINT
  8
寸法
 62
     0
 10
-78.596933
 20
14.182178
  0
POINT
  8
寸法
 62
     0
 10
-76.596933
 20
14.182178
  0
TEXT
  7
TextStyle03
  8
寸法
  6
CONTINUOUS
 62
     0
 10
-77.89375
 20
10.4
  1
60
 40
3.0
 72
     5
 11
-74.70625
 21
10.4
  0
ENDBLK
  0
BLOCK
  2
*DIM_0004
 70
    65
 10
0.0
 20
0.0
  0
LINE
  8
寸法
  6
BYBLOCK
 62
     0
 10
-81.596933
 20
47.814033
 11
-94.88977
 21
47.814033
  0
LINE
  8
寸法
  6
BYBLOCK
 62
     0
 10
-81.596933
 20
27.814033
 11
-94.88977
 21
27.814033
  0
LINE
  8
寸法
  6
BYBLOCK
 62
     0
 10
-94.88977
 20
47.814033
 11
-94.88977
 21
27.814033
  0
POINT
  8
寸法
 62
     0
 10
-94.88977
 20
47.814033
  0
POINT
  8
寸法
 62
     0
 10
-94.88977
 20
27.814033
  0
TEXT
  7
TextStyle03
  8
寸法
  6
CONTINUOUS
 62
     0
 10
-95.225
 20
35.3625
  1
600
 40
3.0
 50
90.0
 72
     5
 11
-95.225
 21
40.2375
  0
ENDBLK
  0
BLOCK
  2
*DIM_0005
 70
    65
 10
0.0
 20
0.0
  0
LINE
  8
寸法
  6
BYBLOCK
 62
     0
 10
-68.596933
 20
55.814033
 11
-68.596933
 21
84.922105
  0
LINE
  8
寸法
  6
BYBLOCK
 62
     0
 10
-41.930265
 20
55.814033
 11
-41.930265
 21
84.922105
  0
LINE
  8
寸法
  6
BYBLOCK
 62
     0
 10
-68.596933
 20
84.922105
 11
-41.930265
 21
84.922105
  0
POINT
  8
寸法
 62
     0
 10
-68.596933
 20
84.922105
  0
POINT
  8
寸法
 62
     0
 10
-41.930265
 20
84.922105
  0
TEXT
  7
TextStyle03
  8
寸法
  6
CONTINUOUS
 62
     0
 10
-57.7375
 20
85.275
  1
800
 40
3.0
 72
     5
 11
-52.8625
 21
85.275
  0
ENDBLK
  0
BLOCK
  2
*DIM_0006
 70
    65
 10
0.0
 20
0.0
  0
LINE
  8
寸法
  6
BYBLOCK
 62
     0
 10
-15.2636
 20
55.814033
 11
-15.2636
 21
84.922105
  0
LINE
  8
寸法
  6
BYBLOCK
 62
     0
 10
-41.930265
 20
84.922105
 11
-15.2636
 21
84.922105
  0
POINT
  8
寸法
 62
     0
 10
-15.2636
 20
84.922105
  0
TEXT
  7
TextStyle03
  8
寸法
  6
CONTINUOUS
 62
     0
 10
-31.0625
 20
85.275
  1
800
 40
3.0
 72
     5
 11
-26.1875
 21
85.275
  0
ENDBLK
  0
BLOCK
  2
*DIM_0007
 70
    65
 10
0.0
 20
0.0
  0
LINE
  8
寸法
  6
BYBLOCK
 62
     0
 10
11.403067
 20
55.814033
 11
11.403067
 21
84.922105
  0
LINE
  8
寸法
  6
BYBLOCK
 62
     0
 10
-15.2636
 20
84.922105
 11
11.403067
 21
84.922105
  0
POINT
  8
寸法
 62
     0
 10
11.403067
 20
84.922105
  0
TEXT
  7
TextStyle03
  8
寸法
  6
CONTINUOUS
 62
     0
 10
-4.3875
 20
85.275
  1
800
 40
3.0
 72
     5
 11
0.4875
 21
85.275
  0
ENDBLK
  0
BLOCK
  2
*DIM_0008
 70
    65
 10
0.0
 20
0.0
  0
LINE
  8
寸法
  6
BYBLOCK
 62
     0
 10
-61.930265
 20
14.282402
 11
-61.930265
 21
9.20179
  0
LINE
  8
寸法
  6
BYBLOCK
 62
     0
 10
4.7364
 20
14.282402
 11
4.7364
 21
9.20179
  0
LINE
  8
寸法
  6
BYBLOCK
 62
     0
 10
-61.930265
 20
9.20179
 11
4.7364
 21
9.20179
  0
POINT
  8
寸法
 62
     0
 10
-61.930265
 20
9.20179
  0
POINT
  8
寸法
 62
     0
 10
4.7364
 20
9.20179
  0
TEXT
  7
TextStyle03
  8
寸法
  6
CONTINUOUS
 62
     0
 10
-31.88125
 20
9.575
  1
2000
 40
3.0
 72
     5
 11
-25.31875
 21
9.575
  0
ENDBLK
  0
BLOCK
  2
*DIM_0009
 70
    65
 10
0.0
 20
0.0
  0
LINE
  8
寸法
  6
CONTINUOUS
 10
76.01517
 20
-32.806172
 11
76.01517
 21
-23.451645
  0
LINE
  8
寸法
  6
CONTINUOUS
 10
108.348503
 20
-32.806172
 11
108.348503
 21
-23.451645
  0
LINE
  8
寸法
  6
CONTINUOUS
 10
76.01517
 20
-23.451645
 11
108.348503
 21
-23.451645
  0
POINT
  8
寸法
 10
76.01517
 20
-23.451645
  0
POINT
  8
寸法
 10
108.348503
 20
-23.451645
  0
TEXT
  7
TextStyle03
  8
寸法
  6
CONTINUOUS
 10
89.7375
 20
-23.1
  1
970
 40
3.0
 72
     5
 11
94.6125
 21
-23.1
  0
ENDBLK
  0
BLOCK
  2
*DIM_0010
 70
    65
 10
0.0
 20
0.0
  0
LINE
  8
寸法
  6
CONTINUOUS
 10
109.348503
 20
-33.806172
 11
118.32421
 21
-33.806172
  0
LINE
  8
寸法
  6
CONTINUOUS
 10
109.348503
 20
-63.806172
 11
118.32421
 21
-63.806172
  0
LINE
  8
寸法
  6
CONTINUOUS
 10
118.32421
 20
-33.806172
 11
118.32421
 21
-63.806172
  0
POINT
  8
寸法
 10
118.32421
 20
-33.806172
  0
POINT
  8
寸法
 10
118.32421
 20
-63.806172
  0
TEXT
  7
TextStyle03
  8
寸法
  6
CONTINUOUS
 10
117.925
 20
-51.2625
  1
900
 40
3.0
 50
90.0
 72
     5
 11
117.925
 21
-46.3875
  0
ENDBLK
  0
BLOCK
  2
*GRP_0011
 70
    65
 10
0.0
 20
0.0
  0
LINE
  8
型材断面
  6
DOT
 62
    47
 10
112.024208
 20
55.286867
 11
113.367737
 21
53.943338
  0
LINE
  8
型材断面
  6
DOT
 62
    47
 10
89.396767
 20
32.65943
 11
90.740298
 21
31.3159
  0
LINE
  8
型材断面
  6
DOT
 10
90.740298
 20
31.3159
 11
113.367737
 21
53.943338
  0
LINE
  8
型材断面
  6
DOT
 10
89.23189
 20
33.837885
 11
88.882993
 21
34.186782
  0
LINE
  8
型材断面
  6
DOT
 10
88.253732
 20
32.85973
 11
88.725137
 21
32.388325
  0
LINE
  8
型材断面
  6
DOT
 10
109.942973
 20
55.246762
 11
110.461528
 21
55.765317
  0
LINE
  8
型材断面
  6
DOT
 10
110.84578
 20
55.451775
 11
110.496883
 21
55.800672
  0
LINE
  8
型材断面
  6
DOT
 10
111.823937
 20
56.429932
 11
112.29534
 21
55.958527
  0
LINE
  8
型材断面
  6
DOT
 10
88.882993
 20
34.186782
 11
110.496883
 21
55.800672
  0
LINE
  8
型材断面
  6
DOT
 10
88.253732
 20
32.85973
 11
111.823937
 21
56.429932
  0
LINE
  8
型材断面
  6
DOT
 10
88.725137
 20
32.388325
 11
112.29534
 21
55.958527
  0
ENDBLK
  0
BLOCK
  2
*GRP_0012
 70
    65
 10
0.0
 20
0.0
  0
INSERT
  2
*GRP_0013
  8
補助線
  6
CONTINUOUS
 10
0.0
 20
0.0
  0
CIRCLE
  8
別途部材
  6
CONTINUOUS
 10
113.579868
 20
54.014048
 40
0.2
  0
CIRCLE
  8
別途部材
  6
CONTINUOUS
 10
113.579868
 20
54.014048
 40
0.1
  0
LINE
  8
別途部材
  6
CONTINUOUS
 10
112.179868
 20
53.914048
 11
112.179868
 21
53.814048
  0
LINE
  8
別途部材
  6
CONTINUOUS
 10
113.579868
 20
53.814048
 11
112.179868
 21
53.814048
  0
LINE
  8
別途部材
  6
CONTINUOUS
 10
112.179868
 20
53.914048
 11
113.406662
 21
53.914048
  0
LINE
  8
別途部材
  6
CONTINUOUS
 10
114.979868
 20
53.914048
 11
114.979868
 21
53.814048
  0
LINE
  8
別途部材
  6
CONTINUOUS
 10
113.579868
 20
53.814048
 11
114.979868
 21
53.814048
  0
LINE
  8
別途部材
  6
CONTINUOUS
 10
114.979868
 20
53.914048
 11
113.753073
 21
53.914048
  0
LINE
  8
別途部材
  6
CONTINUOUS
 10
112.446532
 20
53.914048
 11
112.446532
 21
53.814048
  0
LINE
  8
別途部材
  6
CONTINUOUS
 10
112.7132
 20
53.914048
 11
112.7132
 21
53.814048
  0
LINE
  8
別途部材
  6
CONTINUOUS
 10
112.979868
 20
53.914048
 11
112.979868
 21
53.814048
  0
LINE
  8
別途部材
  6
CONTINUOUS
 10
114.7132
 20
53.914048
 11
114.7132
 21
53.814048
  0
LINE
  8
別途部材
  6
CONTINUOUS
 10
114.446532
 20
53.914048
 11
114.446532
 21
53.814048
  0
LINE
  8
別途部材
  6
CONTINUOUS
 10
114.179868
 20
53.914048
 11
114.179868
 21
53.814048
  0
ENDBLK
  0
BLOCK
  2
*GRP_0013
 70
    65
 10
0.0
 20
0.0
  0
LINE
  8
補助線
  6
BYBLOCK
 62
     0
 10
113.579868
 20
53.84738
 11
113.579868
 21
54.180715
  0
LINE
  8
補助線
  6
BYBLOCK
 62
     0
 10
113.4132
 20
54.014048
 11
113.746532
 21
54.014048
  0
ENDBLK
  0
BLOCK
  2
*DIM_0014
 70
    65
 10
0.0
 20
0.0
  0
LINE
  8
寸法
  6
CONTINUOUS
 10
85.977292
 20
22.814033
 11
85.977292
 21
52.814033
  0
POINT
  8
寸法
 10
85.977292
 20
22.814033
  0
POINT
  8
寸法
 10
85.977292
 20
52.814033
  0
TEXT
  7
TextStyle03
  8
寸法
  6
CONTINUOUS
 10
85.6
 20
26.925
  1
呼称寸法　900
 40
3.0
 50
90.0
 72
     5
 11
85.6
 21
48.675
  0
ENDBLK
  0
BLOCK
  2
*DIM_0015
 70
    65
 10
0.0
 20
0.0
  0
LINE
  8
寸法
  6
CONTINUOUS
 10
115.746498
 20
16.314018
 11
85.977292
 21
16.314018
  0
LINE
  8
寸法
  6
CONTINUOUS
 10
85.977292
 20
22.814033
 11
85.977292
 21
16.314018
  0
POINT
  8
寸法
 10
85.977292
 20
22.814033
  0
POINT
  8
寸法
 10
85.977292
 20
16.314018
  0
TEXT
  7
TextStyle03
  8
寸法
  6
CONTINUOUS
 10
85.6
 20
18.05
  1
※
 40
3.0
 50
90.0
 72
     5
 11
85.6
 21
21.05
  0
ENDBLK
  0
BLOCK
  2
*DIM_0016
 70
    65
 10
0.0
 20
0.0
  0
LINE
  8
寸法
  6
CONTINUOUS
 10
115.746498
 20
59.314048
 11
85.977292
 21
59.314048
  0
LINE
  8
寸法
  6
CONTINUOUS
 10
85.977292
 20
52.814033
 11
85.977292
 21
59.314048
  0
POINT
  8
寸法
 10
85.977292
 20
52.814033
  0
POINT
  8
寸法
 10
85.977292
 20
59.314048
  0
TEXT
  7
TextStyle03
  8
寸法
  6
CONTINUOUS
 10
85.6
 20
54.55
  1
※
 40
3.0
 50
90.0
 72
     5
 11
85.6
 21
57.55
  0
ENDBLK
  0
BLOCK
  2
*DIM_0017
 70
    65
 10
0.0
 20
0.0
  0
LINE
  8
寸法
  6
CONTINUOUS
 10
116.07983
 20
54.814048
 11
116.07983
 21
67.741883
  0
LINE
  8
寸法
  6
CONTINUOUS
 10
110.136533
 20
54.047382
 11
110.136533
 21
67.741883
  0
LINE
  8
寸法
  6
CONTINUOUS
 10
116.07983
 20
67.741883
 11
110.136533
 21
67.741883
  0
POINT
  8
寸法
 10
116.07983
 20
67.741883
  0
POINT
  8
寸法
 10
110.136533
 20
67.741883
  0
TEXT
  7
TextStyle03
  8
寸法
  6
CONTINUOUS
 10
101.65
 20
64.975
  1
178.3
 40
3.0
 72
     5
 11
109.9
 21
64.975
  0
ENDBLK
  0
BLOCK
  2
*DIM_0018
 70
    65
 10
0.0
 20
0.0
  0
LINE
  8
寸法
  6
CONTINUOUS
 10
119.07983
 20
60.314048
 11
119.07983
 21
67.741883
  0
LINE
  8
寸法
  6
CONTINUOUS
 10
116.07983
 20
67.741883
 11
119.07983
 21
67.741883
  0
POINT
  8
寸法
 10
119.07983
 20
67.741883
  0
TEXT
  7
TextStyle03
  8
寸法
  6
CONTINUOUS
 10
116.075
 20
68.1
  1
※
 40
3.0
 72
     5
 11
119.075
 21
68.1
  0
ENDBLK
  0
BLOCK
  2
*DIM_0019
 70
    65
 10
0.0
 20
0.0
  0
LINE
  8
寸法
  6
BYBLOCK
 62
     0
 10
21.403067
 20
-13.121378
 11
-78.596933
 21
-13.121378
  0
POINT
  8
寸法
 62
     0
 10
21.403067
 20
-13.121378
  0
POINT
  8
寸法
 62
     0
 10
-78.596933
 20
-13.121378
  0
TEXT
  7
TextStyle03
  8
寸法
  6
CONTINUOUS
 62
     0
 10
-40.34375
 20
-12.75
  1
呼称寸法　3000
 40
3.0
 72
     5
 11
-16.90625
 21
-12.75
  0
ENDBLK
  0
BLOCK
  2
*GRP_0020
 70
    65
 10
0.0
 20
0.0
  0
LINE
  8
ボルト／ビス
  6
CONTINUOUS
 10
-79.263598
 20
-70.209608
 11
-79.263598
 21
-69.74294
  0
LINE
  8
ボルト／ビス
  6
CONTINUOUS
 10
-78.89693
 20
-70.209608
 11
-78.89693
 21
-70.14294
  0
LINE
  8
ボルト／ビス
  6
CONTINUOUS
 10
-78.89693
 20
-70.14294
 11
-79.630265
 21
-70.14294
  0
LINE
  8
ボルト／ビス
  6
CONTINUOUS
 10
-79.630265
 20
-70.14294
 11
-79.630265
 21
-70.209608
  0
LINE
  8
ボルト／ビス
  6
CONTINUOUS
 10
-78.89693
 20
-70.209608
 11
-79.630265
 21
-70.209608
  0
LINE
  8
ボルト／ビス
  6
CONTINUOUS
 10
-78.963598
 20
-70.109608
 11
-78.963598
 21
-70.14294
  0
LINE
  8
ボルト／ビス
  6
CONTINUOUS
 10
-78.963598
 20
-70.109608
 11
-79.563598
 21
-70.109608
  0
LINE
  8
ボルト／ビス
  6
CONTINUOUS
 10
-79.563598
 20
-70.109608
 11
-79.563598
 21
-70.14294
  0
LINE
  8
ボルト／ビス
  6
CONTINUOUS
 62
    64
 10
-79.103222
 20
-69.909608
 11
-79.071148
 21
-69.921282
  0
ARC
  8
ボルト／ビス
  6
CONTINUOUS
 62
    64
 10
-79.119259
 20
-70.014588
 40
0.104978
 50
90.0
 51
117.278033
  0
ARC
  8
ボルト／ビス
  6
CONTINUOUS
 62
    64
 10
-79.263597
 20
-70.312012
 40
0.402402
 50
76.165015
 51
103.834998
  0
LINE
  8
ボルト／ビス
  6
CONTINUOUS
 62
    64
 10
-79.423973
 20
-69.909608
 11
-79.456048
 21
-69.921282
  0
ARC
  8
ボルト／ビス
  6
CONTINUOUS
 62
    64
 10
-79.407934
 20
-70.014588
 40
0.104978
 50
62.721967
 51
90.0
  0
LINE
  8
ボルト／ビス
  6
CONTINUOUS
 62
    64
 10
-79.103222
 20
-69.909608
 11
-79.423973
 21
-69.909608
  0
LINE
  8
ボルト／ビス
  6
CONTINUOUS
 62
    64
 10
-79.456048
 20
-69.921282
 11
-79.456048
 21
-70.04294
  0
LINE
  8
ボルト／ビス
  6
CONTINUOUS
 62
    64
 10
-79.359822
 20
-69.921282
 11
-79.359822
 21
-70.04294
  0
LINE
  8
ボルト／ビス
  6
CONTINUOUS
 62
    64
 10
-79.071148
 20
-69.921282
 11
-79.071148
 21
-70.04294
  0
LINE
  8
ボルト／ビス
  6
CONTINUOUS
 62
    64
 10
-79.167372
 20
-69.921282
 11
-79.167372
 21
-70.04294
  0
LINE
  8
ボルト／ビス
  6
CONTINUOUS
 10
-79.071148
 20
-70.04294
 11
-79.456048
 21
-70.04294
  0
LINE
  8
ボルト／ビス
  6
CONTINUOUS
 10
-79.063598
 20
-70.04294
 11
-79.063598
 21
-70.109608
  0
LINE
  8
ボルト／ビス
  6
CONTINUOUS
 10
-79.063598
 20
-70.04294
 11
-79.463598
 21
-70.04294
  0
LINE
  8
ボルト／ビス
  6
CONTINUOUS
 10
-79.463598
 20
-70.04294
 11
-79.463598
 21
-70.109608
  0
ENDBLK
  0
BLOCK
  2
*GRP_0021
 70
    65
 10
0.0
 20
0.0
  0
LINE
  8
ボルト／ビス
  6
CONTINUOUS
 10
22.069737
 20
-70.209613
 11
22.069737
 21
-69.742945
  0
LINE
  8
ボルト／ビス
  6
CONTINUOUS
 10
22.436405
 20
-70.209613
 11
22.436405
 21
-70.142945
  0
LINE
  8
ボルト／ビス
  6
CONTINUOUS
 10
22.436405
 20
-70.142945
 11
21.70307
 21
-70.142945
  0
LINE
  8
ボルト／ビス
  6
CONTINUOUS
 10
21.70307
 20
-70.142945
 11
21.70307
 21
-70.209613
  0
LINE
  8
ボルト／ビス
  6
CONTINUOUS
 10
22.436405
 20
-70.209613
 11
21.70307
 21
-70.209613
  0
LINE
  8
ボルト／ビス
  6
CONTINUOUS
 10
22.369737
 20
-70.109612
 11
22.369737
 21
-70.142945
  0
LINE
  8
ボルト／ビス
  6
CONTINUOUS
 10
22.369737
 20
-70.109612
 11
21.769737
 21
-70.109612
  0
LINE
  8
ボルト／ビス
  6
CONTINUOUS
 10
21.769737
 20
-70.109612
 11
21.769737
 21
-70.142945
  0
LINE
  8
ボルト／ビス
  6
CONTINUOUS
 62
    64
 10
22.230112
 20
-69.909613
 11
22.262188
 21
-69.921288
  0
ARC
  8
ボルト／ビス
  6
CONTINUOUS
 62
    64
 10
22.214076
 20
-70.014593
 40
0.104978
 50
90.0
 51
117.278033
  0
ARC
  8
ボルト／ビス
  6
CONTINUOUS
 62
    64
 10
22.069738
 20
-70.312017
 40
0.402402
 50
76.165015
 51
103.834998
  0
LINE
  8
ボルト／ビス
  6
CONTINUOUS
 62
    64
 10
21.909362
 20
-69.909613
 11
21.877288
 21
-69.921288
  0
ARC
  8
ボルト／ビス
  6
CONTINUOUS
 62
    64
 10
21.925401
 20
-70.014593
 40
0.104978
 50
62.721967
 51
90.0
  0
LINE
  8
ボルト／ビス
  6
CONTINUOUS
 62
    64
 10
22.230112
 20
-69.909613
 11
21.909362
 21
-69.909613
  0
LINE
  8
ボルト／ビス
  6
CONTINUOUS
 62
    64
 10
21.877288
 20
-69.921288
 11
21.877288
 21
-70.042945
  0
LINE
  8
ボルト／ビス
  6
CONTINUOUS
 62
    64
 10
21.973512
 20
-69.921288
 11
21.973512
 21
-70.042945
  0
LINE
  8
ボルト／ビス
  6
CONTINUOUS
 62
    64
 10
22.262188
 20
-69.921288
 11
22.262188
 21
-70.042945
  0
LINE
  8
ボルト／ビス
  6
CONTINUOUS
 62
    64
 10
22.165963
 20
-69.921288
 11
22.165963
 21
-70.042945
  0
LINE
  8
ボルト／ビス
  6
CONTINUOUS
 10
22.262188
 20
-70.042945
 11
21.877288
 21
-70.042945
  0
LINE
  8
ボルト／ビス
  6
CONTINUOUS
 10
22.269737
 20
-70.042945
 11
22.269737
 21
-70.109612
  0
LINE
  8
ボルト／ビス
  6
CONTINUOUS
 10
22.269737
 20
-70.042945
 11
21.869737
 21
-70.042945
  0
LINE
  8
ボルト／ビス
  6
CONTINUOUS
 10
21.869737
 20
-70.042945
 11
21.869737
 21
-70.109612
  0
ENDBLK
  0
BLOCK
  2
*DIM_0022
 70
    65
 10
0.0
 20
0.0
  0
LINE
  8
寸法
  6
CONTINUOUS
 10
28.90308
 20
-78.70961
 11
37.372718
 21
-78.70961
  0
LINE
  8
寸法
  6
CONTINUOUS
 10
37.372718
 20
-75.70961
 11
37.372718
 21
-78.70961
  0
POINT
  8
寸法
 10
37.372718
 20
-78.70961
  0
TEXT
  7
TextStyle03
  8
寸法
  6
CONTINUOUS
 10
36.975
 20
-78.725
  1
※
 40
3.0
 50
90.0
 72
     5
 11
36.975
 21
-75.725
  0
ENDBLK
  0
BLOCK
  2
*DIM_0023
 70
    65
 10
0.0
 20
0.0
  0
LINE
  8
寸法
  6
CONTINUOUS
 10
27.90308
 20
-75.37628
 11
27.90308
 21
-13.121378
  0
LINE
  8
寸法
  6
CONTINUOUS
 10
21.403067
 20
-13.121378
 11
27.90308
 21
-13.121378
  0
POINT
  8
寸法
 10
21.403067
 20
-13.121378
  0
POINT
  8
寸法
 10
27.90308
 20
-13.121378
  0
TEXT
  7
TextStyle03
  8
寸法
  6
CONTINUOUS
 10
23.125
 20
-12.75
  1
※
 40
3.0
 72
     5
 11
26.125
 21
-12.75
  0
ENDBLK
  0
BLOCK
  2
*DIM_0024
 70
    65
 10
0.0
 20
0.0
  0
LINE
  8
寸法
  6
CONTINUOUS
 10
-85.096947
 20
-75.37628
 11
-85.096947
 21
-13.121378
  0
LINE
  8
寸法
  6
CONTINUOUS
 10
-78.596933
 20
-13.121378
 11
-85.096947
 21
-13.121378
  0
POINT
  8
寸法
 10
-78.596933
 20
-13.121378
  0
POINT
  8
寸法
 10
-85.096947
 20
-13.121378
  0
TEXT
  7
TextStyle03
  8
寸法
  6
CONTINUOUS
 10
-83.375
 20
-12.75
  1
※
 40
3.0
 72
     5
 11
-80.375
 21
-12.75
  0
ENDBLK
  0
BLOCK
  2
*DIM_0025
 70
    65
 10
0.0
 20
0.0
  0
LINE
  8
寸法
  6
CONTINUOUS
 10
23.40308
 20
-75.70961
 11
37.372718
 21
-75.70961
  0
LINE
  8
寸法
  6
CONTINUOUS
 10
22.636415
 20
-69.766312
 11
37.372718
 21
-69.766312
  0
LINE
  8
寸法
  6
CONTINUOUS
 10
37.372718
 20
-75.70961
 11
37.372718
 21
-69.766312
  0
POINT
  8
寸法
 10
37.372718
 20
-75.70961
  0
POINT
  8
寸法
 10
37.372718
 20
-69.766312
  0
TEXT
  7
TextStyle03
  8
寸法
  6
CONTINUOUS
 10
41.475
 20
-76.725
  1
178.3
 40
3.0
 50
90.0
 72
     5
 11
41.475
 21
-68.475
  0
ENDBLK
  0
ENDSEC
  0
SECTION
  2
ENTITIES
  0
POLYLINE
  8
通り芯
  6
CONTINUOUS
 66
     1
 70
     1
  0
VERTEX
  8
通り芯
 10
-210.0
 20
-148.5
  0
VERTEX
  8
通り芯
 10
210.0
 20
-148.5
  0
VERTEX
  8
通り芯
 10
210.0
 20
148.5
  0
VERTEX
  8
通り芯
 10
-210.0
 20
148.5
  0
SEQEND
  0
INSERT
  2
*GRP_0001
  8
型材断面
  6
CONTINUOUS
 10
0.0
 20
0.0
  0
LINE
  8
型材断面
  6
DASHDOT
 10
21.403067
 20
-77.836442
 11
21.403067
 21
52.814033
  0
LINE
  8
型材断面
  6
DASHDOT
 10
-28.596933
 20
-77.836442
 11
-28.596933
 21
52.814033
  0
LINE
  8
型材断面
  6
DASHDOT
 10
-78.596933
 20
-77.836442
 11
-78.596933
 21
52.814033
  0
LINE
  8
型材断面
  6
DASHDOT
 10
119.07983
 20
52.814033
 11
-78.596933
 21
52.814033
  0
LINE
  8
型材断面
  6
DASHDOT
 10
119.07983
 20
37.814033
 11
-78.596933
 21
37.814033
  0
LINE
  8
型材断面
  6
DASHDOT
 10
119.07983
 20
22.814033
 11
-78.596933
 21
22.814033
  0
LINE
  8
型材断面
  6
CONTINUOUS
 10
-61.930265
 20
55.444162
 11
-63.425895
 21
58.03467
  0
LINE
  8
型材断面
  6
CONTINUOUS
 10
-61.930265
 20
55.444162
 11
-60.434635
 21
58.03467
  0
LINE
  8
型材断面
  6
CONTINUOUS
 10
-60.434635
 20
58.03467
 11
-63.425895
 21
58.03467
  0
LINE
  8
型材断面
  6
CONTINUOUS
 10
-81.227063
 20
37.814033
 11
-83.81757
 21
39.309663
  0
LINE
  8
型材断面
  6
CONTINUOUS
 10
-81.227063
 20
37.814033
 11
-83.81757
 21
36.318403
  0
LINE
  8
型材断面
  6
CONTINUOUS
 10
-83.81757
 20
36.318403
 11
-83.81757
 21
39.309663
  0
LINE
  8
型材断面
  6
CONTINUOUS
 10
-61.930265
 20
20.183902
 11
-63.425895
 21
17.593395
  0
LINE
  8
型材断面
  6
CONTINUOUS
 10
-61.930265
 20
20.183902
 11
-60.434635
 21
17.593395
  0
LINE
  8
型材断面
  6
CONTINUOUS
 10
-60.434635
 20
17.593395
 11
-63.425895
 21
17.593395
  0
LINE
  8
型材断面
  6
CONTINUOUS
 10
-132.475455
 20
90.791505
 11
-131.8794
 21
88.200998
  0
LINE
  8
型材断面
  6
CONTINUOUS
 10
-132.475455
 20
90.791505
 11
-133.071512
 21
88.200998
  0
LINE
  8
型材断面
  6
CONTINUOUS
 10
-133.071512
 20
88.200998
 11
-131.8794
 21
88.200998
  0
LINE
  8
型材断面
  6
CONTINUOUS
 10
-138.498042
 20
84.922105
 11
-92.256265
 21
84.922105
  0
LINE
  8
型材断面
  6
CONTINUOUS
 10
-132.475455
 20
97.32138
 11
-133.971085
 21
94.730873
  0
LINE
  8
型材断面
  6
CONTINUOUS
 10
-132.475455
 20
97.32138
 11
-130.979825
 21
94.730873
  0
LINE
  8
型材断面
  6
CONTINUOUS
 10
-130.979825
 20
94.730873
 11
-133.971085
 21
94.730873
  0
LINE
  8
型材断面
  6
CONTINUOUS
 10
-138.498042
 20
93.792277
 11
-92.256265
 21
93.792277
  0
LINE
  8
型材断面
  6
CONTINUOUS
 10
-138.498042
 20
79.134073
 11
-92.256265
 21
79.134073
  0
LINE
  8
型材断面
  6
CONTINUOUS
 10
4.7364
 20
55.444162
 11
6.23203
 21
58.03467
  0
LINE
  8
型材断面
  6
CONTINUOUS
 10
4.7364
 20
55.444162
 11
3.24077
 21
58.03467
  0
LINE
  8
型材断面
  6
CONTINUOUS
 10
3.24077
 20
58.03467
 11
6.23203
 21
58.03467
  0
LINE
  8
型材断面
  6
CONTINUOUS
 10
4.7364
 20
20.183902
 11
6.23203
 21
17.593395
  0
LINE
  8
型材断面
  6
CONTINUOUS
 10
4.7364
 20
20.183902
 11
3.24077
 21
17.593395
  0
LINE
  8
型材断面
  6
CONTINUOUS
 10
3.24077
 20
17.593395
 11
6.23203
 21
17.593395
  0
LINE
  8
型材断面
  6
CONTINUOUS
 10
19.403067
 20
20.20722
 11
18.80701
 21
17.616715
  0
LINE
  8
型材断面
  6
CONTINUOUS
 10
19.403067
 20
20.20722
 11
19.999125
 21
17.616715
  0
LINE
  8
型材断面
  6
CONTINUOUS
 10
19.999125
 20
17.616715
 11
18.80701
 21
17.616715
  0
LINE
  8
型材断面
  6
CONTINUOUS
 10
-76.596933
 20
20.20722
 11
-76.000875
 21
17.616715
  0
LINE
  8
型材断面
  6
CONTINUOUS
 10
-76.596933
 20
20.20722
 11
-77.19299
 21
17.616715
  0
LINE
  8
型材断面
  6
CONTINUOUS
 10
-77.19299
 20
17.616715
 11
-76.000875
 21
17.616715
  0
LINE
  8
型材断面
  6
CONTINUOUS
 10
-85.096947
 20
16.314018
 11
-80.663602
 21
20.747363
  0
LINE
  8
型材断面
  6
CONTINUOUS
 10
23.469735
 20
20.747363
 11
27.90308
 21
16.314018
  0
LINE
  8
型材断面
  6
CONTINUOUS
 10
27.90308
 20
16.314018
 11
-85.096947
 21
16.314018
  0
LINE
  8
型材断面
  6
CONTINUOUS
 10
-80.663602
 20
54.880703
 11
-85.096947
 21
59.314048
  0
LINE
  8
型材断面
  6
CONTINUOUS
 10
-85.096947
 20
16.314018
 11
-85.096947
 21
59.314048
  0
LINE
  8
型材断面
  6
CONTINUOUS
 10
23.469735
 20
54.880703
 11
27.90308
 21
59.314048
  0
LINE
  8
型材断面
  6
CONTINUOUS
 10
27.90308
 20
59.314048
 11
27.90308
 21
16.314018
  0
LINE
  8
型材断面
  6
CONTINUOUS
 10
27.90308
 20
59.314048
 11
-85.096947
 21
59.314048
  0
POLYLINE
  8
型材断面
  6
DASHDOT
 66
     1
  0
VERTEX
  8
型材断面
 10
-78.596933
 20
22.814033
  0
VERTEX
  8
型材断面
 10
-28.596933
 20
52.814033
  0
VERTEX
  8
型材断面
 10
21.403065
 20
22.814033
  0
SEQEND
  0
LINE
  8
型材断面
  6
DASHDOT
 10
-11.680267
 20
52.814033
 11
-11.680267
 21
22.814033
  0
LINE
  8
型材断面
  6
DASHDOT
 10
-45.513602
 20
52.814033
 11
-45.513602
 21
22.814033
  0
LINE
  8
型材断面
  6
CONTINUOUS
 10
-80.263583
 20
54.480682
 11
-78.096915
 21
52.314015
  0
LINE
  8
型材断面
  6
CONTINUOUS
 10
-80.263583
 20
21.147382
 11
-78.096915
 21
23.31405
  0
LINE
  8
型材断面
  6
CONTINUOUS
 10
-78.096915
 20
23.31405
 11
-78.096915
 21
52.314015
  0
LINE
  8
型材断面
  6
CONTINUOUS
 10
-78.88026
 20
22.530705
 11
-78.88026
 21
53.09736
  0
LINE
  8
型材断面
  6
CONTINUOUS
 10
-80.263583
 20
21.147382
 11
-80.263583
 21
54.480682
  0
LINE
  8
型材断面
  6
CONTINUOUS
 10
20.90305
 20
52.314015
 11
23.069717
 21
54.480682
  0
LINE
  8
型材断面
  6
CONTINUOUS
 10
20.90305
 20
23.31405
 11
23.069717
 21
21.147382
  0
LINE
  8
型材断面
  6
CONTINUOUS
 10
20.90305
 20
23.31405
 11
20.90305
 21
52.314015
  0
LINE
  8
型材断面
  6
CONTINUOUS
 10
21.686395
 20
22.530705
 11
21.686395
 21
53.09736
  0
LINE
  8
型材断面
  6
CONTINUOUS
 10
23.069717
 20
21.147382
 11
23.069717
 21
54.480682
  0
LINE
  8
型材断面
  6
CONTINUOUS
 10
20.90305
 20
52.314015
 11
-78.096915
 21
52.314015
  0
LINE
  8
型材断面
  6
CONTINUOUS
 10
21.686395
 20
53.09736
 11
-78.88026
 21
53.09736
  0
LINE
  8
型材断面
  6
CONTINUOUS
 10
23.069717
 20
54.480682
 11
-80.263583
 21
54.480682
  0
LINE
  8
型材断面
  6
CONTINUOUS
 10
-78.096915
 20
23.31405
 11
20.90305
 21
23.31405
  0
LINE
  8
型材断面
  6
CONTINUOUS
 10
-78.88026
 20
22.530705
 11
21.686395
 21
22.530705
  0
LINE
  8
型材断面
  6
CONTINUOUS
 10
-80.263583
 20
21.147382
 11
23.069717
 21
21.147382
  0
LINE
  8
型材断面
  6
CONTINUOUS
 10
-46.68027
 20
24.147382
 11
-44.346935
 21
24.147382
  0
LINE
  8
型材断面
  6
CONTINUOUS
 10
-46.68027
 20
24.147382
 11
-46.68027
 21
51.480682
  0
LINE
  8
型材断面
  6
CONTINUOUS
 10
-46.68027
 20
51.480682
 11
-44.346935
 21
51.480682
  0
LINE
  8
型材断面
  6
CONTINUOUS
 10
-44.346935
 20
24.147382
 11
-44.346935
 21
51.480682
  0
LINE
  8
型材断面
  6
CONTINUOUS
 10
-45.18027
 20
24.147382
 11
-45.18027
 21
51.480682
  0
LINE
  8
型材断面
  6
CONTINUOUS
 10
-45.846935
 20
24.147382
 11
-45.846935
 21
51.480682
  0
LINE
  8
型材断面
  6
CONTINUOUS
 10
-12.846935
 20
24.147382
 11
-10.5136
 21
24.147382
  0
LINE
  8
型材断面
  6
CONTINUOUS
 10
-12.846935
 20
24.147382
 11
-12.846935
 21
51.480682
  0
LINE
  8
型材断面
  6
CONTINUOUS
 10
-12.846935
 20
51.480682
 11
-10.5136
 21
51.480682
  0
LINE
  8
型材断面
  6
CONTINUOUS
 10
-10.5136
 20
24.147382
 11
-10.5136
 21
51.480682
  0
LINE
  8
型材断面
  6
CONTINUOUS
 10
-11.346935
 20
24.147382
 11
-11.346935
 21
51.480682
  0
LINE
  8
型材断面
  6
CONTINUOUS
 10
-12.0136
 20
24.147382
 11
-12.0136
 21
51.480682
  0
LINE
  8
型材断面
  6
CONTINUOUS
 62
    47
 10
111.57983
 20
53.814048
 11
113.479868
 21
53.814048
  0
LINE
  8
型材断面
  6
CONTINUOUS
 10
113.679868
 20
53.814048
 11
116.07983
 21
53.814048
  0
LINE
  8
型材断面
  6
CONTINUOUS
 10
116.07983
 20
53.814048
 11
116.746498
 21
59.314048
  0
LINE
  8
型材断面
  6
CONTINUOUS
 10
119.07983
 20
59.314048
 11
116.746498
 21
59.314048
  0
LINE
  8
型材断面
  6
CONTINUOUS
 62
    47
 10
111.57983
 20
21.814018
 11
113.479868
 21
21.814018
  0
LINE
  8
型材断面
  6
CONTINUOUS
 10
113.679868
 20
21.814018
 11
116.07983
 21
21.814018
  0
LINE
  8
型材断面
  6
CONTINUOUS
 10
116.07983
 20
21.814018
 11
116.746498
 21
16.314018
  0
LINE
  8
型材断面
  6
CONTINUOUS
 10
119.07983
 20
16.314018
 11
116.746498
 21
16.314018
  0
LINE
  8
型材断面
  6
CONTINUOUS
 10
119.07983
 20
59.314048
 11
119.07983
 21
16.314018
  0
LINE
  8
型材断面
  6
CONTINUOUS
 10
116.746498
 20
59.314048
 11
116.746498
 21
16.314018
  0
LINE
  8
型材断面
  6
CONTINUOUS
 10
113.479868
 20
21.814018
 11
113.479868
 21
53.814048
  0
LINE
  8
型材断面
  6
CONTINUOUS
 10
113.679868
 20
21.814018
 11
113.679868
 21
53.814048
  0
LINE
  8
型材断面
  6
CONTINUOUS
 10
116.07983
 20
21.814018
 11
116.07983
 21
53.814048
  0
ARC
  8
型材断面
  6
DASHDOT
 10
113.579868
 20
54.014048
 40
33.003318
 50
219.78455
 51
264.78455
  0
LINE
  8
型材断面
  6
CONTINUOUS
 10
110.629947
 20
22.530725
 11
110.136533
 21
22.530725
  0
LINE
  8
型材断面
  6
CONTINUOUS
 10
110.629947
 20
21.147405
 11
111.296615
 21
21.147405
  0
LINE
  8
型材断面
  6
CONTINUOUS
 10
110.136533
 20
52.314035
 11
110.136533
 21
53.047382
  0
LINE
  8
型材断面
  6
CONTINUOUS
 10
110.629947
 20
53.097382
 11
110.136533
 21
53.097382
  0
LINE
  8
型材断面
  6
CONTINUOUS
 10
110.629947
 20
54.480705
 11
111.296615
 21
54.480705
  0
LINE
  8
型材断面
  6
CONTINUOUS
 10
110.136533
 20
22.530725
 11
110.136533
 21
53.097382
  0
LINE
  8
型材断面
  6
CONTINUOUS
 10
110.629947
 20
21.147405
 11
110.629947
 21
54.480705
  0
LINE
  8
型材断面
  6
CONTINUOUS
 10
111.296615
 20
21.147405
 11
111.296615
 21
54.480705
  0
INSERT
  2
*GRP_0011
  8
型材断面
  6
DASHDOT
 10
0.0
 20
0.0
  0
LINE
  8
型材断面
  6
CONTINUOUS
 62
    47
 10
-79.596947
 20
-71.20961
 11
-79.596947
 21
-73.10965
  0
LINE
  8
型材断面
  6
CONTINUOUS
 10
-79.596947
 20
-73.30965
 11
-79.596947
 21
-75.70961
  0
LINE
  8
型材断面
  6
CONTINUOUS
 10
-79.596947
 20
-75.70961
 11
-85.096947
 21
-76.37628
  0
LINE
  8
型材断面
  6
CONTINUOUS
 10
-85.096947
 20
-78.70961
 11
-85.096947
 21
-76.37628
  0
LINE
  8
型材断面
  6
CONTINUOUS
 62
    47
 10
22.40308
 20
-71.20961
 11
22.40308
 21
-73.10965
  0
LINE
  8
型材断面
  6
CONTINUOUS
 10
22.40308
 20
-73.30965
 11
22.40308
 21
-75.70961
  0
LINE
  8
型材断面
  6
CONTINUOUS
 10
22.40308
 20
-75.70961
 11
27.90308
 21
-76.37628
  0
LINE
  8
型材断面
  6
CONTINUOUS
 10
27.90308
 20
-78.70961
 11
27.90308
 21
-76.37628
  0
LINE
  8
型材断面
  6
CONTINUOUS
 10
-85.096947
 20
-78.70961
 11
27.90308
 21
-78.70961
  0
LINE
  8
型材断面
  6
CONTINUOUS
 10
-85.096947
 20
-76.37628
 11
27.90308
 21
-76.37628
  0
LINE
  8
型材断面
  6
CONTINUOUS
 10
22.40308
 20
-73.10965
 11
-79.596947
 21
-73.10965
  0
LINE
  8
型材断面
  6
CONTINUOUS
 10
22.40308
 20
-73.30965
 11
-79.596947
 21
-73.30965
  0
LINE
  8
型材断面
  6
CONTINUOUS
 10
22.40308
 20
-75.70961
 11
-79.596947
 21
-75.70961
  0
LINE
  8
型材断面
  6
CONTINUOUS
 10
-78.880242
 20
-70.259728
 11
-78.880242
 21
-69.766312
  0
LINE
  8
型材断面
  6
CONTINUOUS
 10
-80.263562
 20
-70.259728
 11
-80.263562
 21
-70.926395
  0
LINE
  8
型材断面
  6
CONTINUOUS
 10
20.903067
 20
-69.766312
 11
21.636415
 21
-69.766312
  0
LINE
  8
型材断面
  6
CONTINUOUS
 10
21.686415
 20
-70.259728
 11
21.686415
 21
-69.766312
  0
LINE
  8
型材断面
  6
CONTINUOUS
 10
23.069737
 20
-70.259728
 11
23.069737
 21
-70.926395
  0
LINE
  8
型材断面
  6
CONTINUOUS
 10
-78.880242
 20
-69.766312
 11
21.686415
 21
-69.766312
  0
LINE
  8
型材断面
  6
CONTINUOUS
 10
-80.263562
 20
-70.259728
 11
23.069737
 21
-70.259728
  0
LINE
  8
型材断面
  6
CONTINUOUS
 10
-80.263562
 20
-70.926395
 11
23.069737
 21
-70.926395
  0
LINE
  8
ガラス
  6
CONTINUOUS
 10
108.348503
 20
-33.806172
 11
76.01517
 21
-33.806172
  0
LINE
  8
ガラス
  6
CONTINUOUS
 10
108.348503
 20
-33.806172
 11
108.348503
 21
-63.806172
  0
LINE
  8
ガラス
  6
CONTINUOUS
 10
76.01517
 20
-33.806172
 11
76.01517
 21
-63.806172
  0
LINE
  8
ガラス
  6
CONTINUOUS
 10
108.348503
 20
-63.806172
 11
76.01517
 21
-63.806172
  0
LINE
  8
ガラス
  6
CONTINUOUS
 10
-25.965973
 20
40.444993
 11
-31.227902
 21
35.183065
  0
LINE
  8
ガラス
  6
CONTINUOUS
 10
-27.278323
 20
36.495413
 11
-29.915553
 21
39.132655
  0
LINE
  8
ガラス
  6
CONTINUOUS
 10
-28.984412
 20
36.556313
 11
-26.95138
 21
38.589345
  0
LINE
  8
ガラス
  6
CONTINUOUS
 10
-28.20947
 20
39.071753
 11
-30.242493
 21
37.038723
  0
LINE
  8
ガラス
  6
CONTINUOUS
 10
7.75596
 20
40.444993
 11
2.49403
 21
35.183065
  0
LINE
  8
ガラス
  6
CONTINUOUS
 10
6.44361
 20
36.495413
 11
3.80638
 21
39.132655
  0
LINE
  8
ガラス
  6
CONTINUOUS
 10
4.73752
 20
36.556313
 11
6.770552
 21
38.589345
  0
LINE
  8
ガラス
  6
CONTINUOUS
 10
5.512463
 20
39.071753
 11
3.47944
 21
37.038723
  0
LINE
  8
ガラス
  6
CONTINUOUS
 10
-59.49404
 20
40.444993
 11
-64.75597
 21
35.183065
  0
LINE
  8
ガラス
  6
CONTINUOUS
 10
-60.80639
 20
36.495413
 11
-63.44362
 21
39.132655
  0
LINE
  8
ガラス
  6
CONTINUOUS
 10
-62.51248
 20
36.556313
 11
-60.479447
 21
38.589345
  0
LINE
  8
ガラス
  6
CONTINUOUS
 10
-61.737537
 20
39.071753
 11
-63.77056
 21
37.038723
  0
TEXT
  7
TextStyle03
  8
文字
  6
CONTINUOUS
 10
78.1
 20
125.25
  1
シリーズ：ＳＴＦＦＨＬ
 40
5.0
 72
     5
 11
139.35
 21
125.25
  0
TEXT
  7
TextStyle03
  8
文字
  6
CONTINUOUS
 10
78.1
 20
119.625
  1
　　　　　（片側開閉）900×3000タイプ
 40
5.0
 72
     5
 11
181.5375
 21
119.625
  0
TEXT
  7
TextStyle03
  8
文字
  6
CONTINUOUS
 10
78.1
 20
114.0
  1
図面名　：外観姿図
 40
5.0
 72
     5
 11
128.1
 21
114.0
  0
TEXT
  7
TextStyle03
  8
文字
  6
CONTINUOUS
 10
78.1
 20
108.375
  1
　　　　　　
 40
5.0
 72
     5
 11
111.225
 21
108.375
  0
TEXT
  7
TextStyle03
  8
文字
  6
CONTINUOUS
 10
-129.675
 20
94.925
  1
は排水穴位置を示す
 40
3.0
 72
     5
 11
-99.675
 21
94.925
  0
TEXT
  7
TextStyle03
  8
文字
  6
CONTINUOUS
 10
-129.675
 20
89.4
  1
はケーシング位置を示す
 40
3.0
 72
     5
 11
-92.925
 21
89.4
  0
TEXT
  7
TextStyle03
  8
文字
  6
CONTINUOUS
 10
-129.675
 20
86.025
  1
２ヶ所中1ヶ所に設定
 40
3.0
 72
     5
 11
-97.9875
 21
86.025
  0
TEXT
  7
TextStyle03
  8
文字
  6
CONTINUOUS
 10
-99.55
 20
16.275
  1
アンカーピッチ
 40
3.0
 50
90.0
 72
     5
 11
-99.55
 21
39.525
  0
TEXT
  7
TextStyle03
  8
文字
  6
CONTINUOUS
 10
-68.65
 20
90.2
  1
アンカーピッチ
 40
3.0
 72
     5
 11
-45.4
 21
90.2
  0
TEXT
  7
TextStyle03
  8
文字
  6
CONTINUOUS
 10
-133.4
 20
80.05
  1
アンカー数量　１２ヶ所
 40
3.0
 72
     5
 11
-96.65
 21
80.05
  0
TEXT
  7
TextStyle03
  8
文字
  6
CONTINUOUS
 10
24.725
 20
-88.975
  1
※は物件対応寸法
 40
3.0
 72
     5
 11
51.35
 21
-88.975
  0
TEXT
  7
TextStyle03
  8
文字
  6
CONTINUOUS
 10
89.5
 20
-56.825
  1
網入り6.8t
 40
3.0
 72
     5
 11
106.1875
 21
-56.825
  0
TEXT
  7
TextStyle03
  8
文字
  6
CONTINUOUS
 10
96.175
 20
-61.5
  1
×３枚
 40
3.0
 72
     5
 11
105.925
 21
-61.5
  0
TEXT
  7
TextStyle03
  8
文字
  6
CONTINUOUS
 10
99.425
 20
16.35
  1
45°
 40
3.0
 50
90.0
 72
     5
 11
99.425
 21
22.725
  0
INSERT
  2
*DIM_0002
  8
寸法
  6
CONTINUOUS
 10
0.0
 20
0.0
  0
INSERT
  2
*DIM_0003
  8
寸法
  6
CONTINUOUS
 10
0.0
 20
0.0
  0
INSERT
  2
*DIM_0004
  8
寸法
  6
CONTINUOUS
 10
0.0
 20
0.0
  0
INSERT
  2
*DIM_0005
  8
寸法
  6
CONTINUOUS
 10
0.0
 20
0.0
  0
INSERT
  2
*DIM_0006
  8
寸法
  6
CONTINUOUS
 10
0.0
 20
0.0
  0
INSERT
  2
*DIM_0007
  8
寸法
  6
CONTINUOUS
 10
0.0
 20
0.0
  0
INSERT
  2
*DIM_0008
  8
寸法
  6
CONTINUOUS
 10
0.0
 20
0.0
  0
INSERT
  2
*DIM_0009
  8
寸法
  6
CONTINUOUS
 10
0.0
 20
0.0
  0
INSERT
  2
*DIM_0010
  8
寸法
  6
CONTINUOUS
 10
0.0
 20
0.0
  0
INSERT
  2
*DIM_0014
  8
寸法
  6
CONTINUOUS
 10
0.0
 20
0.0
  0
INSERT
  2
*DIM_0015
  8
寸法
  6
CONTINUOUS
 10
0.0
 20
0.0
  0
INSERT
  2
*DIM_0016
  8
寸法
  6
CONTINUOUS
 10
0.0
 20
0.0
  0
INSERT
  2
*DIM_0017
  8
寸法
  6
CONTINUOUS
 10
0.0
 20
0.0
  0
INSERT
  2
*DIM_0018
  8
寸法
  6
CONTINUOUS
 10
0.0
 20
0.0
  0
INSERT
  2
*DIM_0019
  8
寸法
  6
CONTINUOUS
 10
0.0
 20
0.0
  0
INSERT
  2
*DIM_0022
  8
寸法
  6
CONTINUOUS
 10
0.0
 20
0.0
  0
INSERT
  2
*DIM_0023
  8
寸法
  6
CONTINUOUS
 10
0.0
 20
0.0
  0
INSERT
  2
*DIM_0024
  8
寸法
  6
CONTINUOUS
 10
0.0
 20
0.0
  0
INSERT
  2
*DIM_0025
  8
寸法
  6
CONTINUOUS
 10
0.0
 20
0.0
  0
INSERT
  2
*GRP_0012
  8
別途部材
  6
CONTINUOUS
 10
0.0
 20
0.0
  0
INSERT
  2
*GRP_0020
  8
別途部材
  6
DOT
 10
0.0
 20
0.0
  0
INSERT
  2
*GRP_0021
  8
別途部材
  6
DOT
 10
0.0
 20
0.0
  0
ENDSEC
  0
EOF
