  0
SECTION
  2
HEADER
  9
$EXTMIN
 10
-210.0
 20
-148.5
  9
$EXTMAX
 10
210.0
 20
148.5
  9
$PDMODE
 70
    32
  9
$PDSIZE
 40
1.5
  9
$LTSCALE
 40
10.0
  0
ENDSEC
  0
SECTION
  2
TABLES
  0
TABLE
  2
LTYPE
 70
    15
  0
LTYPE
  2
CONTINUOUS
 70
    64
  3
実線
 72
    65
 73
     0
 40
0.0
  0
LTYPE
  2
DASHED
 70
    64
  3
破線A
 72
    65
 73
     2
 40
0.6
 49
0.4
 49
-0.2
  0
LTYPE
  2
DASHEDX2
 70
    64
  3
破線B
 72
    65
 73
     2
 40
1.3
 49
0.9
 49
-0.4
  0
LTYPE
  2
DASHDOT
 70
    64
  3
１点鎖線A
 72
    65
 73
     4
 40
0.5375
 49
0.375
 49
-0.05
 49
0.0625
 49
-0.05
  0
LTYPE
  2
DASHDOTX2
 70
    64
  3
１点鎖線B
 72
    65
 73
     4
 40
1.075
 49
0.75
 49
-0.1
 49
0.125
 49
-0.1
  0
LTYPE
  2
DIVIDE2
 70
    64
  3
２点鎖線A
 72
    65
 73
     6
 40
0.5125
 49
0.3
 49
-0.0375
 49
0.05
 49
-0.0375
 49
0.05
 49
-0.0375
  0
LTYPE
  2
DIVIDE
 70
    64
  3
２点鎖線B
 72
    65
 73
     6
 40
1.05
 49
0.55
 49
-0.1
 49
0.1
 49
-0.1
 49
0.1
 49
-0.1
  0
LTYPE
  2
DOT
 70
    64
  3
点線A
 72
    65
 73
     2
 40
0.1125
 49
0.0625
 49
-0.05
  0
LTYPE
  2
DOTX2
 70
    64
  3
点線B
 72
    65
 73
     2
 40
0.275
 49
0.15
 49
-0.125
  0
LTYPE
  2
CONTINUOUS
 70
    64
  3
実線
 72
    65
 73
     0
 40
0.0
  0
LTYPE
  2
CONTINUOUS
 70
    64
  3
実線
 72
    65
 73
     0
 40
0.0
  0
LTYPE
  2
CONTINUOUS
 70
    64
  3
実線
 72
    65
 73
     0
 40
0.0
  0
LTYPE
  2
CONTINUOUS
 70
    64
  3
実線
 72
    65
 73
     0
 40
0.0
  0
LTYPE
  2
CONTINUOUS
 70
    64
  3
実線
 72
    65
 73
     0
 40
0.0
  0
LTYPE
  2
CONTINUOUS
 70
    64
  3
実線
 72
    65
 73
     0
 40
0.0
  0
ENDTAB
  0
TABLE
  2
LAYER
 70
    34
  0
LAYER
  2
通り芯
 70
     0
 62
    15
  6
CONTINUOUS
  0
LAYER
  2
補助線
 70
     0
 62
    16
  6
DOT
  0
LAYER
  2
躯体
 70
     0
 62
    31
  6
CONTINUOUS
  0
LAYER
  2
型材
 70
     0
 62
    32
  6
CONTINUOUS
  0
LAYER
  2
型材断面
 70
     0
 62
    47
  6
CONTINUOUS
  0
LAYER
  2
ガラス
 70
     0
 62
    48
  6
CONTINUOUS
  0
LAYER
  2
ゴム等
 70
     0
 62
    63
  6
CONTINUOUS
  0
LAYER
  2
ボルト／ビス
 70
     0
 62
    64
  6
CONTINUOUS
  0
LAYER
  2
文字
 70
     0
 62
    79
  6
CONTINUOUS
  0
LAYER
  2
寸法
 70
     0
 62
    80
  6
CONTINUOUS
  0
LAYER
  2
ﾊｯﾁﾝｸﾞ
 70
     0
 62
    95
  6
CONTINUOUS
  0
LAYER
  2
別途部材
 70
     0
 62
    96
  6
CONTINUOUS
  0
LAYER
  2
曲げ物
 70
     0
 62
   111
  6
CONTINUOUS
  0
LAYER
  2
鉄骨等
 70
     0
 62
   112
  6
CONTINUOUS
  0
LAYER
  2
St
 70
     0
 62
   127
  6
CONTINUOUS
  0
LAYER
  2
その他部品等
 70
     0
 62
   128
  6
CONTINUOUS
  0
LAYER
  2
ｶﾞｽｹｯﾄ
 70
     0
 62
   143
  6
CONTINUOUS
  0
LAYER
  2
ｽｹｯﾁ
 70
     0
 62
    14
  6
CONTINUOUS
  0
LAYER
  2
0
 70
     0
 62
    17
  6
CONTINUOUS
  0
LAYER
  2
1
 70
     0
 62
    30
  6
CONTINUOUS
  0
LAYER
  2
4
 70
     0
 62
    33
  6
CONTINUOUS
  0
LAYER
  2
ﾚｲﾔ3
 70
     0
 62
    46
  6
CONTINUOUS
  0
LAYER
  2
外形線
 70
     0
 62
    49
  6
CONTINUOUS
  0
LAYER
  2
部品
 70
     0
 62
    14
  6
CONTINUOUS
  0
LAYER
  2
サッシ芯
 70
     0
 62
    17
  6
DASHDOTX2
  0
LAYER
  2
寸法線
 70
     0
 62
    62
  6
CONTINUOUS
  0
LAYER
  2
姿図外形線
 70
     0
 62
    65
  6
CONTINUOUS
  0
LAYER
  2
姿補助線
 70
     0
 62
    30
  6
CONTINUOUS
  0
LAYER
  2
透視線
 70
     0
 62
    78
  6
DOT
  0
LAYER
  2
用紙
 70
     0
 62
    81
  6
CONTINUOUS
  0
LAYER
  2
実線図枠
 70
     0
 62
    94
  6
CONTINUOUS
  0
LAYER
  2
補助図枠
 70
     0
 62
    97
  6
CONTINUOUS
  0
LAYER
  2
建具記号
 70
     0
 62
   110
  6
CONTINUOUS
  0
LAYER
  2
補助文字
 70
     0
 62
   113
  6
CONTINUOUS
  0
ENDTAB
  0
TABLE
  2
STYLE
 70
    10
  0
STYLE
  2
STANDARD
 70
     0
 40
1.0
 41
1.0
 42
1.0
 50
0.0
 71
     0
  3
TXT
  4
BIGFONT
  0
STYLE
  2
TATE
 70
     4
 40
1.0
 41
1.0
 42
1.0
 50
0.0
 71
     0
  3
TXT
  4
BIGFONT
  0
STYLE
  2
TextStyle03
 70
     0
 40
1.0
 41
1.0
 42
1.0
 50
0.0
 71
     0
  3
MONOTXT
  4
BIGFONT
  0
STYLE
  2
TextStyle04
 70
     0
 40
1.0
 41
1.0
 42
1.0
 50
0.0
 71
     0
  3
MONOTXT
  4
BIGFONT
  0
STYLE
  2
TextStyle05
 70
     0
 40
1.0
 41
1.0
 42
1.0
 50
0.0
 71
     0
  3
MONOTXT
  4
BIGFONT
  0
STYLE
  2
TextStyle06
 70
     0
 40
1.0
 41
1.0
 42
1.0
 50
0.0
 71
     0
  3
MONOTXT
  4
BIGFONT
  0
STYLE
  2
TextStyle07
 70
     0
 40
1.0
 41
1.0
 42
1.0
 50
0.0
 71
     0
  3
MONOTXT
  4
BIGFONT
  0
STYLE
  2
TextStyle08
 70
     0
 40
1.0
 41
1.0
 42
1.0
 50
0.0
 71
     0
  3
MONOTXT
  4
BIGFONT
  0
STYLE
  2
TextStyle09
 70
     0
 40
1.0
 41
1.0
 42
1.0
 50
0.0
 71
     0
  3
MONOTXT
  4
BIGFONT
  0
STYLE
  2
TextStyle10
 70
     0
 40
1.0
 41
1.0
 42
1.0
 50
0.0
 71
     0
  3
MONOTXT
  4
BIGFONT
  0
ENDTAB
  0
ENDSEC
  0
SECTION
  2
BLOCKS
  0
BLOCK
  2
*GRP_0001
 70
    65
 10
0.0
 20
0.0
  0
LINE
  8
型材断面
  6
CONTINUOUS
 10
195.0
 20
133.5
 11
195.0
 21
-133.5
  0
LINE
  8
型材断面
  6
CONTINUOUS
 10
195.0
 20
-133.5
 11
-185.0
 21
-133.5
  0
LINE
  8
型材断面
  6
CONTINUOUS
 10
-185.0
 20
-133.5
 11
-185.0
 21
133.5
  0
LINE
  8
型材断面
  6
CONTINUOUS
 10
195.0
 20
133.5
 11
-185.0
 21
133.5
  0
LINE
  8
型材断面
  6
CONTINUOUS
 10
145.0
 20
-133.5
 11
145.0
 21
-118.5
  0
LINE
  8
型材断面
  6
CONTINUOUS
 10
195.0
 20
-118.5
 11
145.0
 21
-118.5
  0
ENDBLK
  0
BLOCK
  2
*DIM_0002
 70
    65
 10
0.0
 20
0.0
  0
LINE
  8
寸法
  6
BYBLOCK
 62
     0
 10
38.016375
 20
17.20722
 11
38.016375
 21
14.182178
  0
LINE
  8
寸法
  6
BYBLOCK
 62
     0
 10
40.016375
 20
14.182178
 11
38.016375
 21
14.182178
  0
POINT
  8
寸法
 62
     0
 10
40.016375
 20
14.182178
  0
POINT
  8
寸法
 62
     0
 10
38.016375
 20
14.182178
  0
TEXT
  7
TextStyle03
  8
寸法
  6
CONTINUOUS
 62
     0
 10
36.13125
 20
10.4
  1
60
 40
3.0
 72
     5
 11
39.31875
 21
10.4
  0
ENDBLK
  0
BLOCK
  2
*DIM_0003
 70
    65
 10
0.0
 20
0.0
  0
LINE
  8
寸法
  6
BYBLOCK
 62
     0
 10
-74.65029
 20
17.20722
 11
-74.65029
 21
14.182178
  0
LINE
  8
寸法
  6
BYBLOCK
 62
     0
 10
-76.65029
 20
14.182178
 11
-74.65029
 21
14.182178
  0
POINT
  8
寸法
 62
     0
 10
-76.65029
 20
14.182178
  0
POINT
  8
寸法
 62
     0
 10
-74.65029
 20
14.182178
  0
TEXT
  7
TextStyle03
  8
寸法
  6
CONTINUOUS
 62
     0
 10
-75.94375
 20
10.4
  1
60
 40
3.0
 72
     5
 11
-72.75625
 21
10.4
  0
ENDBLK
  0
BLOCK
  2
*DIM_0004
 70
    65
 10
0.0
 20
0.0
  0
LINE
  8
寸法
  6
BYBLOCK
 62
     0
 10
-79.650292
 20
47.814033
 11
-92.94313
 21
47.814033
  0
LINE
  8
寸法
  6
BYBLOCK
 62
     0
 10
-79.650292
 20
27.814033
 11
-92.94313
 21
27.814033
  0
LINE
  8
寸法
  6
BYBLOCK
 62
     0
 10
-92.94313
 20
47.814033
 11
-92.94313
 21
27.814033
  0
POINT
  8
寸法
 62
     0
 10
-92.94313
 20
47.814033
  0
POINT
  8
寸法
 62
     0
 10
-92.94313
 20
27.814033
  0
TEXT
  7
TextStyle03
  8
寸法
  6
CONTINUOUS
 62
     0
 10
-93.3
 20
35.3625
  1
600
 40
3.0
 50
90.0
 72
     5
 11
-93.3
 21
40.2375
  0
ENDBLK
  0
BLOCK
  2
*DIM_0009
 70
    65
 10
0.0
 20
0.0
  0
LINE
  8
寸法
  6
BYBLOCK
 62
     0
 10
-59.983625
 20
14.184373
 11
-59.983625
 21
9.001128
  0
LINE
  8
寸法
  6
BYBLOCK
 62
     0
 10
23.34971
 20
14.184373
 11
23.34971
 21
9.001128
  0
LINE
  8
寸法
  6
BYBLOCK
 62
     0
 10
-59.983625
 20
9.001128
 11
23.34971
 21
9.001128
  0
POINT
  8
寸法
 62
     0
 10
-59.983625
 20
9.001128
  0
POINT
  8
寸法
 62
     0
 10
23.34971
 20
9.001128
  0
TEXT
  7
TextStyle03
  8
寸法
  6
CONTINUOUS
 62
     0
 10
-21.60625
 20
9.4
  1
2500
 40
3.0
 72
     5
 11
-15.04375
 21
9.4
  0
ENDBLK
  0
BLOCK
  2
*DIM_0010
 70
    65
 10
0.0
 20
0.0
  0
LINE
  8
寸法
  6
CONTINUOUS
 10
132.79062
 20
-36.352753
 11
132.79062
 21
-26.998225
  0
LINE
  8
寸法
  6
CONTINUOUS
 10
88.237287
 20
-36.352753
 11
88.237287
 21
-26.998225
  0
LINE
  8
寸法
  6
CONTINUOUS
 10
132.79062
 20
-26.998225
 11
88.237287
 21
-26.998225
  0
POINT
  8
寸法
 10
132.79062
 20
-26.998225
  0
POINT
  8
寸法
 10
88.237287
 20
-26.998225
  0
TEXT
  7
TextStyle03
  8
寸法
  6
CONTINUOUS
 10
105.55625
 20
-26.625
  1
1336.6
 40
3.0
 72
     5
 11
115.49375
 21
-26.625
  0
ENDBLK
  0
BLOCK
  2
*DIM_0011
 70
    65
 10
0.0
 20
0.0
  0
LINE
  8
寸法
  6
CONTINUOUS
 10
133.79062
 20
-37.352753
 11
142.766328
 21
-37.352753
  0
LINE
  8
寸法
  6
CONTINUOUS
 10
133.79062
 20
-67.352753
 11
142.766328
 21
-67.352753
  0
LINE
  8
寸法
  6
CONTINUOUS
 10
142.766328
 20
-37.352753
 11
142.766328
 21
-67.352753
  0
POINT
  8
寸法
 10
142.766328
 20
-37.352753
  0
POINT
  8
寸法
 10
142.766328
 20
-67.352753
  0
TEXT
  7
TextStyle03
  8
寸法
  6
CONTINUOUS
 10
142.375
 20
-54.8125
  1
900
 40
3.0
 50
90.0
 72
     5
 11
142.375
 21
-49.9375
  0
ENDBLK
  0
BLOCK
  2
*GRP_0012
 70
    65
 10
0.0
 20
0.0
  0
LINE
  8
型材断面
  6
DOT
 62
    47
 10
130.637515
 20
55.286867
 11
131.981045
 21
53.943338
  0
LINE
  8
型材断面
  6
DOT
 62
    47
 10
108.010075
 20
32.65943
 11
109.353605
 21
31.3159
  0
LINE
  8
型材断面
  6
DOT
 10
109.353605
 20
31.3159
 11
131.981045
 21
53.943338
  0
LINE
  8
型材断面
  6
DOT
 10
107.845198
 20
33.837885
 11
107.4963
 21
34.186782
  0
LINE
  8
型材断面
  6
DOT
 10
106.86704
 20
32.85973
 11
107.338445
 21
32.388325
  0
LINE
  8
型材断面
  6
DOT
 10
128.55628
 20
55.246762
 11
129.074835
 21
55.765317
  0
LINE
  8
型材断面
  6
DOT
 10
129.459087
 20
55.451775
 11
129.11019
 21
55.800672
  0
LINE
  8
型材断面
  6
DOT
 10
130.437245
 20
56.429932
 11
130.908648
 21
55.958527
  0
LINE
  8
型材断面
  6
DOT
 10
107.4963
 20
34.186782
 11
129.11019
 21
55.800672
  0
LINE
  8
型材断面
  6
DOT
 10
106.86704
 20
32.85973
 11
130.437245
 21
56.429932
  0
LINE
  8
型材断面
  6
DOT
 10
107.338445
 20
32.388325
 11
130.908648
 21
55.958527
  0
ENDBLK
  0
BLOCK
  2
*GRP_0013
 70
    65
 10
0.0
 20
0.0
  0
INSERT
  2
*GRP_0014
  8
補助線
  6
CONTINUOUS
 10
0.0
 20
0.0
  0
CIRCLE
  8
別途部材
  6
CONTINUOUS
 10
132.193175
 20
54.014048
 40
0.2
  0
CIRCLE
  8
別途部材
  6
CONTINUOUS
 10
132.193175
 20
54.014048
 40
0.1
  0
LINE
  8
別途部材
  6
CONTINUOUS
 10
130.793175
 20
53.914048
 11
130.793175
 21
53.814048
  0
LINE
  8
別途部材
  6
CONTINUOUS
 10
132.193175
 20
53.814048
 11
130.793175
 21
53.814048
  0
LINE
  8
別途部材
  6
CONTINUOUS
 10
130.793175
 20
53.914048
 11
132.01997
 21
53.914048
  0
LINE
  8
別途部材
  6
CONTINUOUS
 10
133.593175
 20
53.914048
 11
133.593175
 21
53.814048
  0
LINE
  8
別途部材
  6
CONTINUOUS
 10
132.193175
 20
53.814048
 11
133.593175
 21
53.814048
  0
LINE
  8
別途部材
  6
CONTINUOUS
 10
133.593175
 20
53.914048
 11
132.36638
 21
53.914048
  0
LINE
  8
別途部材
  6
CONTINUOUS
 10
131.05984
 20
53.914048
 11
131.05984
 21
53.814048
  0
LINE
  8
別途部材
  6
CONTINUOUS
 10
131.326507
 20
53.914048
 11
131.326507
 21
53.814048
  0
LINE
  8
別途部材
  6
CONTINUOUS
 10
131.593175
 20
53.914048
 11
131.593175
 21
53.814048
  0
LINE
  8
別途部材
  6
CONTINUOUS
 10
133.326507
 20
53.914048
 11
133.326507
 21
53.814048
  0
LINE
  8
別途部材
  6
CONTINUOUS
 10
133.05984
 20
53.914048
 11
133.05984
 21
53.814048
  0
LINE
  8
別途部材
  6
CONTINUOUS
 10
132.793175
 20
53.914048
 11
132.793175
 21
53.814048
  0
ENDBLK
  0
BLOCK
  2
*GRP_0014
 70
    65
 10
0.0
 20
0.0
  0
LINE
  8
補助線
  6
BYBLOCK
 62
     0
 10
132.193175
 20
53.84738
 11
132.193175
 21
54.180715
  0
LINE
  8
補助線
  6
BYBLOCK
 62
     0
 10
132.026507
 20
54.014048
 11
132.35984
 21
54.014048
  0
ENDBLK
  0
BLOCK
  2
*DIM_0015
 70
    65
 10
0.0
 20
0.0
  0
LINE
  8
寸法
  6
CONTINUOUS
 10
104.5906
 20
22.814033
 11
104.5906
 21
52.814033
  0
POINT
  8
寸法
 10
104.5906
 20
22.814033
  0
POINT
  8
寸法
 10
104.5906
 20
52.814033
  0
TEXT
  7
TextStyle03
  8
寸法
  6
CONTINUOUS
 10
104.2
 20
26.925
  1
呼称寸法　900
 40
3.0
 50
90.0
 72
     5
 11
104.2
 21
48.675
  0
ENDBLK
  0
BLOCK
  2
*DIM_0016
 70
    65
 10
0.0
 20
0.0
  0
LINE
  8
寸法
  6
CONTINUOUS
 10
134.359805
 20
16.314018
 11
104.5906
 21
16.314018
  0
LINE
  8
寸法
  6
CONTINUOUS
 10
104.5906
 20
22.814033
 11
104.5906
 21
16.314018
  0
POINT
  8
寸法
 10
104.5906
 20
22.814033
  0
POINT
  8
寸法
 10
104.5906
 20
16.314018
  0
TEXT
  7
TextStyle03
  8
寸法
  6
CONTINUOUS
 10
104.2
 20
18.05
  1
※
 40
3.0
 50
90.0
 72
     5
 11
104.2
 21
21.05
  0
ENDBLK
  0
BLOCK
  2
*DIM_0017
 70
    65
 10
0.0
 20
0.0
  0
LINE
  8
寸法
  6
CONTINUOUS
 10
134.359805
 20
59.314048
 11
104.5906
 21
59.314048
  0
LINE
  8
寸法
  6
CONTINUOUS
 10
104.5906
 20
52.814033
 11
104.5906
 21
59.314048
  0
POINT
  8
寸法
 10
104.5906
 20
52.814033
  0
POINT
  8
寸法
 10
104.5906
 20
59.314048
  0
TEXT
  7
TextStyle03
  8
寸法
  6
CONTINUOUS
 10
104.2
 20
54.55
  1
※
 40
3.0
 50
90.0
 72
     5
 11
104.2
 21
57.55
  0
ENDBLK
  0
BLOCK
  2
*DIM_0018
 70
    65
 10
0.0
 20
0.0
  0
LINE
  8
寸法
  6
CONTINUOUS
 10
134.693138
 20
54.814048
 11
134.693138
 21
67.741883
  0
LINE
  8
寸法
  6
CONTINUOUS
 10
128.74984
 20
54.047382
 11
128.74984
 21
67.741883
  0
LINE
  8
寸法
  6
CONTINUOUS
 10
134.693138
 20
67.741883
 11
128.74984
 21
67.741883
  0
POINT
  8
寸法
 10
134.693138
 20
67.741883
  0
POINT
  8
寸法
 10
128.74984
 20
67.741883
  0
TEXT
  7
TextStyle03
  8
寸法
  6
CONTINUOUS
 10
120.25
 20
64.975
  1
178.3
 40
3.0
 72
     5
 11
128.5
 21
64.975
  0
ENDBLK
  0
BLOCK
  2
*DIM_0019
 70
    65
 10
0.0
 20
0.0
  0
LINE
  8
寸法
  6
CONTINUOUS
 10
137.693138
 20
60.314048
 11
137.693138
 21
67.741883
  0
LINE
  8
寸法
  6
CONTINUOUS
 10
134.693138
 20
67.741883
 11
137.693138
 21
67.741883
  0
POINT
  8
寸法
 10
137.693138
 20
67.741883
  0
TEXT
  7
TextStyle03
  8
寸法
  6
CONTINUOUS
 10
134.675
 20
68.1
  1
※
 40
3.0
 72
     5
 11
137.675
 21
68.1
  0
ENDBLK
  0
BLOCK
  2
*DIM_0020
 70
    65
 10
0.0
 20
0.0
  0
LINE
  8
寸法
  6
BYBLOCK
 62
     0
 10
-76.650292
 20
-18.638035
 11
-76.650292
 21
-15.248207
  0
LINE
  8
寸法
  6
BYBLOCK
 62
     0
 10
40.016375
 20
-15.248207
 11
-76.650292
 21
-15.248207
  0
POINT
  8
寸法
 62
     0
 10
40.016375
 20
-15.248207
  0
POINT
  8
寸法
 62
     0
 10
-76.650292
 20
-15.248207
  0
TEXT
  7
TextStyle03
  8
寸法
  6
CONTINUOUS
 62
     0
 10
-30.04375
 20
-14.875
  1
呼称寸法　3500
 40
3.0
 72
     5
 11
-6.60625
 21
-14.875
  0
ENDBLK
  0
BLOCK
  2
*GRP_0021
 70
    65
 10
0.0
 20
0.0
  0
LINE
  8
ボルト／ビス
  6
CONTINUOUS
 10
-77.316955
 20
-72.336435
 11
-77.316955
 21
-71.869768
  0
LINE
  8
ボルト／ビス
  6
CONTINUOUS
 10
-76.950288
 20
-72.336435
 11
-76.950288
 21
-72.269768
  0
LINE
  8
ボルト／ビス
  6
CONTINUOUS
 10
-76.950288
 20
-72.269768
 11
-77.683622
 21
-72.269768
  0
LINE
  8
ボルト／ビス
  6
CONTINUOUS
 10
-77.683622
 20
-72.269768
 11
-77.683622
 21
-72.336435
  0
LINE
  8
ボルト／ビス
  6
CONTINUOUS
 10
-76.950288
 20
-72.336435
 11
-77.683622
 21
-72.336435
  0
LINE
  8
ボルト／ビス
  6
CONTINUOUS
 10
-77.016955
 20
-72.236435
 11
-77.016955
 21
-72.269768
  0
LINE
  8
ボルト／ビス
  6
CONTINUOUS
 10
-77.016955
 20
-72.236435
 11
-77.616955
 21
-72.236435
  0
LINE
  8
ボルト／ビス
  6
CONTINUOUS
 10
-77.616955
 20
-72.236435
 11
-77.616955
 21
-72.269768
  0
LINE
  8
ボルト／ビス
  6
CONTINUOUS
 62
    64
 10
-77.15658
 20
-72.036435
 11
-77.124505
 21
-72.04811
  0
ARC
  8
ボルト／ビス
  6
CONTINUOUS
 62
    64
 10
-77.172617
 20
-72.141415
 40
0.104978
 50
90.0
 51
117.278033
  0
ARC
  8
ボルト／ビス
  6
CONTINUOUS
 62
    64
 10
-77.316955
 20
-72.438839
 40
0.402402
 50
76.165015
 51
103.834998
  0
LINE
  8
ボルト／ビス
  6
CONTINUOUS
 62
    64
 10
-77.47733
 20
-72.036435
 11
-77.509405
 21
-72.04811
  0
ARC
  8
ボルト／ビス
  6
CONTINUOUS
 62
    64
 10
-77.461292
 20
-72.141415
 40
0.104978
 50
62.721967
 51
90.0
  0
LINE
  8
ボルト／ビス
  6
CONTINUOUS
 62
    64
 10
-77.15658
 20
-72.036435
 11
-77.47733
 21
-72.036435
  0
LINE
  8
ボルト／ビス
  6
CONTINUOUS
 62
    64
 10
-77.509405
 20
-72.04811
 11
-77.509405
 21
-72.169768
  0
LINE
  8
ボルト／ビス
  6
CONTINUOUS
 62
    64
 10
-77.41318
 20
-72.04811
 11
-77.41318
 21
-72.169768
  0
LINE
  8
ボルト／ビス
  6
CONTINUOUS
 62
    64
 10
-77.124505
 20
-72.04811
 11
-77.124505
 21
-72.169768
  0
LINE
  8
ボルト／ビス
  6
CONTINUOUS
 62
    64
 10
-77.22073
 20
-72.04811
 11
-77.22073
 21
-72.169768
  0
LINE
  8
ボルト／ビス
  6
CONTINUOUS
 10
-77.124505
 20
-72.169768
 11
-77.509405
 21
-72.169768
  0
LINE
  8
ボルト／ビス
  6
CONTINUOUS
 10
-77.116955
 20
-72.169768
 11
-77.116955
 21
-72.236435
  0
LINE
  8
ボルト／ビス
  6
CONTINUOUS
 10
-77.116955
 20
-72.169768
 11
-77.516955
 21
-72.169768
  0
LINE
  8
ボルト／ビス
  6
CONTINUOUS
 10
-77.516955
 20
-72.169768
 11
-77.516955
 21
-72.236435
  0
ENDBLK
  0
BLOCK
  2
*GRP_0022
 70
    65
 10
0.0
 20
0.0
  0
LINE
  8
ボルト／ビス
  6
CONTINUOUS
 10
40.683048
 20
-72.33644
 11
40.683048
 21
-71.869772
  0
LINE
  8
ボルト／ビス
  6
CONTINUOUS
 10
41.049715
 20
-72.33644
 11
41.049715
 21
-72.269773
  0
LINE
  8
ボルト／ビス
  6
CONTINUOUS
 10
41.049715
 20
-72.269773
 11
40.31638
 21
-72.269773
  0
LINE
  8
ボルト／ビス
  6
CONTINUOUS
 10
40.31638
 20
-72.269773
 11
40.31638
 21
-72.33644
  0
LINE
  8
ボルト／ビス
  6
CONTINUOUS
 10
41.049715
 20
-72.33644
 11
40.31638
 21
-72.33644
  0
LINE
  8
ボルト／ビス
  6
CONTINUOUS
 10
40.983048
 20
-72.23644
 11
40.983048
 21
-72.269773
  0
LINE
  8
ボルト／ビス
  6
CONTINUOUS
 10
40.983048
 20
-72.23644
 11
40.383048
 21
-72.23644
  0
LINE
  8
ボルト／ビス
  6
CONTINUOUS
 10
40.383048
 20
-72.23644
 11
40.383048
 21
-72.269773
  0
LINE
  8
ボルト／ビス
  6
CONTINUOUS
 62
    64
 10
40.843423
 20
-72.03644
 11
40.875497
 21
-72.048115
  0
ARC
  8
ボルト／ビス
  6
CONTINUOUS
 62
    64
 10
40.827385
 20
-72.14142
 40
0.104978
 50
90.0
 51
117.278033
  0
ARC
  8
ボルト／ビス
  6
CONTINUOUS
 62
    64
 10
40.683048
 20
-72.438844
 40
0.402402
 50
76.165015
 51
103.834998
  0
LINE
  8
ボルト／ビス
  6
CONTINUOUS
 62
    64
 10
40.522673
 20
-72.03644
 11
40.490597
 21
-72.048115
  0
ARC
  8
ボルト／ビス
  6
CONTINUOUS
 62
    64
 10
40.53871
 20
-72.14142
 40
0.104978
 50
62.721967
 51
90.0
  0
LINE
  8
ボルト／ビス
  6
CONTINUOUS
 62
    64
 10
40.843423
 20
-72.03644
 11
40.522673
 21
-72.03644
  0
LINE
  8
ボルト／ビス
  6
CONTINUOUS
 62
    64
 10
40.490597
 20
-72.048115
 11
40.490597
 21
-72.169772
  0
LINE
  8
ボルト／ビス
  6
CONTINUOUS
 62
    64
 10
40.586823
 20
-72.048115
 11
40.586823
 21
-72.169772
  0
LINE
  8
ボルト／ビス
  6
CONTINUOUS
 62
    64
 10
40.875497
 20
-72.048115
 11
40.875497
 21
-72.169772
  0
LINE
  8
ボルト／ビス
  6
CONTINUOUS
 62
    64
 10
40.779272
 20
-72.048115
 11
40.779272
 21
-72.169772
  0
LINE
  8
ボルト／ビス
  6
CONTINUOUS
 10
40.875497
 20
-72.169772
 11
40.490597
 21
-72.169772
  0
LINE
  8
ボルト／ビス
  6
CONTINUOUS
 10
40.883048
 20
-72.169772
 11
40.883048
 21
-72.23644
  0
LINE
  8
ボルト／ビス
  6
CONTINUOUS
 10
40.883048
 20
-72.169772
 11
40.483048
 21
-72.169772
  0
LINE
  8
ボルト／ビス
  6
CONTINUOUS
 10
40.483048
 20
-72.169772
 11
40.483048
 21
-72.23644
  0
ENDBLK
  0
BLOCK
  2
*DIM_0023
 70
    65
 10
0.0
 20
0.0
  0
LINE
  8
寸法
  6
CONTINUOUS
 10
47.516388
 20
-80.836442
 11
55.986025
 21
-80.836442
  0
LINE
  8
寸法
  6
CONTINUOUS
 10
55.986025
 20
-77.836442
 11
55.986025
 21
-80.836442
  0
POINT
  8
寸法
 10
55.986025
 20
-80.836442
  0
TEXT
  7
TextStyle03
  8
寸法
  6
CONTINUOUS
 10
55.6
 20
-80.85
  1
※
 40
3.0
 50
90.0
 72
     5
 11
55.6
 21
-77.85
  0
ENDBLK
  0
BLOCK
  2
*DIM_0024
 70
    65
 10
0.0
 20
0.0
  0
LINE
  8
寸法
  6
CONTINUOUS
 10
46.516388
 20
-77.503113
 11
46.516388
 21
-15.248207
  0
LINE
  8
寸法
  6
CONTINUOUS
 10
40.016375
 20
-15.248207
 11
46.516388
 21
-15.248207
  0
POINT
  8
寸法
 10
40.016375
 20
-15.248207
  0
POINT
  8
寸法
 10
46.516388
 20
-15.248207
  0
TEXT
  7
TextStyle03
  8
寸法
  6
CONTINUOUS
 10
41.75
 20
-14.875
  1
※
 40
3.0
 72
     5
 11
44.75
 21
-14.875
  0
ENDBLK
  0
BLOCK
  2
*DIM_0025
 70
    65
 10
0.0
 20
0.0
  0
LINE
  8
寸法
  6
CONTINUOUS
 10
-83.150305
 20
-77.503113
 11
-83.150305
 21
-15.248207
  0
LINE
  8
寸法
  6
CONTINUOUS
 10
-76.650292
 20
-15.248207
 11
-83.150305
 21
-15.248207
  0
POINT
  8
寸法
 10
-76.650292
 20
-15.248207
  0
POINT
  8
寸法
 10
-83.150305
 20
-15.248207
  0
TEXT
  7
TextStyle03
  8
寸法
  6
CONTINUOUS
 10
-81.4
 20
-14.875
  1
※
 40
3.0
 72
     5
 11
-78.4
 21
-14.875
  0
ENDBLK
  0
BLOCK
  2
*DIM_0026
 70
    65
 10
0.0
 20
0.0
  0
LINE
  8
寸法
  6
CONTINUOUS
 10
42.016388
 20
-77.836442
 11
55.986025
 21
-77.836442
  0
LINE
  8
寸法
  6
CONTINUOUS
 10
41.249722
 20
-71.893145
 11
55.986025
 21
-71.893145
  0
LINE
  8
寸法
  6
CONTINUOUS
 10
55.986025
 20
-77.836442
 11
55.986025
 21
-71.893145
  0
POINT
  8
寸法
 10
55.986025
 20
-77.836442
  0
POINT
  8
寸法
 10
55.986025
 20
-71.893145
  0
TEXT
  7
TextStyle03
  8
寸法
  6
CONTINUOUS
 10
59.875
 20
-79.175
  1
178.3
 40
3.0
 50
90.0
 72
     5
 11
59.875
 21
-70.925
  0
ENDBLK
  0
BLOCK
  2
*DIM_0027
 70
    65
 10
0.0
 20
0.0
  0
LINE
  8
寸法
  6
BYBLOCK
 62
     0
 10
-71.65029
 20
61.40174
 11
-71.65029
 21
90.509813
  0
LINE
  8
寸法
  6
BYBLOCK
 62
     0
 10
-44.983625
 20
61.40174
 11
-44.983625
 21
90.509813
  0
LINE
  8
寸法
  6
BYBLOCK
 62
     0
 10
-71.65029
 20
90.509813
 11
-44.983625
 21
90.509813
  0
POINT
  8
寸法
 62
     0
 10
-71.65029
 20
90.509813
  0
POINT
  8
寸法
 62
     0
 10
-44.983625
 20
90.509813
  0
TEXT
  7
TextStyle03
  8
寸法
  6
CONTINUOUS
 62
     0
 10
-60.7625
 20
90.85
  1
800
 40
3.0
 72
     5
 11
-55.8875
 21
90.85
  0
ENDBLK
  0
BLOCK
  2
*DIM_0028
 70
    65
 10
0.0
 20
0.0
  0
LINE
  8
寸法
  6
BYBLOCK
 62
     0
 10
-18.316957
 20
61.40174
 11
-18.316957
 21
90.509813
  0
LINE
  8
寸法
  6
BYBLOCK
 62
     0
 10
-44.983625
 20
90.509813
 11
-18.316957
 21
90.509813
  0
POINT
  8
寸法
 62
     0
 10
-18.316957
 20
90.509813
  0
TEXT
  7
TextStyle03
  8
寸法
  6
CONTINUOUS
 62
     0
 10
-34.1125
 20
90.85
  1
800
 40
3.0
 72
     5
 11
-29.2375
 21
90.85
  0
ENDBLK
  0
BLOCK
  2
*DIM_0029
 70
    65
 10
0.0
 20
0.0
  0
LINE
  8
寸法
  6
BYBLOCK
 62
     0
 10
8.34971
 20
61.40174
 11
8.34971
 21
90.509813
  0
LINE
  8
寸法
  6
BYBLOCK
 62
     0
 10
-18.316957
 20
90.509813
 11
8.34971
 21
90.509813
  0
POINT
  8
寸法
 62
     0
 10
8.34971
 20
90.509813
  0
TEXT
  7
TextStyle03
  8
寸法
  6
CONTINUOUS
 62
     0
 10
-7.4375
 20
90.85
  1
800
 40
3.0
 72
     5
 11
-2.5625
 21
90.85
  0
ENDBLK
  0
BLOCK
  2
*DIM_0030
 70
    65
 10
0.0
 20
0.0
  0
LINE
  8
寸法
  6
BYBLOCK
 62
     0
 10
35.016375
 20
61.40174
 11
35.016375
 21
90.509813
  0
LINE
  8
寸法
  6
BYBLOCK
 62
     0
 10
8.34971
 20
90.509813
 11
35.016375
 21
90.509813
  0
POINT
  8
寸法
 62
     0
 10
35.016375
 20
90.509813
  0
TEXT
  7
TextStyle03
  8
寸法
  6
CONTINUOUS
 62
     0
 10
19.2375
 20
90.85
  1
800
 40
3.0
 72
     5
 11
24.1125
 21
90.85
  0
ENDBLK
  0
ENDSEC
  0
SECTION
  2
ENTITIES
  0
POLYLINE
  8
通り芯
  6
CONTINUOUS
 66
     1
 70
     1
  0
VERTEX
  8
通り芯
 10
-210.0
 20
-148.5
  0
VERTEX
  8
通り芯
 10
210.0
 20
-148.5
  0
VERTEX
  8
通り芯
 10
210.0
 20
148.5
  0
VERTEX
  8
通り芯
 10
-210.0
 20
148.5
  0
SEQEND
  0
INSERT
  2
*GRP_0001
  8
型材断面
  6
CONTINUOUS
 10
0.0
 20
0.0
  0
LINE
  8
型材断面
  6
DASHDOT
 10
40.016375
 20
-77.836442
 11
40.016375
 21
52.814033
  0
LINE
  8
型材断面
  6
DASHDOT
 10
-18.316957
 20
-77.836442
 11
-18.316957
 21
52.814033
  0
LINE
  8
型材断面
  6
DASHDOT
 10
-76.650292
 20
-77.836442
 11
-76.650292
 21
52.814033
  0
LINE
  8
型材断面
  6
DASHDOT
 10
137.693138
 20
22.814033
 11
-76.650292
 21
22.814033
  0
LINE
  8
型材断面
  6
DASHDOT
 10
137.693138
 20
37.814033
 11
-76.650292
 21
37.814033
  0
LINE
  8
型材断面
  6
DASHDOT
 10
137.693138
 20
52.814033
 11
-76.650292
 21
52.814033
  0
LINE
  8
型材断面
  6
CONTINUOUS
 10
-59.983625
 20
55.444162
 11
-61.479255
 21
58.03467
  0
LINE
  8
型材断面
  6
CONTINUOUS
 10
-59.983625
 20
55.444162
 11
-58.487995
 21
58.03467
  0
LINE
  8
型材断面
  6
CONTINUOUS
 10
-58.487995
 20
58.03467
 11
-61.479255
 21
58.03467
  0
LINE
  8
型材断面
  6
CONTINUOUS
 10
-79.280422
 20
37.814033
 11
-81.87093
 21
39.309663
  0
LINE
  8
型材断面
  6
CONTINUOUS
 10
-79.280422
 20
37.814033
 11
-81.87093
 21
36.318403
  0
LINE
  8
型材断面
  6
CONTINUOUS
 10
-81.87093
 20
36.318403
 11
-81.87093
 21
39.309663
  0
LINE
  8
型材断面
  6
CONTINUOUS
 10
-59.983625
 20
20.183902
 11
-61.479255
 21
17.593395
  0
LINE
  8
型材断面
  6
CONTINUOUS
 10
-59.983625
 20
20.183902
 11
-58.487995
 21
17.593395
  0
LINE
  8
型材断面
  6
CONTINUOUS
 10
-58.487995
 20
17.593395
 11
-61.479255
 21
17.593395
  0
LINE
  8
型材断面
  6
CONTINUOUS
 10
-130.528815
 20
90.791505
 11
-129.93276
 21
88.200998
  0
LINE
  8
型材断面
  6
CONTINUOUS
 10
-130.528815
 20
90.791505
 11
-131.124873
 21
88.200998
  0
LINE
  8
型材断面
  6
CONTINUOUS
 10
-131.124873
 20
88.200998
 11
-129.93276
 21
88.200998
  0
LINE
  8
型材断面
  6
CONTINUOUS
 10
-136.551403
 20
84.922105
 11
-90.309625
 21
84.922105
  0
LINE
  8
型材断面
  6
CONTINUOUS
 10
-130.528815
 20
97.32138
 11
-132.024445
 21
94.730873
  0
LINE
  8
型材断面
  6
CONTINUOUS
 10
-130.528815
 20
97.32138
 11
-129.033185
 21
94.730873
  0
LINE
  8
型材断面
  6
CONTINUOUS
 10
-129.033185
 20
94.730873
 11
-132.024445
 21
94.730873
  0
LINE
  8
型材断面
  6
CONTINUOUS
 10
-136.551403
 20
93.792277
 11
-90.309625
 21
93.792277
  0
LINE
  8
型材断面
  6
CONTINUOUS
 10
-136.551403
 20
79.134073
 11
-90.309625
 21
79.134073
  0
LINE
  8
型材断面
  6
CONTINUOUS
 10
23.34971
 20
55.444162
 11
24.84534
 21
58.03467
  0
LINE
  8
型材断面
  6
CONTINUOUS
 10
23.34971
 20
55.444162
 11
21.85408
 21
58.03467
  0
LINE
  8
型材断面
  6
CONTINUOUS
 10
21.85408
 20
58.03467
 11
24.84534
 21
58.03467
  0
LINE
  8
型材断面
  6
CONTINUOUS
 10
42.646508
 20
37.814033
 11
45.237015
 21
39.309663
  0
LINE
  8
型材断面
  6
CONTINUOUS
 10
42.646508
 20
37.814033
 11
45.237015
 21
36.318403
  0
LINE
  8
型材断面
  6
CONTINUOUS
 10
45.237015
 20
36.318403
 11
45.237015
 21
39.309663
  0
LINE
  8
型材断面
  6
CONTINUOUS
 10
23.34971
 20
20.183902
 11
24.84534
 21
17.593395
  0
LINE
  8
型材断面
  6
CONTINUOUS
 10
23.34971
 20
20.183902
 11
21.85408
 21
17.593395
  0
LINE
  8
型材断面
  6
CONTINUOUS
 10
21.85408
 20
17.593395
 11
24.84534
 21
17.593395
  0
LINE
  8
型材断面
  6
CONTINUOUS
 10
38.016375
 20
20.20722
 11
37.420318
 21
17.616715
  0
LINE
  8
型材断面
  6
CONTINUOUS
 10
38.016375
 20
20.20722
 11
38.612433
 21
17.616715
  0
LINE
  8
型材断面
  6
CONTINUOUS
 10
38.612433
 20
17.616715
 11
37.420318
 21
17.616715
  0
LINE
  8
型材断面
  6
CONTINUOUS
 10
-74.65029
 20
20.20722
 11
-74.054233
 21
17.616715
  0
LINE
  8
型材断面
  6
CONTINUOUS
 10
-74.65029
 20
20.20722
 11
-75.246347
 21
17.616715
  0
LINE
  8
型材断面
  6
CONTINUOUS
 10
-75.246347
 20
17.616715
 11
-74.054233
 21
17.616715
  0
LINE
  8
型材断面
  6
CONTINUOUS
 10
-83.150305
 20
16.314018
 11
-78.71696
 21
20.747363
  0
LINE
  8
型材断面
  6
CONTINUOUS
 10
42.083043
 20
20.747363
 11
46.516388
 21
16.314018
  0
LINE
  8
型材断面
  6
CONTINUOUS
 10
46.516388
 20
16.314018
 11
-83.150305
 21
16.314018
  0
LINE
  8
型材断面
  6
CONTINUOUS
 10
-78.71696
 20
54.880703
 11
-83.150305
 21
59.314048
  0
LINE
  8
型材断面
  6
CONTINUOUS
 10
-83.150305
 20
16.314018
 11
-83.150305
 21
59.314048
  0
LINE
  8
型材断面
  6
CONTINUOUS
 10
42.083043
 20
54.880703
 11
46.516388
 21
59.314048
  0
LINE
  8
型材断面
  6
CONTINUOUS
 10
46.516388
 20
59.314048
 11
46.516388
 21
16.314018
  0
LINE
  8
型材断面
  6
CONTINUOUS
 10
46.516388
 20
59.314048
 11
-83.150305
 21
59.314048
  0
POLYLINE
  8
型材断面
  6
DASHDOT
 66
     1
  0
VERTEX
  8
型材断面
 10
-76.65029
 20
22.814033
  0
VERTEX
  8
型材断面
 10
-18.316957
 20
52.814033
  0
VERTEX
  8
型材断面
 10
40.016373
 20
22.814033
  0
SEQEND
  0
LINE
  8
型材断面
  6
DASHDOT
 10
1.377485
 20
52.814033
 11
1.377485
 21
22.814033
  0
LINE
  8
型材断面
  6
DASHDOT
 10
-38.011402
 20
52.814033
 11
-38.011402
 21
22.814033
  0
LINE
  8
型材断面
  6
CONTINUOUS
 10
-78.31694
 20
54.480682
 11
-76.150273
 21
52.314015
  0
LINE
  8
型材断面
  6
CONTINUOUS
 10
-78.31694
 20
21.147382
 11
-76.150273
 21
23.31405
  0
LINE
  8
型材断面
  6
CONTINUOUS
 10
-76.150273
 20
23.31405
 11
-76.150273
 21
52.314015
  0
LINE
  8
型材断面
  6
CONTINUOUS
 10
-76.93362
 20
22.530705
 11
-76.93362
 21
53.09736
  0
LINE
  8
型材断面
  6
CONTINUOUS
 10
-78.31694
 20
21.147382
 11
-78.31694
 21
54.480682
  0
LINE
  8
型材断面
  6
CONTINUOUS
 10
39.516358
 20
52.314015
 11
41.683025
 21
54.480682
  0
LINE
  8
型材断面
  6
CONTINUOUS
 10
39.516358
 20
23.31405
 11
41.683025
 21
21.147382
  0
LINE
  8
型材断面
  6
CONTINUOUS
 10
39.516358
 20
23.31405
 11
39.516358
 21
52.314015
  0
LINE
  8
型材断面
  6
CONTINUOUS
 10
40.299705
 20
22.530705
 11
40.299705
 21
53.09736
  0
LINE
  8
型材断面
  6
CONTINUOUS
 10
41.683025
 20
21.147382
 11
41.683025
 21
54.480682
  0
LINE
  8
型材断面
  6
CONTINUOUS
 10
39.516358
 20
52.314015
 11
-76.150273
 21
52.314015
  0
LINE
  8
型材断面
  6
CONTINUOUS
 10
40.299705
 20
53.09736
 11
-76.93362
 21
53.09736
  0
LINE
  8
型材断面
  6
CONTINUOUS
 10
41.683025
 20
54.480682
 11
-78.31694
 21
54.480682
  0
LINE
  8
型材断面
  6
CONTINUOUS
 10
-76.150273
 20
23.31405
 11
39.516358
 21
23.31405
  0
LINE
  8
型材断面
  6
CONTINUOUS
 10
-76.93362
 20
22.530705
 11
40.299705
 21
22.530705
  0
LINE
  8
型材断面
  6
CONTINUOUS
 10
-78.31694
 20
21.147382
 11
41.683025
 21
21.147382
  0
LINE
  8
型材断面
  6
CONTINUOUS
 10
-39.17807
 20
24.147382
 11
-36.844735
 21
24.147382
  0
LINE
  8
型材断面
  6
CONTINUOUS
 10
-39.17807
 20
24.147382
 11
-39.17807
 21
51.480682
  0
LINE
  8
型材断面
  6
CONTINUOUS
 10
-39.17807
 20
51.480682
 11
-36.844735
 21
51.480682
  0
LINE
  8
型材断面
  6
CONTINUOUS
 10
-36.844735
 20
24.147382
 11
-36.844735
 21
51.480682
  0
LINE
  8
型材断面
  6
CONTINUOUS
 10
-37.67807
 20
24.147382
 11
-37.67807
 21
51.480682
  0
LINE
  8
型材断面
  6
CONTINUOUS
 10
-38.344735
 20
24.147382
 11
-38.344735
 21
51.480682
  0
LINE
  8
型材断面
  6
CONTINUOUS
 10
0.210817
 20
24.147382
 11
2.544153
 21
24.147382
  0
LINE
  8
型材断面
  6
CONTINUOUS
 10
0.210817
 20
24.147382
 11
0.210817
 21
51.480682
  0
LINE
  8
型材断面
  6
CONTINUOUS
 10
0.210817
 20
51.480682
 11
2.544153
 21
51.480682
  0
LINE
  8
型材断面
  6
CONTINUOUS
 10
2.544153
 20
24.147382
 11
2.544153
 21
51.480682
  0
LINE
  8
型材断面
  6
CONTINUOUS
 10
1.710817
 20
24.147382
 11
1.710817
 21
51.480682
  0
LINE
  8
型材断面
  6
CONTINUOUS
 10
1.044153
 20
24.147382
 11
1.044153
 21
51.480682
  0
LINE
  8
型材断面
  6
CONTINUOUS
 62
    47
 10
130.193138
 20
53.814048
 11
132.093175
 21
53.814048
  0
LINE
  8
型材断面
  6
CONTINUOUS
 10
132.293175
 20
53.814048
 11
134.693138
 21
53.814048
  0
LINE
  8
型材断面
  6
CONTINUOUS
 10
134.693138
 20
53.814048
 11
135.359805
 21
59.314048
  0
LINE
  8
型材断面
  6
CONTINUOUS
 10
137.693138
 20
59.314048
 11
135.359805
 21
59.314048
  0
LINE
  8
型材断面
  6
CONTINUOUS
 62
    47
 10
130.193138
 20
21.814018
 11
132.093175
 21
21.814018
  0
LINE
  8
型材断面
  6
CONTINUOUS
 10
132.293175
 20
21.814018
 11
134.693138
 21
21.814018
  0
LINE
  8
型材断面
  6
CONTINUOUS
 10
134.693138
 20
21.814018
 11
135.359805
 21
16.314018
  0
LINE
  8
型材断面
  6
CONTINUOUS
 10
137.693138
 20
16.314018
 11
135.359805
 21
16.314018
  0
LINE
  8
型材断面
  6
CONTINUOUS
 10
137.693138
 20
59.314048
 11
137.693138
 21
16.314018
  0
LINE
  8
型材断面
  6
CONTINUOUS
 10
135.359805
 20
59.314048
 11
135.359805
 21
16.314018
  0
LINE
  8
型材断面
  6
CONTINUOUS
 10
132.093175
 20
21.814018
 11
132.093175
 21
53.814048
  0
LINE
  8
型材断面
  6
CONTINUOUS
 10
132.293175
 20
21.814018
 11
132.293175
 21
53.814048
  0
LINE
  8
型材断面
  6
CONTINUOUS
 10
134.693138
 20
21.814018
 11
134.693138
 21
53.814048
  0
ARC
  8
型材断面
  6
DASHDOT
 10
132.193176
 20
54.014048
 40
33.003318
 50
219.78455
 51
264.78455
  0
LINE
  8
型材断面
  6
CONTINUOUS
 10
129.243255
 20
22.530725
 11
128.74984
 21
22.530725
  0
LINE
  8
型材断面
  6
CONTINUOUS
 10
129.243255
 20
21.147405
 11
129.909922
 21
21.147405
  0
LINE
  8
型材断面
  6
CONTINUOUS
 10
128.74984
 20
52.314035
 11
128.74984
 21
53.047382
  0
LINE
  8
型材断面
  6
CONTINUOUS
 10
129.243255
 20
53.097382
 11
128.74984
 21
53.097382
  0
LINE
  8
型材断面
  6
CONTINUOUS
 10
129.243255
 20
54.480705
 11
129.909922
 21
54.480705
  0
LINE
  8
型材断面
  6
CONTINUOUS
 10
128.74984
 20
22.530725
 11
128.74984
 21
53.097382
  0
LINE
  8
型材断面
  6
CONTINUOUS
 10
129.243255
 20
21.147405
 11
129.243255
 21
54.480705
  0
LINE
  8
型材断面
  6
CONTINUOUS
 10
129.909922
 20
21.147405
 11
129.909922
 21
54.480705
  0
INSERT
  2
*GRP_0012
  8
型材断面
  6
DASHDOT
 10
0.0
 20
0.0
  0
LINE
  8
型材断面
  6
CONTINUOUS
 62
    47
 10
-77.650305
 20
-73.336442
 11
-77.650305
 21
-75.236482
  0
LINE
  8
型材断面
  6
CONTINUOUS
 10
-77.650305
 20
-75.436482
 11
-77.650305
 21
-77.836442
  0
LINE
  8
型材断面
  6
CONTINUOUS
 10
-77.650305
 20
-77.836442
 11
-83.150305
 21
-78.503113
  0
LINE
  8
型材断面
  6
CONTINUOUS
 10
-83.150305
 20
-80.836442
 11
-83.150305
 21
-78.503113
  0
LINE
  8
型材断面
  6
CONTINUOUS
 62
    47
 10
41.016388
 20
-73.336442
 11
41.016388
 21
-75.236482
  0
LINE
  8
型材断面
  6
CONTINUOUS
 10
41.016388
 20
-75.436482
 11
41.016388
 21
-77.836442
  0
LINE
  8
型材断面
  6
CONTINUOUS
 10
41.016388
 20
-77.836442
 11
46.516388
 21
-78.503113
  0
LINE
  8
型材断面
  6
CONTINUOUS
 10
46.516388
 20
-80.836442
 11
46.516388
 21
-78.503113
  0
LINE
  8
型材断面
  6
CONTINUOUS
 10
-83.150305
 20
-80.836442
 11
46.516388
 21
-80.836442
  0
LINE
  8
型材断面
  6
CONTINUOUS
 10
-83.150305
 20
-78.503113
 11
46.516388
 21
-78.503113
  0
LINE
  8
型材断面
  6
CONTINUOUS
 10
41.016388
 20
-75.236482
 11
-77.650305
 21
-75.236482
  0
LINE
  8
型材断面
  6
CONTINUOUS
 10
41.016388
 20
-75.436482
 11
-77.650305
 21
-75.436482
  0
LINE
  8
型材断面
  6
CONTINUOUS
 10
41.016388
 20
-77.836442
 11
-77.650305
 21
-77.836442
  0
LINE
  8
型材断面
  6
CONTINUOUS
 10
-18.316957
 20
-77.836442
 11
-18.316957
 21
-80.836442
  0
LINE
  8
型材断面
  6
CONTINUOUS
 10
-76.9336
 20
-72.38656
 11
-76.9336
 21
-71.893145
  0
LINE
  8
型材断面
  6
CONTINUOUS
 10
-78.316922
 20
-72.38656
 11
-78.316922
 21
-73.053227
  0
LINE
  8
型材断面
  6
CONTINUOUS
 10
39.516375
 20
-71.893145
 11
40.249722
 21
-71.893145
  0
LINE
  8
型材断面
  6
CONTINUOUS
 10
40.299722
 20
-72.38656
 11
40.299722
 21
-71.893145
  0
LINE
  8
型材断面
  6
CONTINUOUS
 10
41.683045
 20
-72.38656
 11
41.683045
 21
-73.053227
  0
LINE
  8
型材断面
  6
CONTINUOUS
 10
-76.9336
 20
-71.893145
 11
40.299722
 21
-71.893145
  0
LINE
  8
型材断面
  6
CONTINUOUS
 10
-78.316922
 20
-72.38656
 11
41.683045
 21
-72.38656
  0
LINE
  8
型材断面
  6
CONTINUOUS
 10
-78.316922
 20
-73.053227
 11
41.683045
 21
-73.053227
  0
LINE
  8
型材断面
  6
CONTINUOUS
 10
-18.31696
 20
59.314048
 11
-18.31696
 21
54.480682
  0
LINE
  8
型材断面
  6
CONTINUOUS
 10
-18.31696
 20
16.314018
 11
-18.31696
 21
21.147382
  0
LINE
  8
ガラス
  6
CONTINUOUS
 10
132.79062
 20
-37.352753
 11
88.237287
 21
-37.352753
  0
LINE
  8
ガラス
  6
CONTINUOUS
 10
132.79062
 20
-37.352753
 11
132.79062
 21
-67.352753
  0
LINE
  8
ガラス
  6
CONTINUOUS
 10
88.237287
 20
-37.352753
 11
88.237287
 21
-67.352753
  0
LINE
  8
ガラス
  6
CONTINUOUS
 10
132.79062
 20
-67.352753
 11
88.237287
 21
-67.352753
  0
LINE
  8
ガラス
  6
CONTINUOUS
 10
-54.61904
 20
40.444993
 11
-59.88097
 21
35.183065
  0
LINE
  8
ガラス
  6
CONTINUOUS
 10
-55.93139
 20
36.495413
 11
-58.56862
 21
39.132655
  0
LINE
  8
ガラス
  6
CONTINUOUS
 10
-57.63748
 20
36.556313
 11
-55.604447
 21
38.589345
  0
LINE
  8
ガラス
  6
CONTINUOUS
 10
-56.862537
 20
39.071753
 11
-58.89556
 21
37.038723
  0
LINE
  8
ガラス
  6
CONTINUOUS
 10
-15.685998
 20
40.444993
 11
-20.947927
 21
35.183065
  0
LINE
  8
ガラス
  6
CONTINUOUS
 10
-16.998348
 20
36.495413
 11
-19.635578
 21
39.132655
  0
LINE
  8
ガラス
  6
CONTINUOUS
 10
-18.704438
 20
36.556313
 11
-16.671405
 21
38.589345
  0
LINE
  8
ガラス
  6
CONTINUOUS
 10
-17.929495
 20
39.071753
 11
-19.962518
 21
37.038723
  0
LINE
  8
ガラス
  6
CONTINUOUS
 10
22.689003
 20
40.444993
 11
17.427073
 21
35.183065
  0
LINE
  8
ガラス
  6
CONTINUOUS
 10
21.376652
 20
36.495413
 11
18.739423
 21
39.132655
  0
LINE
  8
ガラス
  6
CONTINUOUS
 10
19.670563
 20
36.556313
 11
21.703595
 21
38.589345
  0
LINE
  8
ガラス
  6
CONTINUOUS
 10
20.445505
 20
39.071753
 11
18.412483
 21
37.038723
  0
TEXT
  7
TextStyle03
  8
文字
  6
CONTINUOUS
 10
78.1
 20
125.25
  1
シリーズ：ＳＴＦＦＨＬ
 40
5.0
 72
     5
 11
139.35
 21
125.25
  0
TEXT
  7
TextStyle03
  8
文字
  6
CONTINUOUS
 10
78.1
 20
119.625
  1
　　　　　（片側開閉）900×3500タイプ
 40
5.0
 72
     5
 11
181.5375
 21
119.625
  0
TEXT
  7
TextStyle03
  8
文字
  6
CONTINUOUS
 10
78.1
 20
114.0
  1
図面名　：外観姿図
 40
5.0
 72
     5
 11
128.1
 21
114.0
  0
TEXT
  7
TextStyle03
  8
文字
  6
CONTINUOUS
 10
78.1
 20
108.375
  1
　　　　　　
 40
5.0
 72
     5
 11
111.225
 21
108.375
  0
TEXT
  7
TextStyle03
  8
文字
  6
CONTINUOUS
 10
-127.75
 20
94.925
  1
は排水穴位置を示す
 40
3.0
 72
     5
 11
-97.75
 21
94.925
  0
TEXT
  7
TextStyle03
  8
文字
  6
CONTINUOUS
 10
-127.75
 20
89.4
  1
はケーシング位置を示す
 40
3.0
 72
     5
 11
-91.0
 21
89.4
  0
TEXT
  7
TextStyle03
  8
文字
  6
CONTINUOUS
 10
-127.75
 20
86.025
  1
２ヶ所中1ヶ所に設定
 40
3.0
 72
     5
 11
-96.0625
 21
86.025
  0
TEXT
  7
TextStyle03
  8
文字
  6
CONTINUOUS
 10
-97.625
 20
16.275
  1
アンカーピッチ
 40
3.0
 50
90.0
 72
     5
 11
-97.625
 21
39.525
  0
TEXT
  7
TextStyle03
  8
文字
  6
CONTINUOUS
 10
-131.475
 20
80.05
  1
アンカー数量　１４ヶ所
 40
3.0
 72
     5
 11
-94.725
 21
80.05
  0
TEXT
  7
TextStyle03
  8
文字
  6
CONTINUOUS
 10
43.375
 20
-89.0
  1
※は物件対応寸法
 40
3.0
 72
     5
 11
70.0
 21
-89.0
  0
TEXT
  7
TextStyle03
  8
文字
  6
CONTINUOUS
 10
113.95
 20
-60.35
  1
網入り6.8t
 40
3.0
 72
     5
 11
130.6375
 21
-60.35
  0
TEXT
  7
TextStyle03
  8
文字
  6
CONTINUOUS
 10
120.625
 20
-65.025
  1
×３枚
 40
3.0
 72
     5
 11
130.375
 21
-65.025
  0
TEXT
  7
TextStyle03
  8
文字
  6
CONTINUOUS
 10
118.05
 20
16.35
  1
45°
 40
3.0
 50
90.0
 72
     5
 11
118.05
 21
22.725
  0
TEXT
  7
TextStyle03
  8
文字
  6
CONTINUOUS
 10
-65.5
 20
95.325
  1
アンカーピッチ
 40
3.0
 72
     5
 11
-42.25
 21
95.325
  0
INSERT
  2
*DIM_0002
  8
寸法
  6
CONTINUOUS
 10
0.0
 20
0.0
  0
INSERT
  2
*DIM_0003
  8
寸法
  6
CONTINUOUS
 10
0.0
 20
0.0
  0
INSERT
  2
*DIM_0004
  8
寸法
  6
CONTINUOUS
 10
0.0
 20
0.0
  0
INSERT
  2
*DIM_0009
  8
寸法
  6
CONTINUOUS
 10
0.0
 20
0.0
  0
INSERT
  2
*DIM_0010
  8
寸法
  6
CONTINUOUS
 10
0.0
 20
0.0
  0
INSERT
  2
*DIM_0011
  8
寸法
  6
CONTINUOUS
 10
0.0
 20
0.0
  0
INSERT
  2
*DIM_0015
  8
寸法
  6
CONTINUOUS
 10
0.0
 20
0.0
  0
INSERT
  2
*DIM_0016
  8
寸法
  6
CONTINUOUS
 10
0.0
 20
0.0
  0
INSERT
  2
*DIM_0017
  8
寸法
  6
CONTINUOUS
 10
0.0
 20
0.0
  0
INSERT
  2
*DIM_0018
  8
寸法
  6
CONTINUOUS
 10
0.0
 20
0.0
  0
INSERT
  2
*DIM_0019
  8
寸法
  6
CONTINUOUS
 10
0.0
 20
0.0
  0
INSERT
  2
*DIM_0020
  8
寸法
  6
CONTINUOUS
 10
0.0
 20
0.0
  0
INSERT
  2
*DIM_0023
  8
寸法
  6
CONTINUOUS
 10
0.0
 20
0.0
  0
INSERT
  2
*DIM_0024
  8
寸法
  6
CONTINUOUS
 10
0.0
 20
0.0
  0
INSERT
  2
*DIM_0025
  8
寸法
  6
CONTINUOUS
 10
0.0
 20
0.0
  0
INSERT
  2
*DIM_0026
  8
寸法
  6
CONTINUOUS
 10
0.0
 20
0.0
  0
INSERT
  2
*DIM_0027
  8
寸法
  6
CONTINUOUS
 10
0.0
 20
0.0
  0
INSERT
  2
*DIM_0028
  8
寸法
  6
CONTINUOUS
 10
0.0
 20
0.0
  0
INSERT
  2
*DIM_0029
  8
寸法
  6
CONTINUOUS
 10
0.0
 20
0.0
  0
INSERT
  2
*DIM_0030
  8
寸法
  6
CONTINUOUS
 10
0.0
 20
0.0
  0
INSERT
  2
*GRP_0013
  8
別途部材
  6
CONTINUOUS
 10
0.0
 20
0.0
  0
INSERT
  2
*GRP_0021
  8
別途部材
  6
DOT
 10
0.0
 20
0.0
  0
INSERT
  2
*GRP_0022
  8
別途部材
  6
DOT
 10
0.0
 20
0.0
  0
ENDSEC
  0
EOF
