  0
SECTION
  2
HEADER
  9
$EXTMIN
 10
-210.0
 20
-148.5
  9
$EXTMAX
 10
210.0
 20
148.5
  9
$PDMODE
 70
    32
  9
$PDSIZE
 40
1.5
  9
$LTSCALE
 40
10.0
  0
ENDSEC
  0
SECTION
  2
TABLES
  0
TABLE
  2
LTYPE
 70
    15
  0
LTYPE
  2
CONTINUOUS
 70
    64
  3
実線
 72
    65
 73
     0
 40
0.0
  0
LTYPE
  2
DASHED
 70
    64
  3
破線A
 72
    65
 73
     2
 40
0.6
 49
0.4
 49
-0.2
  0
LTYPE
  2
DASHEDX2
 70
    64
  3
破線B
 72
    65
 73
     2
 40
1.3
 49
0.9
 49
-0.4
  0
LTYPE
  2
DASHDOT
 70
    64
  3
１点鎖線A
 72
    65
 73
     4
 40
0.5375
 49
0.375
 49
-0.05
 49
0.0625
 49
-0.05
  0
LTYPE
  2
DASHDOTX2
 70
    64
  3
１点鎖線B
 72
    65
 73
     4
 40
1.075
 49
0.75
 49
-0.1
 49
0.125
 49
-0.1
  0
LTYPE
  2
DIVIDE2
 70
    64
  3
２点鎖線A
 72
    65
 73
     6
 40
0.5125
 49
0.3
 49
-0.0375
 49
0.05
 49
-0.0375
 49
0.05
 49
-0.0375
  0
LTYPE
  2
DIVIDE
 70
    64
  3
２点鎖線B
 72
    65
 73
     6
 40
1.05
 49
0.55
 49
-0.1
 49
0.1
 49
-0.1
 49
0.1
 49
-0.1
  0
LTYPE
  2
DOT
 70
    64
  3
点線A
 72
    65
 73
     2
 40
0.1125
 49
0.0625
 49
-0.05
  0
LTYPE
  2
DOTX2
 70
    64
  3
点線B
 72
    65
 73
     2
 40
0.275
 49
0.15
 49
-0.125
  0
LTYPE
  2
CONTINUOUS
 70
    64
  3
実線
 72
    65
 73
     0
 40
0.0
  0
LTYPE
  2
CONTINUOUS
 70
    64
  3
実線
 72
    65
 73
     0
 40
0.0
  0
LTYPE
  2
CONTINUOUS
 70
    64
  3
実線
 72
    65
 73
     0
 40
0.0
  0
LTYPE
  2
CONTINUOUS
 70
    64
  3
実線
 72
    65
 73
     0
 40
0.0
  0
LTYPE
  2
CONTINUOUS
 70
    64
  3
実線
 72
    65
 73
     0
 40
0.0
  0
LTYPE
  2
CONTINUOUS
 70
    64
  3
実線
 72
    65
 73
     0
 40
0.0
  0
ENDTAB
  0
TABLE
  2
LAYER
 70
    34
  0
LAYER
  2
通り芯
 70
     0
 62
    15
  6
CONTINUOUS
  0
LAYER
  2
補助線
 70
     0
 62
    16
  6
DOT
  0
LAYER
  2
躯体
 70
     0
 62
    31
  6
CONTINUOUS
  0
LAYER
  2
型材
 70
     0
 62
    32
  6
CONTINUOUS
  0
LAYER
  2
型材断面
 70
     0
 62
    47
  6
CONTINUOUS
  0
LAYER
  2
ガラス
 70
     0
 62
    48
  6
CONTINUOUS
  0
LAYER
  2
ゴム等
 70
     0
 62
    63
  6
CONTINUOUS
  0
LAYER
  2
ボルト／ビス
 70
     0
 62
    64
  6
CONTINUOUS
  0
LAYER
  2
文字
 70
     0
 62
    79
  6
CONTINUOUS
  0
LAYER
  2
寸法
 70
     0
 62
    80
  6
CONTINUOUS
  0
LAYER
  2
ﾊｯﾁﾝｸﾞ
 70
     0
 62
    95
  6
CONTINUOUS
  0
LAYER
  2
別途部材
 70
     0
 62
    96
  6
CONTINUOUS
  0
LAYER
  2
曲げ物
 70
     0
 62
   111
  6
CONTINUOUS
  0
LAYER
  2
鉄骨等
 70
     0
 62
   112
  6
CONTINUOUS
  0
LAYER
  2
St
 70
     0
 62
   127
  6
CONTINUOUS
  0
LAYER
  2
その他部品等
 70
     0
 62
   128
  6
CONTINUOUS
  0
LAYER
  2
ｶﾞｽｹｯﾄ
 70
     0
 62
   143
  6
CONTINUOUS
  0
LAYER
  2
ｽｹｯﾁ
 70
     0
 62
    14
  6
CONTINUOUS
  0
LAYER
  2
0
 70
     0
 62
    17
  6
CONTINUOUS
  0
LAYER
  2
1
 70
     0
 62
    30
  6
CONTINUOUS
  0
LAYER
  2
4
 70
     0
 62
    33
  6
CONTINUOUS
  0
LAYER
  2
ﾚｲﾔ3
 70
     0
 62
    46
  6
CONTINUOUS
  0
LAYER
  2
外形線
 70
     0
 62
    49
  6
CONTINUOUS
  0
LAYER
  2
部品
 70
     0
 62
    14
  6
CONTINUOUS
  0
LAYER
  2
サッシ芯
 70
     0
 62
    17
  6
DASHDOTX2
  0
LAYER
  2
寸法線
 70
     0
 62
    62
  6
CONTINUOUS
  0
LAYER
  2
姿図外形線
 70
     0
 62
    65
  6
CONTINUOUS
  0
LAYER
  2
姿補助線
 70
     0
 62
    30
  6
CONTINUOUS
  0
LAYER
  2
透視線
 70
     0
 62
    78
  6
DOT
  0
LAYER
  2
用紙
 70
     0
 62
    81
  6
CONTINUOUS
  0
LAYER
  2
実線図枠
 70
     0
 62
    94
  6
CONTINUOUS
  0
LAYER
  2
補助図枠
 70
     0
 62
    97
  6
CONTINUOUS
  0
LAYER
  2
建具記号
 70
     0
 62
   110
  6
CONTINUOUS
  0
LAYER
  2
補助文字
 70
     0
 62
   113
  6
CONTINUOUS
  0
ENDTAB
  0
TABLE
  2
STYLE
 70
    10
  0
STYLE
  2
STANDARD
 70
     0
 40
1.0
 41
1.0
 42
1.0
 50
0.0
 71
     0
  3
TXT
  4
BIGFONT
  0
STYLE
  2
TATE
 70
     4
 40
1.0
 41
1.0
 42
1.0
 50
0.0
 71
     0
  3
TXT
  4
BIGFONT
  0
STYLE
  2
TextStyle03
 70
     0
 40
1.0
 41
1.0
 42
1.0
 50
0.0
 71
     0
  3
MONOTXT
  4
BIGFONT
  0
STYLE
  2
TextStyle04
 70
     0
 40
1.0
 41
1.0
 42
1.0
 50
0.0
 71
     0
  3
MONOTXT
  4
BIGFONT
  0
STYLE
  2
TextStyle05
 70
     0
 40
1.0
 41
1.0
 42
1.0
 50
0.0
 71
     0
  3
MONOTXT
  4
BIGFONT
  0
STYLE
  2
TextStyle06
 70
     0
 40
1.0
 41
1.0
 42
1.0
 50
0.0
 71
     0
  3
MONOTXT
  4
BIGFONT
  0
STYLE
  2
TextStyle07
 70
     0
 40
1.0
 41
1.0
 42
1.0
 50
0.0
 71
     0
  3
MONOTXT
  4
BIGFONT
  0
STYLE
  2
TextStyle08
 70
     0
 40
1.0
 41
1.0
 42
1.0
 50
0.0
 71
     0
  3
MONOTXT
  4
BIGFONT
  0
STYLE
  2
TextStyle09
 70
     0
 40
1.0
 41
1.0
 42
1.0
 50
0.0
 71
     0
  3
MONOTXT
  4
BIGFONT
  0
STYLE
  2
TextStyle10
 70
     0
 40
1.0
 41
1.0
 42
1.0
 50
0.0
 71
     0
  3
MONOTXT
  4
BIGFONT
  0
ENDTAB
  0
ENDSEC
  0
SECTION
  2
BLOCKS
  0
BLOCK
  2
*GRP_0001
 70
    65
 10
0.0
 20
0.0
  0
LINE
  8
型材断面
  6
CONTINUOUS
 10
195.0
 20
133.5
 11
195.0
 21
-133.5
  0
LINE
  8
型材断面
  6
CONTINUOUS
 10
195.0
 20
-133.5
 11
-185.0
 21
-133.5
  0
LINE
  8
型材断面
  6
CONTINUOUS
 10
-185.0
 20
-133.5
 11
-185.0
 21
133.5
  0
LINE
  8
型材断面
  6
CONTINUOUS
 10
195.0
 20
133.5
 11
-185.0
 21
133.5
  0
LINE
  8
型材断面
  6
CONTINUOUS
 10
145.0
 20
-133.5
 11
145.0
 21
-118.5
  0
LINE
  8
型材断面
  6
CONTINUOUS
 10
195.0
 20
-118.5
 11
145.0
 21
-118.5
  0
ENDBLK
  0
BLOCK
  2
*DIM_0002
 70
    65
 10
0.0
 20
0.0
  0
LINE
  8
寸法
  6
BYBLOCK
 62
     0
 10
55.990438
 20
17.20722
 11
55.990438
 21
14.182178
  0
LINE
  8
寸法
  6
BYBLOCK
 62
     0
 10
57.990438
 20
14.182178
 11
55.990438
 21
14.182178
  0
POINT
  8
寸法
 62
     0
 10
57.990438
 20
14.182178
  0
POINT
  8
寸法
 62
     0
 10
55.990438
 20
14.182178
  0
TEXT
  7
TextStyle03
  8
寸法
  6
CONTINUOUS
 62
     0
 10
54.08125
 20
10.4
  1
60
 40
3.0
 72
     5
 11
57.26875
 21
10.4
  0
ENDBLK
  0
BLOCK
  2
*DIM_0003
 70
    65
 10
0.0
 20
0.0
  0
LINE
  8
寸法
  6
BYBLOCK
 62
     0
 10
-73.342897
 20
17.20722
 11
-73.342897
 21
14.182178
  0
LINE
  8
寸法
  6
BYBLOCK
 62
     0
 10
-75.342897
 20
14.182178
 11
-73.342897
 21
14.182178
  0
POINT
  8
寸法
 62
     0
 10
-75.342897
 20
14.182178
  0
POINT
  8
寸法
 62
     0
 10
-73.342897
 20
14.182178
  0
TEXT
  7
TextStyle03
  8
寸法
  6
CONTINUOUS
 62
     0
 10
-74.61875
 20
10.4
  1
60
 40
3.0
 72
     5
 11
-71.43125
 21
10.4
  0
ENDBLK
  0
BLOCK
  2
*DIM_0004
 70
    65
 10
0.0
 20
0.0
  0
LINE
  8
寸法
  6
BYBLOCK
 62
     0
 10
-78.342895
 20
47.814033
 11
-91.635732
 21
47.814033
  0
LINE
  8
寸法
  6
BYBLOCK
 62
     0
 10
-78.342895
 20
27.814033
 11
-91.635732
 21
27.814033
  0
LINE
  8
寸法
  6
BYBLOCK
 62
     0
 10
-91.635732
 20
47.814033
 11
-91.635732
 21
27.814033
  0
POINT
  8
寸法
 62
     0
 10
-91.635732
 20
47.814033
  0
POINT
  8
寸法
 62
     0
 10
-91.635732
 20
27.814033
  0
TEXT
  7
TextStyle03
  8
寸法
  6
CONTINUOUS
 62
     0
 10
-91.975
 20
35.3625
  1
600
 40
3.0
 50
90.0
 72
     5
 11
-91.975
 21
40.2375
  0
ENDBLK
  0
BLOCK
  2
*DIM_0005
 70
    65
 10
0.0
 20
0.0
  0
LINE
  8
寸法
  6
BYBLOCK
 62
     0
 10
-58.676228
 20
14.380432
 11
-58.676228
 21
9.329425
  0
LINE
  8
寸法
  6
BYBLOCK
 62
     0
 10
41.323768
 20
14.380432
 11
41.323768
 21
9.329425
  0
LINE
  8
寸法
  6
BYBLOCK
 62
     0
 10
-58.676228
 20
9.329425
 11
41.323768
 21
9.329425
  0
POINT
  8
寸法
 62
     0
 10
-58.676228
 20
9.329425
  0
POINT
  8
寸法
 62
     0
 10
41.323768
 20
9.329425
  0
TEXT
  7
TextStyle03
  8
寸法
  6
CONTINUOUS
 62
     0
 10
-11.98125
 20
9.725
  1
3000
 40
3.0
 72
     5
 11
-5.41875
 21
9.725
  0
ENDBLK
  0
BLOCK
  2
*DIM_0006
 70
    65
 10
0.0
 20
0.0
  0
LINE
  8
寸法
  6
CONTINUOUS
 10
138.035135
 20
-38.739412
 11
138.035135
 21
-29.399832
  0
LINE
  8
寸法
  6
CONTINUOUS
 10
105.825135
 20
-38.739412
 11
105.825135
 21
-29.399832
  0
LINE
  8
寸法
  6
CONTINUOUS
 10
138.035135
 20
-29.399832
 11
105.825135
 21
-29.399832
  0
POINT
  8
寸法
 10
138.035135
 20
-29.399832
  0
POINT
  8
寸法
 10
105.825135
 20
-29.399832
  0
TEXT
  7
TextStyle03
  8
寸法
  6
CONTINUOUS
 10
117.8
 20
-29.05
  1
966.3
 40
3.0
 72
     5
 11
126.05
 21
-29.05
  0
ENDBLK
  0
BLOCK
  2
*DIM_0007
 70
    65
 10
0.0
 20
0.0
  0
LINE
  8
寸法
  6
CONTINUOUS
 10
139.035135
 20
-39.739412
 11
148.010843
 21
-39.739412
  0
LINE
  8
寸法
  6
CONTINUOUS
 10
139.035135
 20
-69.739412
 11
148.010843
 21
-69.739412
  0
LINE
  8
寸法
  6
CONTINUOUS
 10
148.010843
 20
-39.739412
 11
148.010843
 21
-69.739412
  0
POINT
  8
寸法
 10
148.010843
 20
-39.739412
  0
POINT
  8
寸法
 10
148.010843
 20
-69.739412
  0
TEXT
  7
TextStyle03
  8
寸法
  6
CONTINUOUS
 10
147.625
 20
-57.1875
  1
900
 40
3.0
 50
90.0
 72
     5
 11
147.625
 21
-52.3125
  0
ENDBLK
  0
BLOCK
  2
*DIM_0008
 70
    65
 10
0.0
 20
0.0
  0
LINE
  8
寸法
  6
BYBLOCK
 62
     0
 10
57.990438
 20
-15.248207
 11
-75.342895
 21
-15.248207
  0
POINT
  8
寸法
 62
     0
 10
57.990438
 20
-15.248207
  0
POINT
  8
寸法
 62
     0
 10
-75.342895
 20
-15.248207
  0
TEXT
  7
TextStyle03
  8
寸法
  6
CONTINUOUS
 62
     0
 10
-20.41875
 20
-14.875
  1
呼称寸法　4000
 40
3.0
 72
     5
 11
3.01875
 21
-14.875
  0
ENDBLK
  0
BLOCK
  2
*GRP_0009
 70
    65
 10
0.0
 20
0.0
  0
LINE
  8
ボルト／ビス
  6
CONTINUOUS
 10
-76.00956
 20
-72.336435
 11
-76.00956
 21
-71.869768
  0
LINE
  8
ボルト／ビス
  6
CONTINUOUS
 10
-75.642893
 20
-72.336435
 11
-75.642893
 21
-72.269768
  0
LINE
  8
ボルト／ビス
  6
CONTINUOUS
 10
-75.642893
 20
-72.269768
 11
-76.376227
 21
-72.269768
  0
LINE
  8
ボルト／ビス
  6
CONTINUOUS
 10
-76.376227
 20
-72.269768
 11
-76.376227
 21
-72.336435
  0
LINE
  8
ボルト／ビス
  6
CONTINUOUS
 10
-75.642893
 20
-72.336435
 11
-76.376227
 21
-72.336435
  0
LINE
  8
ボルト／ビス
  6
CONTINUOUS
 10
-75.70956
 20
-72.236435
 11
-75.70956
 21
-72.269768
  0
LINE
  8
ボルト／ビス
  6
CONTINUOUS
 10
-75.70956
 20
-72.236435
 11
-76.30956
 21
-72.236435
  0
LINE
  8
ボルト／ビス
  6
CONTINUOUS
 10
-76.30956
 20
-72.236435
 11
-76.30956
 21
-72.269768
  0
LINE
  8
ボルト／ビス
  6
CONTINUOUS
 62
    64
 10
-75.849185
 20
-72.036435
 11
-75.81711
 21
-72.04811
  0
ARC
  8
ボルト／ビス
  6
CONTINUOUS
 62
    64
 10
-75.865221
 20
-72.141416
 40
0.104978
 50
90.0
 51
117.278033
  0
ARC
  8
ボルト／ビス
  6
CONTINUOUS
 62
    64
 10
-76.009559
 20
-72.43884
 40
0.402402
 50
76.165015
 51
103.834998
  0
LINE
  8
ボルト／ビス
  6
CONTINUOUS
 62
    64
 10
-76.169935
 20
-72.036435
 11
-76.20201
 21
-72.04811
  0
ARC
  8
ボルト／ビス
  6
CONTINUOUS
 62
    64
 10
-76.153896
 20
-72.141416
 40
0.104978
 50
62.721967
 51
90.0
  0
LINE
  8
ボルト／ビス
  6
CONTINUOUS
 62
    64
 10
-75.849185
 20
-72.036435
 11
-76.169935
 21
-72.036435
  0
LINE
  8
ボルト／ビス
  6
CONTINUOUS
 62
    64
 10
-76.20201
 20
-72.04811
 11
-76.20201
 21
-72.169768
  0
LINE
  8
ボルト／ビス
  6
CONTINUOUS
 62
    64
 10
-76.105785
 20
-72.04811
 11
-76.105785
 21
-72.169768
  0
LINE
  8
ボルト／ビス
  6
CONTINUOUS
 62
    64
 10
-75.81711
 20
-72.04811
 11
-75.81711
 21
-72.169768
  0
LINE
  8
ボルト／ビス
  6
CONTINUOUS
 62
    64
 10
-75.913335
 20
-72.04811
 11
-75.913335
 21
-72.169768
  0
LINE
  8
ボルト／ビス
  6
CONTINUOUS
 10
-75.81711
 20
-72.169768
 11
-76.20201
 21
-72.169768
  0
LINE
  8
ボルト／ビス
  6
CONTINUOUS
 10
-75.80956
 20
-72.169768
 11
-75.80956
 21
-72.236435
  0
LINE
  8
ボルト／ビス
  6
CONTINUOUS
 10
-75.80956
 20
-72.169768
 11
-76.20956
 21
-72.169768
  0
LINE
  8
ボルト／ビス
  6
CONTINUOUS
 10
-76.20956
 20
-72.169768
 11
-76.20956
 21
-72.236435
  0
ENDBLK
  0
BLOCK
  2
*GRP_0010
 70
    65
 10
0.0
 20
0.0
  0
LINE
  8
ボルト／ビス
  6
CONTINUOUS
 10
58.65711
 20
-72.33644
 11
58.65711
 21
-71.869772
  0
LINE
  8
ボルト／ビス
  6
CONTINUOUS
 10
59.023777
 20
-72.33644
 11
59.023777
 21
-72.269773
  0
LINE
  8
ボルト／ビス
  6
CONTINUOUS
 10
59.023777
 20
-72.269773
 11
58.290443
 21
-72.269773
  0
LINE
  8
ボルト／ビス
  6
CONTINUOUS
 10
58.290443
 20
-72.269773
 11
58.290443
 21
-72.33644
  0
LINE
  8
ボルト／ビス
  6
CONTINUOUS
 10
59.023777
 20
-72.33644
 11
58.290443
 21
-72.33644
  0
LINE
  8
ボルト／ビス
  6
CONTINUOUS
 10
58.95711
 20
-72.23644
 11
58.95711
 21
-72.269773
  0
LINE
  8
ボルト／ビス
  6
CONTINUOUS
 10
58.95711
 20
-72.23644
 11
58.35711
 21
-72.23644
  0
LINE
  8
ボルト／ビス
  6
CONTINUOUS
 10
58.35711
 20
-72.23644
 11
58.35711
 21
-72.269773
  0
LINE
  8
ボルト／ビス
  6
CONTINUOUS
 62
    64
 10
58.817485
 20
-72.03644
 11
58.84956
 21
-72.048115
  0
ARC
  8
ボルト／ビス
  6
CONTINUOUS
 62
    64
 10
58.801449
 20
-72.141421
 40
0.104978
 50
90.0
 51
117.278033
  0
ARC
  8
ボルト／ビス
  6
CONTINUOUS
 62
    64
 10
58.657111
 20
-72.438845
 40
0.402402
 50
76.165015
 51
103.834998
  0
LINE
  8
ボルト／ビス
  6
CONTINUOUS
 62
    64
 10
58.496735
 20
-72.03644
 11
58.46466
 21
-72.048115
  0
ARC
  8
ボルト／ビス
  6
CONTINUOUS
 62
    64
 10
58.512774
 20
-72.141421
 40
0.104978
 50
62.721967
 51
90.0
  0
LINE
  8
ボルト／ビス
  6
CONTINUOUS
 62
    64
 10
58.817485
 20
-72.03644
 11
58.496735
 21
-72.03644
  0
LINE
  8
ボルト／ビス
  6
CONTINUOUS
 62
    64
 10
58.46466
 20
-72.048115
 11
58.46466
 21
-72.169772
  0
LINE
  8
ボルト／ビス
  6
CONTINUOUS
 62
    64
 10
58.560885
 20
-72.048115
 11
58.560885
 21
-72.169772
  0
LINE
  8
ボルト／ビス
  6
CONTINUOUS
 62
    64
 10
58.84956
 20
-72.048115
 11
58.84956
 21
-72.169772
  0
LINE
  8
ボルト／ビス
  6
CONTINUOUS
 62
    64
 10
58.753335
 20
-72.048115
 11
58.753335
 21
-72.169772
  0
LINE
  8
ボルト／ビス
  6
CONTINUOUS
 10
58.84956
 20
-72.169772
 11
58.46466
 21
-72.169772
  0
LINE
  8
ボルト／ビス
  6
CONTINUOUS
 10
58.85711
 20
-72.169772
 11
58.85711
 21
-72.23644
  0
LINE
  8
ボルト／ビス
  6
CONTINUOUS
 10
58.85711
 20
-72.169772
 11
58.45711
 21
-72.169772
  0
LINE
  8
ボルト／ビス
  6
CONTINUOUS
 10
58.45711
 20
-72.169772
 11
58.45711
 21
-72.23644
  0
ENDBLK
  0
BLOCK
  2
*DIM_0011
 70
    65
 10
0.0
 20
0.0
  0
LINE
  8
寸法
  6
CONTINUOUS
 10
65.490452
 20
-80.836442
 11
73.960088
 21
-80.836442
  0
LINE
  8
寸法
  6
CONTINUOUS
 10
73.960088
 20
-77.836442
 11
73.960088
 21
-80.836442
  0
POINT
  8
寸法
 10
73.960088
 20
-80.836442
  0
TEXT
  7
TextStyle03
  8
寸法
  6
CONTINUOUS
 10
73.55
 20
-80.85
  1
※
 40
3.0
 50
90.0
 72
     5
 11
73.55
 21
-77.85
  0
ENDBLK
  0
BLOCK
  2
*DIM_0012
 70
    65
 10
0.0
 20
0.0
  0
LINE
  8
寸法
  6
CONTINUOUS
 10
-81.842905
 20
-77.503113
 11
-81.842905
 21
-15.248207
  0
LINE
  8
寸法
  6
CONTINUOUS
 10
-75.342895
 20
-15.248207
 11
-81.842905
 21
-15.248207
  0
POINT
  8
寸法
 10
-75.342895
 20
-15.248207
  0
POINT
  8
寸法
 10
-81.842905
 20
-15.248207
  0
TEXT
  7
TextStyle03
  8
寸法
  6
CONTINUOUS
 10
-80.125
 20
-14.875
  1
※
 40
3.0
 72
     5
 11
-77.125
 21
-14.875
  0
ENDBLK
  0
BLOCK
  2
*DIM_0013
 70
    65
 10
0.0
 20
0.0
  0
LINE
  8
寸法
  6
CONTINUOUS
 10
64.490452
 20
-77.503113
 11
64.490452
 21
-15.248207
  0
LINE
  8
寸法
  6
CONTINUOUS
 10
57.990438
 20
-15.248207
 11
64.490452
 21
-15.248207
  0
POINT
  8
寸法
 10
57.990438
 20
-15.248207
  0
POINT
  8
寸法
 10
64.490452
 20
-15.248207
  0
TEXT
  7
TextStyle03
  8
寸法
  6
CONTINUOUS
 10
59.7
 20
-14.875
  1
※
 40
3.0
 72
     5
 11
62.7
 21
-14.875
  0
ENDBLK
  0
BLOCK
  2
*DIM_0014
 70
    65
 10
0.0
 20
0.0
  0
LINE
  8
寸法
  6
CONTINUOUS
 10
59.990452
 20
-77.836442
 11
73.960088
 21
-77.836442
  0
LINE
  8
寸法
  6
CONTINUOUS
 10
59.223788
 20
-71.893145
 11
73.960088
 21
-71.893145
  0
LINE
  8
寸法
  6
CONTINUOUS
 10
73.960088
 20
-77.836442
 11
73.960088
 21
-71.893145
  0
POINT
  8
寸法
 10
73.960088
 20
-77.836442
  0
POINT
  8
寸法
 10
73.960088
 20
-71.893145
  0
TEXT
  7
TextStyle03
  8
寸法
  6
CONTINUOUS
 10
78.55
 20
-79.05
  1
178.3
 40
3.0
 50
90.0
 72
     5
 11
78.55
 21
-70.8
  0
ENDBLK
  0
BLOCK
  2
*GRP_0015
 70
    65
 10
0.0
 20
0.0
  0
LINE
  8
型材断面
  6
DOT
 62
    47
 10
148.611578
 20
55.286867
 11
149.955107
 21
53.943338
  0
LINE
  8
型材断面
  6
DOT
 62
    47
 10
125.984138
 20
32.65943
 11
127.327667
 21
31.3159
  0
LINE
  8
型材断面
  6
DOT
 10
127.327667
 20
31.3159
 11
149.955107
 21
53.943338
  0
LINE
  8
型材断面
  6
DOT
 10
125.81926
 20
33.837885
 11
125.470363
 21
34.186782
  0
LINE
  8
型材断面
  6
DOT
 10
124.841102
 20
32.85973
 11
125.312508
 21
32.388325
  0
LINE
  8
型材断面
  6
DOT
 10
146.530343
 20
55.246762
 11
147.048898
 21
55.765317
  0
LINE
  8
型材断面
  6
DOT
 10
147.43315
 20
55.451775
 11
147.084252
 21
55.800672
  0
LINE
  8
型材断面
  6
DOT
 10
148.411307
 20
56.429932
 11
148.88271
 21
55.958527
  0
LINE
  8
型材断面
  6
DOT
 10
125.470363
 20
34.186782
 11
147.084252
 21
55.800672
  0
LINE
  8
型材断面
  6
DOT
 10
124.841102
 20
32.85973
 11
148.411307
 21
56.429932
  0
LINE
  8
型材断面
  6
DOT
 10
125.312508
 20
32.388325
 11
148.88271
 21
55.958527
  0
ENDBLK
  0
BLOCK
  2
*GRP_0016
 70
    65
 10
0.0
 20
0.0
  0
INSERT
  2
*GRP_0017
  8
補助線
  6
CONTINUOUS
 10
0.0
 20
0.0
  0
CIRCLE
  8
別途部材
  6
CONTINUOUS
 10
150.167238
 20
54.014048
 40
0.2
  0
CIRCLE
  8
別途部材
  6
CONTINUOUS
 10
150.167238
 20
54.014048
 40
0.1
  0
LINE
  8
別途部材
  6
CONTINUOUS
 10
148.767238
 20
53.914048
 11
148.767238
 21
53.814048
  0
LINE
  8
別途部材
  6
CONTINUOUS
 10
150.167238
 20
53.814048
 11
148.767238
 21
53.814048
  0
LINE
  8
別途部材
  6
CONTINUOUS
 10
148.767238
 20
53.914048
 11
149.994032
 21
53.914048
  0
LINE
  8
別途部材
  6
CONTINUOUS
 10
151.567238
 20
53.914048
 11
151.567238
 21
53.814048
  0
LINE
  8
別途部材
  6
CONTINUOUS
 10
150.167238
 20
53.814048
 11
151.567238
 21
53.814048
  0
LINE
  8
別途部材
  6
CONTINUOUS
 10
151.567238
 20
53.914048
 11
150.340443
 21
53.914048
  0
LINE
  8
別途部材
  6
CONTINUOUS
 10
149.033902
 20
53.914048
 11
149.033902
 21
53.814048
  0
LINE
  8
別途部材
  6
CONTINUOUS
 10
149.30057
 20
53.914048
 11
149.30057
 21
53.814048
  0
LINE
  8
別途部材
  6
CONTINUOUS
 10
149.567238
 20
53.914048
 11
149.567238
 21
53.814048
  0
LINE
  8
別途部材
  6
CONTINUOUS
 10
151.30057
 20
53.914048
 11
151.30057
 21
53.814048
  0
LINE
  8
別途部材
  6
CONTINUOUS
 10
151.033902
 20
53.914048
 11
151.033902
 21
53.814048
  0
LINE
  8
別途部材
  6
CONTINUOUS
 10
150.767238
 20
53.914048
 11
150.767238
 21
53.814048
  0
ENDBLK
  0
BLOCK
  2
*GRP_0017
 70
    65
 10
0.0
 20
0.0
  0
LINE
  8
補助線
  6
BYBLOCK
 62
     0
 10
150.167238
 20
53.84738
 11
150.167238
 21
54.180715
  0
LINE
  8
補助線
  6
BYBLOCK
 62
     0
 10
150.00057
 20
54.014048
 11
150.333902
 21
54.014048
  0
ENDBLK
  0
BLOCK
  2
*DIM_0018
 70
    65
 10
0.0
 20
0.0
  0
LINE
  8
寸法
  6
CONTINUOUS
 10
122.564662
 20
22.814033
 11
122.564662
 21
52.814033
  0
POINT
  8
寸法
 10
122.564662
 20
22.814033
  0
POINT
  8
寸法
 10
122.564662
 20
52.814033
  0
TEXT
  7
TextStyle03
  8
寸法
  6
CONTINUOUS
 10
122.175
 20
26.925
  1
呼称寸法　900
 40
3.0
 50
90.0
 72
     5
 11
122.175
 21
48.675
  0
ENDBLK
  0
BLOCK
  2
*DIM_0019
 70
    65
 10
0.0
 20
0.0
  0
LINE
  8
寸法
  6
CONTINUOUS
 10
152.333868
 20
16.314018
 11
122.564662
 21
16.314018
  0
LINE
  8
寸法
  6
CONTINUOUS
 10
122.564662
 20
22.814033
 11
122.564662
 21
16.314018
  0
POINT
  8
寸法
 10
122.564662
 20
22.814033
  0
POINT
  8
寸法
 10
122.564662
 20
16.314018
  0
TEXT
  7
TextStyle03
  8
寸法
  6
CONTINUOUS
 10
122.175
 20
18.05
  1
※
 40
3.0
 50
90.0
 72
     5
 11
122.175
 21
21.05
  0
ENDBLK
  0
BLOCK
  2
*DIM_0020
 70
    65
 10
0.0
 20
0.0
  0
LINE
  8
寸法
  6
CONTINUOUS
 10
152.333868
 20
59.314048
 11
122.564662
 21
59.314048
  0
LINE
  8
寸法
  6
CONTINUOUS
 10
122.564662
 20
52.814033
 11
122.564662
 21
59.314048
  0
POINT
  8
寸法
 10
122.564662
 20
52.814033
  0
POINT
  8
寸法
 10
122.564662
 20
59.314048
  0
TEXT
  7
TextStyle03
  8
寸法
  6
CONTINUOUS
 10
122.175
 20
54.55
  1
※
 40
3.0
 50
90.0
 72
     5
 11
122.175
 21
57.55
  0
ENDBLK
  0
BLOCK
  2
*DIM_0021
 70
    65
 10
0.0
 20
0.0
  0
LINE
  8
寸法
  6
CONTINUOUS
 10
152.6672
 20
54.814048
 11
152.6672
 21
67.741883
  0
LINE
  8
寸法
  6
CONTINUOUS
 10
146.723903
 20
54.047382
 11
146.723903
 21
67.741883
  0
LINE
  8
寸法
  6
CONTINUOUS
 10
152.6672
 20
67.741883
 11
146.723903
 21
67.741883
  0
POINT
  8
寸法
 10
152.6672
 20
67.741883
  0
POINT
  8
寸法
 10
146.723903
 20
67.741883
  0
TEXT
  7
TextStyle03
  8
寸法
  6
CONTINUOUS
 10
138.225
 20
64.975
  1
178.3
 40
3.0
 72
     5
 11
146.475
 21
64.975
  0
ENDBLK
  0
BLOCK
  2
*DIM_0022
 70
    65
 10
0.0
 20
0.0
  0
LINE
  8
寸法
  6
CONTINUOUS
 10
155.6672
 20
60.314048
 11
155.6672
 21
67.741883
  0
LINE
  8
寸法
  6
CONTINUOUS
 10
152.6672
 20
67.741883
 11
155.6672
 21
67.741883
  0
POINT
  8
寸法
 10
155.6672
 20
67.741883
  0
TEXT
  7
TextStyle03
  8
寸法
  6
CONTINUOUS
 10
152.65
 20
68.1
  1
※
 40
3.0
 72
     5
 11
155.65
 21
68.1
  0
ENDBLK
  0
BLOCK
  2
*DIM_0023
 70
    65
 10
0.0
 20
0.0
  0
LINE
  8
寸法
  6
BYBLOCK
 62
     0
 10
-67.009562
 20
61.69583
 11
-67.009562
 21
90.803903
  0
LINE
  8
寸法
  6
BYBLOCK
 62
     0
 10
-43.67623
 20
61.69583
 11
-43.67623
 21
90.803903
  0
LINE
  8
寸法
  6
BYBLOCK
 62
     0
 10
-67.009562
 20
90.803903
 11
-43.67623
 21
90.803903
  0
POINT
  8
寸法
 62
     0
 10
-67.009562
 20
90.803903
  0
POINT
  8
寸法
 62
     0
 10
-43.67623
 20
90.803903
  0
TEXT
  7
TextStyle03
  8
寸法
  6
CONTINUOUS
 62
     0
 10
-57.7875
 20
91.15
  1
700
 40
3.0
 72
     5
 11
-52.9125
 21
91.15
  0
ENDBLK
  0
BLOCK
  2
*DIM_0024
 70
    65
 10
0.0
 20
0.0
  0
LINE
  8
寸法
  6
BYBLOCK
 62
     0
 10
-20.342897
 20
61.69583
 11
-20.342897
 21
90.803903
  0
LINE
  8
寸法
  6
BYBLOCK
 62
     0
 10
-43.67623
 20
90.803903
 11
-20.342897
 21
90.803903
  0
POINT
  8
寸法
 62
     0
 10
-20.342897
 20
90.803903
  0
TEXT
  7
TextStyle03
  8
寸法
  6
CONTINUOUS
 62
     0
 10
-34.4625
 20
91.15
  1
700
 40
3.0
 72
     5
 11
-29.5875
 21
91.15
  0
ENDBLK
  0
BLOCK
  2
*DIM_0025
 70
    65
 10
0.0
 20
0.0
  0
LINE
  8
寸法
  6
BYBLOCK
 62
     0
 10
2.990438
 20
61.69583
 11
2.990438
 21
90.803903
  0
LINE
  8
寸法
  6
BYBLOCK
 62
     0
 10
-20.342897
 20
90.803903
 11
2.990438
 21
90.803903
  0
POINT
  8
寸法
 62
     0
 10
2.990438
 20
90.803903
  0
TEXT
  7
TextStyle03
  8
寸法
  6
CONTINUOUS
 62
     0
 10
-11.1375
 20
91.15
  1
700
 40
3.0
 72
     5
 11
-6.2625
 21
91.15
  0
ENDBLK
  0
BLOCK
  2
*DIM_0026
 70
    65
 10
0.0
 20
0.0
  0
LINE
  8
寸法
  6
BYBLOCK
 62
     0
 10
26.32377
 20
61.69583
 11
26.32377
 21
90.803903
  0
LINE
  8
寸法
  6
BYBLOCK
 62
     0
 10
2.990438
 20
90.803903
 11
26.32377
 21
90.803903
  0
POINT
  8
寸法
 62
     0
 10
26.32377
 20
90.803903
  0
TEXT
  7
TextStyle03
  8
寸法
  6
CONTINUOUS
 62
     0
 10
12.2125
 20
91.15
  1
700
 40
3.0
 72
     5
 11
17.0875
 21
91.15
  0
ENDBLK
  0
BLOCK
  2
*DIM_0027
 70
    65
 10
0.0
 20
0.0
  0
LINE
  8
寸法
  6
BYBLOCK
 62
     0
 10
49.657102
 20
61.69583
 11
49.657102
 21
90.803903
  0
LINE
  8
寸法
  6
BYBLOCK
 62
     0
 10
26.32377
 20
90.803903
 11
49.657102
 21
90.803903
  0
POINT
  8
寸法
 62
     0
 10
49.657102
 20
90.803903
  0
TEXT
  7
TextStyle03
  8
寸法
  6
CONTINUOUS
 62
     0
 10
35.5375
 20
91.15
  1
700
 40
3.0
 72
     5
 11
40.4125
 21
91.15
  0
ENDBLK
  0
ENDSEC
  0
SECTION
  2
ENTITIES
  0
POLYLINE
  8
通り芯
  6
CONTINUOUS
 66
     1
 70
     1
  0
VERTEX
  8
通り芯
 10
-210.0
 20
-148.5
  0
VERTEX
  8
通り芯
 10
210.0
 20
-148.5
  0
VERTEX
  8
通り芯
 10
210.0
 20
148.5
  0
VERTEX
  8
通り芯
 10
-210.0
 20
148.5
  0
SEQEND
  0
INSERT
  2
*GRP_0001
  8
型材断面
  6
CONTINUOUS
 10
0.0
 20
0.0
  0
LINE
  8
型材断面
  6
DASHDOT
 10
57.990438
 20
-77.836442
 11
57.990438
 21
52.814033
  0
LINE
  8
型材断面
  6
DASHDOT
 10
-8.67623
 20
-77.836442
 11
-8.67623
 21
52.814033
  0
LINE
  8
型材断面
  6
DASHDOT
 10
-75.342895
 20
-77.836442
 11
-75.342895
 21
52.814033
  0
LINE
  8
型材断面
  6
DASHDOT
 10
155.6672
 20
52.814033
 11
-75.342895
 21
52.814033
  0
LINE
  8
型材断面
  6
DASHDOT
 10
155.6672
 20
37.814033
 11
-75.342895
 21
37.814033
  0
LINE
  8
型材断面
  6
DASHDOT
 10
155.6672
 20
22.814033
 11
-75.342895
 21
22.814033
  0
LINE
  8
型材断面
  6
CONTINUOUS
 10
-58.676228
 20
55.444162
 11
-60.171857
 21
58.03467
  0
LINE
  8
型材断面
  6
CONTINUOUS
 10
-58.676228
 20
55.444162
 11
-57.180598
 21
58.03467
  0
LINE
  8
型材断面
  6
CONTINUOUS
 10
-57.180598
 20
58.03467
 11
-60.171857
 21
58.03467
  0
LINE
  8
型材断面
  6
CONTINUOUS
 10
-77.973025
 20
37.814033
 11
-80.563533
 21
39.309663
  0
LINE
  8
型材断面
  6
CONTINUOUS
 10
-77.973025
 20
37.814033
 11
-80.563533
 21
36.318403
  0
LINE
  8
型材断面
  6
CONTINUOUS
 10
-80.563533
 20
36.318403
 11
-80.563533
 21
39.309663
  0
LINE
  8
型材断面
  6
CONTINUOUS
 10
-58.676228
 20
20.183902
 11
-60.171857
 21
17.593395
  0
LINE
  8
型材断面
  6
CONTINUOUS
 10
-58.676228
 20
20.183902
 11
-57.180598
 21
17.593395
  0
LINE
  8
型材断面
  6
CONTINUOUS
 10
-57.180598
 20
17.593395
 11
-60.171857
 21
17.593395
  0
LINE
  8
型材断面
  6
CONTINUOUS
 10
41.323768
 20
55.444162
 11
42.819398
 21
58.03467
  0
LINE
  8
型材断面
  6
CONTINUOUS
 10
41.323768
 20
55.444162
 11
39.828138
 21
58.03467
  0
LINE
  8
型材断面
  6
CONTINUOUS
 10
39.828138
 20
58.03467
 11
42.819398
 21
58.03467
  0
LINE
  8
型材断面
  6
CONTINUOUS
 10
41.323768
 20
20.183902
 11
42.819398
 21
17.593395
  0
LINE
  8
型材断面
  6
CONTINUOUS
 10
41.323768
 20
20.183902
 11
39.828138
 21
17.593395
  0
LINE
  8
型材断面
  6
CONTINUOUS
 10
39.828138
 20
17.593395
 11
42.819398
 21
17.593395
  0
LINE
  8
型材断面
  6
CONTINUOUS
 10
-129.221418
 20
90.791505
 11
-128.625363
 21
88.200998
  0
LINE
  8
型材断面
  6
CONTINUOUS
 10
-129.221418
 20
90.791505
 11
-129.817475
 21
88.200998
  0
LINE
  8
型材断面
  6
CONTINUOUS
 10
-129.817475
 20
88.200998
 11
-128.625363
 21
88.200998
  0
LINE
  8
型材断面
  6
CONTINUOUS
 10
-135.244005
 20
84.922105
 11
-89.002228
 21
84.922105
  0
LINE
  8
型材断面
  6
CONTINUOUS
 10
-129.221418
 20
97.32138
 11
-130.717047
 21
94.730873
  0
LINE
  8
型材断面
  6
CONTINUOUS
 10
-129.221418
 20
97.32138
 11
-127.725788
 21
94.730873
  0
LINE
  8
型材断面
  6
CONTINUOUS
 10
-127.725788
 20
94.730873
 11
-130.717047
 21
94.730873
  0
LINE
  8
型材断面
  6
CONTINUOUS
 10
-135.244005
 20
93.792277
 11
-89.002228
 21
93.792277
  0
LINE
  8
型材断面
  6
CONTINUOUS
 10
-135.244005
 20
79.134073
 11
-89.002228
 21
79.134073
  0
LINE
  8
型材断面
  6
CONTINUOUS
 10
60.620565
 20
37.814033
 11
63.211073
 21
39.309663
  0
LINE
  8
型材断面
  6
CONTINUOUS
 10
60.620565
 20
37.814033
 11
63.211073
 21
36.318403
  0
LINE
  8
型材断面
  6
CONTINUOUS
 10
63.211073
 20
36.318403
 11
63.211073
 21
39.309663
  0
LINE
  8
型材断面
  6
CONTINUOUS
 10
55.990438
 20
20.20722
 11
55.39438
 21
17.616715
  0
LINE
  8
型材断面
  6
CONTINUOUS
 10
55.990438
 20
20.20722
 11
56.586495
 21
17.616715
  0
LINE
  8
型材断面
  6
CONTINUOUS
 10
56.586495
 20
17.616715
 11
55.39438
 21
17.616715
  0
LINE
  8
型材断面
  6
CONTINUOUS
 10
-73.342897
 20
20.20722
 11
-72.74684
 21
17.616715
  0
LINE
  8
型材断面
  6
CONTINUOUS
 10
-73.342897
 20
20.20722
 11
-73.938955
 21
17.616715
  0
LINE
  8
型材断面
  6
CONTINUOUS
 10
-73.938955
 20
17.616715
 11
-72.74684
 21
17.616715
  0
LINE
  8
型材断面
  6
CONTINUOUS
 10
-81.84291
 20
16.314018
 11
-77.409565
 21
20.747363
  0
LINE
  8
型材断面
  6
CONTINUOUS
 10
60.057102
 20
20.747363
 11
64.490447
 21
16.314018
  0
LINE
  8
型材断面
  6
CONTINUOUS
 10
64.490447
 20
16.314018
 11
-81.84291
 21
16.314018
  0
LINE
  8
型材断面
  6
CONTINUOUS
 10
-77.409565
 20
54.880703
 11
-81.84291
 21
59.314048
  0
LINE
  8
型材断面
  6
CONTINUOUS
 10
-81.84291
 20
16.314018
 11
-81.84291
 21
59.314048
  0
LINE
  8
型材断面
  6
CONTINUOUS
 10
60.057102
 20
54.880703
 11
64.490447
 21
59.314048
  0
LINE
  8
型材断面
  6
CONTINUOUS
 10
64.490447
 20
59.314048
 11
64.490447
 21
16.314018
  0
LINE
  8
型材断面
  6
CONTINUOUS
 10
64.490447
 20
59.314048
 11
-81.84291
 21
59.314048
  0
POLYLINE
  8
型材断面
  6
DASHDOT
 66
     1
  0
VERTEX
  8
型材断面
 10
-75.342895
 20
22.814033
  0
VERTEX
  8
型材断面
 10
-8.67623
 20
52.814033
  0
VERTEX
  8
型材断面
 10
57.990432
 20
22.814033
  0
SEQEND
  0
LINE
  8
型材断面
  6
DASHDOT
 10
-8.67623
 20
52.814033
 11
-8.67623
 21
22.814033
  0
LINE
  8
型材断面
  6
DASHDOT
 10
-42.384562
 20
52.814033
 11
-42.384562
 21
22.814033
  0
LINE
  8
型材断面
  6
DASHDOT
 10
25.032102
 20
52.814033
 11
25.032102
 21
22.814033
  0
LINE
  8
型材断面
  6
DASHDOT
 10
-8.67623
 20
52.814033
 11
-8.67623
 21
22.814033
  0
LINE
  8
型材断面
  6
CONTINUOUS
 10
-77.009548
 20
54.480682
 11
-74.842878
 21
52.314015
  0
LINE
  8
型材断面
  6
CONTINUOUS
 10
-77.009548
 20
21.147382
 11
-74.842878
 21
23.31405
  0
LINE
  8
型材断面
  6
CONTINUOUS
 10
-74.842878
 20
23.31405
 11
-74.842878
 21
52.314015
  0
LINE
  8
型材断面
  6
CONTINUOUS
 10
-75.626225
 20
22.530705
 11
-75.626225
 21
53.09736
  0
LINE
  8
型材断面
  6
CONTINUOUS
 10
-77.009548
 20
21.147382
 11
-77.009548
 21
54.480682
  0
LINE
  8
型材断面
  6
CONTINUOUS
 10
57.490417
 20
52.314015
 11
59.657087
 21
54.480682
  0
LINE
  8
型材断面
  6
CONTINUOUS
 10
57.490417
 20
23.31405
 11
59.657087
 21
21.147382
  0
LINE
  8
型材断面
  6
CONTINUOUS
 10
57.490417
 20
23.31405
 11
57.490417
 21
52.314015
  0
LINE
  8
型材断面
  6
CONTINUOUS
 10
58.273765
 20
22.530705
 11
58.273765
 21
53.09736
  0
LINE
  8
型材断面
  6
CONTINUOUS
 10
59.657087
 20
21.147382
 11
59.657087
 21
54.480682
  0
LINE
  8
型材断面
  6
CONTINUOUS
 10
57.490417
 20
52.314015
 11
-74.842878
 21
52.314015
  0
LINE
  8
型材断面
  6
CONTINUOUS
 10
58.273765
 20
53.09736
 11
-75.626225
 21
53.09736
  0
LINE
  8
型材断面
  6
CONTINUOUS
 10
59.657087
 20
54.480682
 11
-77.009548
 21
54.480682
  0
LINE
  8
型材断面
  6
CONTINUOUS
 10
-74.842878
 20
23.31405
 11
57.490417
 21
23.31405
  0
LINE
  8
型材断面
  6
CONTINUOUS
 10
-75.626225
 20
22.530705
 11
58.273765
 21
22.530705
  0
LINE
  8
型材断面
  6
CONTINUOUS
 10
-77.009548
 20
21.147382
 11
59.657087
 21
21.147382
  0
LINE
  8
型材断面
  6
CONTINUOUS
 62
    47
 10
-76.342905
 20
-73.336442
 11
-76.342905
 21
-75.236482
  0
LINE
  8
型材断面
  6
CONTINUOUS
 10
-76.342905
 20
-75.436482
 11
-76.342905
 21
-77.836442
  0
LINE
  8
型材断面
  6
CONTINUOUS
 10
-76.342905
 20
-77.836442
 11
-81.842905
 21
-78.503113
  0
LINE
  8
型材断面
  6
CONTINUOUS
 10
-81.842905
 20
-80.836442
 11
-81.842905
 21
-78.503113
  0
LINE
  8
型材断面
  6
CONTINUOUS
 62
    47
 10
58.990452
 20
-73.336442
 11
58.990452
 21
-75.236482
  0
LINE
  8
型材断面
  6
CONTINUOUS
 10
58.990452
 20
-75.436482
 11
58.990452
 21
-77.836442
  0
LINE
  8
型材断面
  6
CONTINUOUS
 10
58.990452
 20
-77.836442
 11
64.490452
 21
-78.503113
  0
LINE
  8
型材断面
  6
CONTINUOUS
 10
64.490452
 20
-80.836442
 11
64.490452
 21
-78.503113
  0
LINE
  8
型材断面
  6
CONTINUOUS
 10
-81.842905
 20
-80.836442
 11
64.490452
 21
-80.836442
  0
LINE
  8
型材断面
  6
CONTINUOUS
 10
-81.842905
 20
-78.503113
 11
64.490452
 21
-78.503113
  0
LINE
  8
型材断面
  6
CONTINUOUS
 10
58.990452
 20
-75.236482
 11
-76.342905
 21
-75.236482
  0
LINE
  8
型材断面
  6
CONTINUOUS
 10
58.990452
 20
-75.436482
 11
-76.342905
 21
-75.436482
  0
LINE
  8
型材断面
  6
CONTINUOUS
 10
58.990452
 20
-77.836442
 11
-76.342905
 21
-77.836442
  0
LINE
  8
型材断面
  6
CONTINUOUS
 10
-8.67623
 20
-77.836442
 11
-8.676225
 21
-80.836442
  0
LINE
  8
型材断面
  6
CONTINUOUS
 10
-75.626203
 20
-72.38656
 11
-75.626203
 21
-71.893145
  0
LINE
  8
型材断面
  6
CONTINUOUS
 10
-77.009525
 20
-72.38656
 11
-77.009525
 21
-73.053227
  0
LINE
  8
型材断面
  6
CONTINUOUS
 10
57.49044
 20
-71.893145
 11
58.223788
 21
-71.893145
  0
LINE
  8
型材断面
  6
CONTINUOUS
 10
58.273788
 20
-72.38656
 11
58.273788
 21
-71.893145
  0
LINE
  8
型材断面
  6
CONTINUOUS
 10
59.65711
 20
-72.38656
 11
59.65711
 21
-73.053227
  0
LINE
  8
型材断面
  6
CONTINUOUS
 10
-75.626203
 20
-71.893145
 11
58.273788
 21
-71.893145
  0
LINE
  8
型材断面
  6
CONTINUOUS
 10
-77.009525
 20
-72.38656
 11
59.65711
 21
-72.38656
  0
LINE
  8
型材断面
  6
CONTINUOUS
 10
-77.009525
 20
-73.053227
 11
59.65711
 21
-73.053227
  0
LINE
  8
型材断面
  6
CONTINUOUS
 62
    47
 10
148.1672
 20
53.814048
 11
150.067238
 21
53.814048
  0
LINE
  8
型材断面
  6
CONTINUOUS
 10
150.267238
 20
53.814048
 11
152.6672
 21
53.814048
  0
LINE
  8
型材断面
  6
CONTINUOUS
 10
152.6672
 20
53.814048
 11
153.333868
 21
59.314048
  0
LINE
  8
型材断面
  6
CONTINUOUS
 10
155.6672
 20
59.314048
 11
153.333868
 21
59.314048
  0
LINE
  8
型材断面
  6
CONTINUOUS
 62
    47
 10
148.1672
 20
21.814018
 11
150.067238
 21
21.814018
  0
LINE
  8
型材断面
  6
CONTINUOUS
 10
150.267238
 20
21.814018
 11
152.6672
 21
21.814018
  0
LINE
  8
型材断面
  6
CONTINUOUS
 10
152.6672
 20
21.814018
 11
153.333868
 21
16.314018
  0
LINE
  8
型材断面
  6
CONTINUOUS
 10
155.6672
 20
16.314018
 11
153.333868
 21
16.314018
  0
LINE
  8
型材断面
  6
CONTINUOUS
 10
155.6672
 20
59.314048
 11
155.6672
 21
16.314018
  0
LINE
  8
型材断面
  6
CONTINUOUS
 10
153.333868
 20
59.314048
 11
153.333868
 21
16.314018
  0
LINE
  8
型材断面
  6
CONTINUOUS
 10
150.067238
 20
21.814018
 11
150.067238
 21
53.814048
  0
LINE
  8
型材断面
  6
CONTINUOUS
 10
150.267238
 20
21.814018
 11
150.267238
 21
53.814048
  0
LINE
  8
型材断面
  6
CONTINUOUS
 10
152.6672
 20
21.814018
 11
152.6672
 21
53.814048
  0
ARC
  8
型材断面
  6
DASHDOT
 10
150.167238
 20
54.014048
 40
33.003318
 50
219.78455
 51
264.78455
  0
LINE
  8
型材断面
  6
CONTINUOUS
 10
147.217317
 20
22.530725
 11
146.723903
 21
22.530725
  0
LINE
  8
型材断面
  6
CONTINUOUS
 10
147.217317
 20
21.147405
 11
147.883985
 21
21.147405
  0
LINE
  8
型材断面
  6
CONTINUOUS
 10
146.723903
 20
52.314035
 11
146.723903
 21
53.047382
  0
LINE
  8
型材断面
  6
CONTINUOUS
 10
147.217317
 20
53.097382
 11
146.723903
 21
53.097382
  0
LINE
  8
型材断面
  6
CONTINUOUS
 10
147.217317
 20
54.480705
 11
147.883985
 21
54.480705
  0
LINE
  8
型材断面
  6
CONTINUOUS
 10
146.723903
 20
22.530725
 11
146.723903
 21
53.097382
  0
LINE
  8
型材断面
  6
CONTINUOUS
 10
147.217317
 20
21.147405
 11
147.217317
 21
54.480705
  0
LINE
  8
型材断面
  6
CONTINUOUS
 10
147.883985
 20
21.147405
 11
147.883985
 21
54.480705
  0
INSERT
  2
*GRP_0015
  8
型材断面
  6
DASHDOT
 10
0.0
 20
0.0
  0
LINE
  8
型材断面
  6
CONTINUOUS
 10
-43.55123
 20
24.147382
 11
-41.217895
 21
24.147382
  0
LINE
  8
型材断面
  6
CONTINUOUS
 10
-43.55123
 20
24.147382
 11
-43.55123
 21
51.480682
  0
LINE
  8
型材断面
  6
CONTINUOUS
 10
-43.55123
 20
51.480682
 11
-41.217895
 21
51.480682
  0
LINE
  8
型材断面
  6
CONTINUOUS
 10
-41.217895
 20
24.147382
 11
-41.217895
 21
51.480682
  0
LINE
  8
型材断面
  6
CONTINUOUS
 10
-42.05123
 20
24.147382
 11
-42.05123
 21
51.480682
  0
LINE
  8
型材断面
  6
CONTINUOUS
 10
-42.717895
 20
24.147382
 11
-42.717895
 21
51.480682
  0
LINE
  8
型材断面
  6
CONTINUOUS
 10
-9.842897
 20
24.147382
 11
-7.509562
 21
24.147382
  0
LINE
  8
型材断面
  6
CONTINUOUS
 10
-9.842897
 20
24.147382
 11
-9.842897
 21
51.480682
  0
LINE
  8
型材断面
  6
CONTINUOUS
 10
-9.842897
 20
51.480682
 11
-7.509562
 21
51.480682
  0
LINE
  8
型材断面
  6
CONTINUOUS
 10
-7.509562
 20
24.147382
 11
-7.509562
 21
51.480682
  0
LINE
  8
型材断面
  6
CONTINUOUS
 10
-8.342897
 20
24.147382
 11
-8.342897
 21
51.480682
  0
LINE
  8
型材断面
  6
CONTINUOUS
 10
-9.009562
 20
24.147382
 11
-9.009562
 21
51.480682
  0
LINE
  8
型材断面
  6
CONTINUOUS
 10
23.865435
 20
24.147382
 11
26.19877
 21
24.147382
  0
LINE
  8
型材断面
  6
CONTINUOUS
 10
23.865435
 20
24.147382
 11
23.865435
 21
51.480682
  0
LINE
  8
型材断面
  6
CONTINUOUS
 10
23.865435
 20
51.480682
 11
26.19877
 21
51.480682
  0
LINE
  8
型材断面
  6
CONTINUOUS
 10
26.19877
 20
24.147382
 11
26.19877
 21
51.480682
  0
LINE
  8
型材断面
  6
CONTINUOUS
 10
25.365435
 20
24.147382
 11
25.365435
 21
51.480682
  0
LINE
  8
型材断面
  6
CONTINUOUS
 10
24.69877
 20
24.147382
 11
24.69877
 21
51.480682
  0
LINE
  8
型材断面
  6
CONTINUOUS
 10
-8.676232
 20
59.314048
 11
-8.676232
 21
54.480682
  0
LINE
  8
型材断面
  6
CONTINUOUS
 10
-8.676232
 20
16.314018
 11
-8.676232
 21
21.147382
  0
LINE
  8
ガラス
  6
CONTINUOUS
 10
138.035135
 20
-39.739412
 11
105.825135
 21
-39.739412
  0
LINE
  8
ガラス
  6
CONTINUOUS
 10
138.035135
 20
-39.739412
 11
138.035135
 21
-69.739412
  0
LINE
  8
ガラス
  6
CONTINUOUS
 10
105.825135
 20
-39.739412
 11
105.825135
 21
-69.739412
  0
LINE
  8
ガラス
  6
CONTINUOUS
 10
138.035135
 20
-69.739412
 11
105.825135
 21
-69.739412
  0
LINE
  8
ガラス
  6
CONTINUOUS
 10
-56.369038
 20
40.444993
 11
-61.630968
 21
35.183065
  0
LINE
  8
ガラス
  6
CONTINUOUS
 10
-57.681387
 20
36.495413
 11
-60.318617
 21
39.132655
  0
LINE
  8
ガラス
  6
CONTINUOUS
 10
-59.387478
 20
36.556313
 11
-57.354445
 21
38.589345
  0
LINE
  8
ガラス
  6
CONTINUOUS
 10
-58.612535
 20
39.071753
 11
-60.645557
 21
37.038723
  0
LINE
  8
ガラス
  6
CONTINUOUS
 10
-22.994038
 20
40.444993
 11
-28.255968
 21
35.183065
  0
LINE
  8
ガラス
  6
CONTINUOUS
 10
-24.306387
 20
36.495413
 11
-26.943617
 21
39.132655
  0
LINE
  8
ガラス
  6
CONTINUOUS
 10
-26.012478
 20
36.556313
 11
-23.979445
 21
38.589345
  0
LINE
  8
ガラス
  6
CONTINUOUS
 10
-25.237535
 20
39.071753
 11
-27.270557
 21
37.038723
  0
LINE
  8
ガラス
  6
CONTINUOUS
 10
9.005962
 20
40.444993
 11
3.744032
 21
35.183065
  0
LINE
  8
ガラス
  6
CONTINUOUS
 10
7.693613
 20
36.495413
 11
5.056382
 21
39.132655
  0
LINE
  8
ガラス
  6
CONTINUOUS
 10
5.987522
 20
36.556313
 11
8.020555
 21
38.589345
  0
LINE
  8
ガラス
  6
CONTINUOUS
 10
6.762465
 20
39.071753
 11
4.729443
 21
37.038723
  0
LINE
  8
ガラス
  6
CONTINUOUS
 10
45.505962
 20
40.444993
 11
40.244032
 21
35.183065
  0
LINE
  8
ガラス
  6
CONTINUOUS
 10
44.193613
 20
36.495413
 11
41.556382
 21
39.132655
  0
LINE
  8
ガラス
  6
CONTINUOUS
 10
42.487522
 20
36.556313
 11
44.520555
 21
38.589345
  0
LINE
  8
ガラス
  6
CONTINUOUS
 10
43.262465
 20
39.071753
 11
41.229443
 21
37.038723
  0
TEXT
  7
TextStyle03
  8
文字
  6
CONTINUOUS
 10
78.1
 20
125.25
  1
シリーズ：ＳＴＦＦＨＬ
 40
5.0
 72
     5
 11
139.35
 21
125.25
  0
TEXT
  7
TextStyle03
  8
文字
  6
CONTINUOUS
 10
78.1
 20
119.625
  1
　　　　　（片側開閉）900×4000タイプ
 40
5.0
 72
     5
 11
181.5375
 21
119.625
  0
TEXT
  7
TextStyle03
  8
文字
  6
CONTINUOUS
 10
78.1
 20
114.0
  1
図面名　：外観姿図
 40
5.0
 72
     5
 11
128.1
 21
114.0
  0
TEXT
  7
TextStyle03
  8
文字
  6
CONTINUOUS
 10
78.1
 20
108.375
  1
　　　　　　
 40
5.0
 72
     5
 11
111.225
 21
108.375
  0
TEXT
  7
TextStyle03
  8
文字
  6
CONTINUOUS
 10
-126.45
 20
94.925
  1
は排水穴位置を示す
 40
3.0
 72
     5
 11
-96.45
 21
94.925
  0
TEXT
  7
TextStyle03
  8
文字
  6
CONTINUOUS
 10
-126.45
 20
89.4
  1
はケーシング位置を示す
 40
3.0
 72
     5
 11
-89.7
 21
89.4
  0
TEXT
  7
TextStyle03
  8
文字
  6
CONTINUOUS
 10
-126.45
 20
86.025
  1
２ヶ所中1ヶ所に設定
 40
3.0
 72
     5
 11
-94.7625
 21
86.025
  0
TEXT
  7
TextStyle03
  8
文字
  6
CONTINUOUS
 10
-96.3
 20
16.275
  1
アンカーピッチ
 40
3.0
 50
90.0
 72
     5
 11
-96.3
 21
39.525
  0
TEXT
  7
TextStyle03
  8
文字
  6
CONTINUOUS
 10
-130.175
 20
80.05
  1
アンカー数量　１６ヶ所
 40
3.0
 72
     5
 11
-93.425
 21
80.05
  0
TEXT
  7
TextStyle03
  8
文字
  6
CONTINUOUS
 10
61.35
 20
-88.975
  1
※は物件対応寸法
 40
3.0
 72
     5
 11
87.975
 21
-88.975
  0
TEXT
  7
TextStyle03
  8
文字
  6
CONTINUOUS
 10
119.2
 20
-62.75
  1
網入り6.8t
 40
3.0
 72
     5
 11
135.8875
 21
-62.75
  0
TEXT
  7
TextStyle03
  8
文字
  6
CONTINUOUS
 10
125.875
 20
-67.425
  1
×４枚
 40
3.0
 72
     5
 11
135.625
 21
-67.425
  0
TEXT
  7
TextStyle03
  8
文字
  6
CONTINUOUS
 10
136.025
 20
16.35
  1
45°
 40
3.0
 50
90.0
 72
     5
 11
136.025
 21
22.725
  0
TEXT
  7
TextStyle03
  8
文字
  6
CONTINUOUS
 10
-67.25
 20
96.7
  1
アンカーピッチ
 40
3.0
 72
     5
 11
-44.0
 21
96.7
  0
INSERT
  2
*DIM_0002
  8
寸法
  6
CONTINUOUS
 10
0.0
 20
0.0
  0
INSERT
  2
*DIM_0003
  8
寸法
  6
CONTINUOUS
 10
0.0
 20
0.0
  0
INSERT
  2
*DIM_0004
  8
寸法
  6
CONTINUOUS
 10
0.0
 20
0.0
  0
INSERT
  2
*DIM_0005
  8
寸法
  6
CONTINUOUS
 10
0.0
 20
0.0
  0
INSERT
  2
*DIM_0006
  8
寸法
  6
CONTINUOUS
 10
0.0
 20
0.0
  0
INSERT
  2
*DIM_0007
  8
寸法
  6
CONTINUOUS
 10
0.0
 20
0.0
  0
INSERT
  2
*DIM_0008
  8
寸法
  6
CONTINUOUS
 10
0.0
 20
0.0
  0
INSERT
  2
*DIM_0011
  8
寸法
  6
CONTINUOUS
 10
0.0
 20
0.0
  0
INSERT
  2
*DIM_0012
  8
寸法
  6
CONTINUOUS
 10
0.0
 20
0.0
  0
INSERT
  2
*DIM_0013
  8
寸法
  6
CONTINUOUS
 10
0.0
 20
0.0
  0
INSERT
  2
*DIM_0014
  8
寸法
  6
CONTINUOUS
 10
0.0
 20
0.0
  0
INSERT
  2
*DIM_0018
  8
寸法
  6
CONTINUOUS
 10
0.0
 20
0.0
  0
INSERT
  2
*DIM_0019
  8
寸法
  6
CONTINUOUS
 10
0.0
 20
0.0
  0
INSERT
  2
*DIM_0020
  8
寸法
  6
CONTINUOUS
 10
0.0
 20
0.0
  0
INSERT
  2
*DIM_0021
  8
寸法
  6
CONTINUOUS
 10
0.0
 20
0.0
  0
INSERT
  2
*DIM_0022
  8
寸法
  6
CONTINUOUS
 10
0.0
 20
0.0
  0
INSERT
  2
*DIM_0023
  8
寸法
  6
CONTINUOUS
 10
0.0
 20
0.0
  0
INSERT
  2
*DIM_0024
  8
寸法
  6
CONTINUOUS
 10
0.0
 20
0.0
  0
INSERT
  2
*DIM_0025
  8
寸法
  6
CONTINUOUS
 10
0.0
 20
0.0
  0
INSERT
  2
*DIM_0026
  8
寸法
  6
CONTINUOUS
 10
0.0
 20
0.0
  0
INSERT
  2
*DIM_0027
  8
寸法
  6
CONTINUOUS
 10
0.0
 20
0.0
  0
INSERT
  2
*GRP_0009
  8
別途部材
  6
DOT
 10
0.0
 20
0.0
  0
INSERT
  2
*GRP_0010
  8
別途部材
  6
DOT
 10
0.0
 20
0.0
  0
INSERT
  2
*GRP_0016
  8
別途部材
  6
CONTINUOUS
 10
0.0
 20
0.0
  0
ENDSEC
  0
EOF
