  0
SECTION
  2
HEADER
  9
$EXTMIN
 10
-210.0
 20
-148.5
  9
$EXTMAX
 10
210.0
 20
148.5
  9
$PDMODE
 70
    32
  9
$PDSIZE
 40
1.5
  9
$LTSCALE
 40
10.0
  0
ENDSEC
  0
SECTION
  2
TABLES
  0
TABLE
  2
LTYPE
 70
    15
  0
LTYPE
  2
CONTINUOUS
 70
    64
  3
実線
 72
    65
 73
     0
 40
0.0
  0
LTYPE
  2
DASHED
 70
    64
  3
破線A
 72
    65
 73
     2
 40
0.6
 49
0.4
 49
-0.2
  0
LTYPE
  2
DASHEDX2
 70
    64
  3
破線B
 72
    65
 73
     2
 40
1.3
 49
0.9
 49
-0.4
  0
LTYPE
  2
DASHDOT
 70
    64
  3
１点鎖線A
 72
    65
 73
     4
 40
0.5375
 49
0.375
 49
-0.05
 49
0.0625
 49
-0.05
  0
LTYPE
  2
DASHDOTX2
 70
    64
  3
１点鎖線B
 72
    65
 73
     4
 40
1.075
 49
0.75
 49
-0.1
 49
0.125
 49
-0.1
  0
LTYPE
  2
DIVIDE2
 70
    64
  3
２点鎖線A
 72
    65
 73
     6
 40
0.5125
 49
0.3
 49
-0.0375
 49
0.05
 49
-0.0375
 49
0.05
 49
-0.0375
  0
LTYPE
  2
DIVIDE
 70
    64
  3
２点鎖線B
 72
    65
 73
     6
 40
1.05
 49
0.55
 49
-0.1
 49
0.1
 49
-0.1
 49
0.1
 49
-0.1
  0
LTYPE
  2
DOT
 70
    64
  3
点線A
 72
    65
 73
     2
 40
0.1125
 49
0.0625
 49
-0.05
  0
LTYPE
  2
DOTX2
 70
    64
  3
点線B
 72
    65
 73
     2
 40
0.275
 49
0.15
 49
-0.125
  0
LTYPE
  2
CONTINUOUS
 70
    64
  3
実線
 72
    65
 73
     0
 40
0.0
  0
LTYPE
  2
CONTINUOUS
 70
    64
  3
実線
 72
    65
 73
     0
 40
0.0
  0
LTYPE
  2
CONTINUOUS
 70
    64
  3
実線
 72
    65
 73
     0
 40
0.0
  0
LTYPE
  2
CONTINUOUS
 70
    64
  3
実線
 72
    65
 73
     0
 40
0.0
  0
LTYPE
  2
CONTINUOUS
 70
    64
  3
実線
 72
    65
 73
     0
 40
0.0
  0
LTYPE
  2
CONTINUOUS
 70
    64
  3
実線
 72
    65
 73
     0
 40
0.0
  0
ENDTAB
  0
TABLE
  2
LAYER
 70
    34
  0
LAYER
  2
通り芯
 70
     0
 62
    15
  6
CONTINUOUS
  0
LAYER
  2
補助線
 70
     0
 62
    16
  6
DOT
  0
LAYER
  2
躯体
 70
     0
 62
    31
  6
CONTINUOUS
  0
LAYER
  2
型材
 70
     0
 62
    32
  6
CONTINUOUS
  0
LAYER
  2
型材断面
 70
     0
 62
    47
  6
CONTINUOUS
  0
LAYER
  2
ガラス
 70
     0
 62
    48
  6
CONTINUOUS
  0
LAYER
  2
ゴム等
 70
     0
 62
    63
  6
CONTINUOUS
  0
LAYER
  2
ボルト／ビス
 70
     0
 62
    64
  6
CONTINUOUS
  0
LAYER
  2
文字
 70
     0
 62
    79
  6
CONTINUOUS
  0
LAYER
  2
寸法
 70
     0
 62
    80
  6
CONTINUOUS
  0
LAYER
  2
ﾊｯﾁﾝｸﾞ
 70
     0
 62
    95
  6
CONTINUOUS
  0
LAYER
  2
別途部材
 70
     0
 62
    96
  6
CONTINUOUS
  0
LAYER
  2
曲げ物
 70
     0
 62
   111
  6
CONTINUOUS
  0
LAYER
  2
鉄骨等
 70
     0
 62
   112
  6
CONTINUOUS
  0
LAYER
  2
St
 70
     0
 62
   127
  6
CONTINUOUS
  0
LAYER
  2
その他部品等
 70
     0
 62
   128
  6
CONTINUOUS
  0
LAYER
  2
ｶﾞｽｹｯﾄ
 70
     0
 62
   143
  6
CONTINUOUS
  0
LAYER
  2
ｽｹｯﾁ
 70
     0
 62
    14
  6
CONTINUOUS
  0
LAYER
  2
0
 70
     0
 62
    17
  6
CONTINUOUS
  0
LAYER
  2
1
 70
     0
 62
    30
  6
CONTINUOUS
  0
LAYER
  2
4
 70
     0
 62
    33
  6
CONTINUOUS
  0
LAYER
  2
ﾚｲﾔ3
 70
     0
 62
    46
  6
CONTINUOUS
  0
LAYER
  2
外形線
 70
     0
 62
    49
  6
CONTINUOUS
  0
LAYER
  2
部品
 70
     0
 62
    14
  6
CONTINUOUS
  0
LAYER
  2
サッシ芯
 70
     0
 62
    17
  6
DASHDOTX2
  0
LAYER
  2
寸法線
 70
     0
 62
    62
  6
CONTINUOUS
  0
LAYER
  2
姿図外形線
 70
     0
 62
    65
  6
CONTINUOUS
  0
LAYER
  2
姿補助線
 70
     0
 62
    30
  6
CONTINUOUS
  0
LAYER
  2
透視線
 70
     0
 62
    78
  6
DOT
  0
LAYER
  2
用紙
 70
     0
 62
    81
  6
CONTINUOUS
  0
LAYER
  2
実線図枠
 70
     0
 62
    94
  6
CONTINUOUS
  0
LAYER
  2
補助図枠
 70
     0
 62
    97
  6
CONTINUOUS
  0
LAYER
  2
建具記号
 70
     0
 62
   110
  6
CONTINUOUS
  0
LAYER
  2
補助文字
 70
     0
 62
   113
  6
CONTINUOUS
  0
ENDTAB
  0
TABLE
  2
STYLE
 70
    10
  0
STYLE
  2
STANDARD
 70
     0
 40
1.0
 41
1.0
 42
1.0
 50
0.0
 71
     0
  3
TXT
  4
BIGFONT
  0
STYLE
  2
TATE
 70
     4
 40
1.0
 41
1.0
 42
1.0
 50
0.0
 71
     0
  3
TXT
  4
BIGFONT
  0
STYLE
  2
TextStyle03
 70
     0
 40
1.0
 41
1.0
 42
1.0
 50
0.0
 71
     0
  3
MONOTXT
  4
BIGFONT
  0
STYLE
  2
TextStyle04
 70
     0
 40
1.0
 41
1.0
 42
1.0
 50
0.0
 71
     0
  3
MONOTXT
  4
BIGFONT
  0
STYLE
  2
TextStyle05
 70
     0
 40
1.0
 41
1.0
 42
1.0
 50
0.0
 71
     0
  3
MONOTXT
  4
BIGFONT
  0
STYLE
  2
TextStyle06
 70
     0
 40
1.0
 41
1.0
 42
1.0
 50
0.0
 71
     0
  3
MONOTXT
  4
BIGFONT
  0
STYLE
  2
TextStyle07
 70
     0
 40
1.0
 41
1.0
 42
1.0
 50
0.0
 71
     0
  3
MONOTXT
  4
BIGFONT
  0
STYLE
  2
TextStyle08
 70
     0
 40
1.0
 41
1.0
 42
1.0
 50
0.0
 71
     0
  3
MONOTXT
  4
BIGFONT
  0
STYLE
  2
TextStyle09
 70
     0
 40
1.0
 41
1.0
 42
1.0
 50
0.0
 71
     0
  3
MONOTXT
  4
BIGFONT
  0
STYLE
  2
TextStyle10
 70
     0
 40
1.0
 41
1.0
 42
1.0
 50
0.0
 71
     0
  3
MONOTXT
  4
BIGFONT
  0
ENDTAB
  0
ENDSEC
  0
SECTION
  2
BLOCKS
  0
BLOCK
  2
*GRP_0001
 70
    65
 10
0.0
 20
0.0
  0
LINE
  8
型材断面
  6
CONTINUOUS
 10
195.0
 20
133.5
 11
195.0
 21
-133.5
  0
LINE
  8
型材断面
  6
CONTINUOUS
 10
195.0
 20
-133.5
 11
-185.0
 21
-133.5
  0
LINE
  8
型材断面
  6
CONTINUOUS
 10
-185.0
 20
-133.5
 11
-185.0
 21
133.5
  0
LINE
  8
型材断面
  6
CONTINUOUS
 10
195.0
 20
133.5
 11
-185.0
 21
133.5
  0
LINE
  8
型材断面
  6
CONTINUOUS
 10
145.0
 20
-133.5
 11
145.0
 21
-118.5
  0
LINE
  8
型材断面
  6
CONTINUOUS
 10
195.0
 20
-118.5
 11
145.0
 21
-118.5
  0
ENDBLK
  0
BLOCK
  2
*DIM_0002
 70
    65
 10
0.0
 20
0.0
  0
LINE
  8
寸法
  6
BYBLOCK
 62
     0
 10
-95.755937
 20
-35.080245
 11
-95.755937
 21
-33.416065
  0
LINE
  8
寸法
  6
BYBLOCK
 62
     0
 10
-30.755937
 20
-35.080245
 11
-30.755937
 21
-33.416065
  0
LINE
  8
寸法
  6
BYBLOCK
 62
     0
 10
-95.755937
 20
-33.416065
 11
-30.755937
 21
-33.416065
  0
POINT
  8
寸法
 62
     0
 10
-95.755937
 20
-33.416065
  0
POINT
  8
寸法
 62
     0
 10
-30.755937
 20
-33.416065
  0
TEXT
  7
TextStyle03
  8
寸法
  6
CONTINUOUS
 62
     0
 10
-74.99375
 20
-33.05
  1
呼称寸法　1300
 40
3.0
 72
     5
 11
-51.55625
 21
-33.05
  0
ENDBLK
  0
BLOCK
  2
*DIM_0003
 70
    65
 10
0.0
 20
0.0
  0
LINE
  8
寸法
  6
BYBLOCK
 62
     0
 10
-62.255935
 20
-52.069873
 11
-10.143282
 21
-52.069873
  0
LINE
  8
寸法
  6
BYBLOCK
 62
     0
 10
-10.143282
 20
-69.569873
 11
-10.143282
 21
-52.069873
  0
POINT
  8
寸法
 62
     0
 10
-10.143282
 20
-69.569873
  0
POINT
  8
寸法
 62
     0
 10
-10.143282
 20
-52.069873
  0
TEXT
  7
TextStyle03
  8
寸法
  6
CONTINUOUS
 62
     0
 10
-10.525
 20
-63.2875
  1
350
 40
3.0
 50
90.0
 72
     5
 11
-10.525
 21
-58.4125
  0
ENDBLK
  0
BLOCK
  2
*GRP_0004
 70
    65
 10
0.0
 20
0.0
  0
INSERT
  2
*GRP_0005
  8
補助線
  6
CONTINUOUS
 10
0.0
 20
0.0
  0
LINE
  8
ボルト／ビス
  6
CONTINUOUS
 10
-55.755937
 20
60.659058
 11
-56.005937
 21
60.51472
  0
LINE
  8
ボルト／ビス
  6
CONTINUOUS
 10
-55.755937
 20
60.659058
 11
-55.505937
 21
60.51472
  0
LINE
  8
ボルト／ビス
  6
CONTINUOUS
 10
-56.005937
 20
60.226045
 11
-55.755937
 21
60.081708
  0
LINE
  8
ボルト／ビス
  6
CONTINUOUS
 10
-55.505937
 20
60.226045
 11
-55.755937
 21
60.081708
  0
CIRCLE
  8
ボルト／ビス
  6
CONTINUOUS
 10
-55.755937
 20
60.370383
 40
0.25
  0
LINE
  8
ボルト／ビス
  6
CONTINUOUS
 10
-55.505937
 20
60.51472
 11
-55.505937
 21
60.226045
  0
LINE
  8
ボルト／ビス
  6
CONTINUOUS
 10
-56.005937
 20
60.226045
 11
-56.005937
 21
60.51472
  0
ENDBLK
  0
BLOCK
  2
*GRP_0005
 70
    65
 10
0.0
 20
0.0
  0
LINE
  8
補助線
  6
BYBLOCK
 62
     0
 10
-55.630937
 20
60.370383
 11
-55.880937
 21
60.370383
  0
LINE
  8
補助線
  6
BYBLOCK
 62
     0
 10
-55.755937
 20
60.495383
 11
-55.755937
 21
60.245383
  0
ENDBLK
  0
BLOCK
  2
*GRP_0006
 70
    65
 10
0.0
 20
0.0
  0
INSERT
  2
*GRP_0007
  8
補助線
  6
CONTINUOUS
 10
0.0
 20
0.0
  0
LINE
  8
ボルト／ビス
  6
CONTINUOUS
 10
-40.755937
 20
60.659058
 11
-41.005937
 21
60.51472
  0
LINE
  8
ボルト／ビス
  6
CONTINUOUS
 10
-40.755937
 20
60.659058
 11
-40.505937
 21
60.51472
  0
LINE
  8
ボルト／ビス
  6
CONTINUOUS
 10
-41.005937
 20
60.226045
 11
-40.755937
 21
60.081708
  0
LINE
  8
ボルト／ビス
  6
CONTINUOUS
 10
-40.505937
 20
60.226045
 11
-40.755937
 21
60.081708
  0
CIRCLE
  8
ボルト／ビス
  6
CONTINUOUS
 10
-40.755937
 20
60.370383
 40
0.25
  0
LINE
  8
ボルト／ビス
  6
CONTINUOUS
 10
-40.505937
 20
60.51472
 11
-40.505937
 21
60.226045
  0
LINE
  8
ボルト／ビス
  6
CONTINUOUS
 10
-41.005937
 20
60.226045
 11
-41.005937
 21
60.51472
  0
ENDBLK
  0
BLOCK
  2
*GRP_0007
 70
    65
 10
0.0
 20
0.0
  0
LINE
  8
補助線
  6
BYBLOCK
 62
     0
 10
-40.630937
 20
60.370383
 11
-40.880937
 21
60.370383
  0
LINE
  8
補助線
  6
BYBLOCK
 62
     0
 10
-40.755937
 20
60.495383
 11
-40.755937
 21
60.245383
  0
ENDBLK
  0
BLOCK
  2
*GRP_0008
 70
    65
 10
0.0
 20
0.0
  0
INSERT
  2
*GRP_0010
  8
補助線
  6
CONTINUOUS
 10
0.0
 20
0.0
  0
LINE
  8
ボルト／ビス
  6
CONTINUOUS
 10
-70.755937
 20
60.659058
 11
-70.505937
 21
60.51472
  0
LINE
  8
ボルト／ビス
  6
CONTINUOUS
 10
-70.755937
 20
60.659058
 11
-71.005937
 21
60.51472
  0
LINE
  8
ボルト／ビス
  6
CONTINUOUS
 10
-70.505937
 20
60.226045
 11
-70.755937
 21
60.081708
  0
LINE
  8
ボルト／ビス
  6
CONTINUOUS
 10
-71.005937
 20
60.226045
 11
-70.755937
 21
60.081708
  0
CIRCLE
  8
ボルト／ビス
  6
CONTINUOUS
 10
-70.755937
 20
60.370383
 40
0.25
  0
LINE
  8
ボルト／ビス
  6
CONTINUOUS
 10
-71.005937
 20
60.51472
 11
-71.005937
 21
60.226045
  0
LINE
  8
ボルト／ビス
  6
CONTINUOUS
 10
-70.505937
 20
60.226045
 11
-70.505937
 21
60.51472
  0
ENDBLK
  0
BLOCK
  2
*GRP_0009
 70
    65
 10
0.0
 20
0.0
  0
INSERT
  2
*GRP_0011
  8
補助線
  6
CONTINUOUS
 10
0.0
 20
0.0
  0
LINE
  8
ボルト／ビス
  6
CONTINUOUS
 10
-85.755937
 20
60.659058
 11
-85.505937
 21
60.51472
  0
LINE
  8
ボルト／ビス
  6
CONTINUOUS
 10
-85.755937
 20
60.659058
 11
-86.005937
 21
60.51472
  0
LINE
  8
ボルト／ビス
  6
CONTINUOUS
 10
-85.505937
 20
60.226045
 11
-85.755937
 21
60.081708
  0
LINE
  8
ボルト／ビス
  6
CONTINUOUS
 10
-86.005937
 20
60.226045
 11
-85.755937
 21
60.081708
  0
CIRCLE
  8
ボルト／ビス
  6
CONTINUOUS
 10
-85.755937
 20
60.370383
 40
0.25
  0
LINE
  8
ボルト／ビス
  6
CONTINUOUS
 10
-86.005937
 20
60.51472
 11
-86.005937
 21
60.226045
  0
LINE
  8
ボルト／ビス
  6
CONTINUOUS
 10
-85.505937
 20
60.226045
 11
-85.505937
 21
60.51472
  0
ENDBLK
  0
BLOCK
  2
*GRP_0010
 70
    65
 10
0.0
 20
0.0
  0
LINE
  8
補助線
  6
BYBLOCK
 62
     0
 10
-70.880937
 20
60.370383
 11
-70.630937
 21
60.370383
  0
LINE
  8
補助線
  6
BYBLOCK
 62
     0
 10
-70.755937
 20
60.495383
 11
-70.755937
 21
60.245383
  0
ENDBLK
  0
BLOCK
  2
*GRP_0011
 70
    65
 10
0.0
 20
0.0
  0
LINE
  8
補助線
  6
BYBLOCK
 62
     0
 10
-85.880937
 20
60.370383
 11
-85.630937
 21
60.370383
  0
LINE
  8
補助線
  6
BYBLOCK
 62
     0
 10
-85.755937
 20
60.495383
 11
-85.755937
 21
60.245383
  0
ENDBLK
  0
BLOCK
  2
*GRP_0012
 70
    65
 10
0.0
 20
0.0
  0
INSERT
  2
*GRP_0014
  8
補助線
  6
CONTINUOUS
 10
0.0
 20
0.0
  0
LINE
  8
ボルト／ビス
  6
CONTINUOUS
 10
-97.04461
 20
34.370385
 11
-96.900273
 21
34.120385
  0
LINE
  8
ボルト／ビス
  6
CONTINUOUS
 10
-97.04461
 20
34.370385
 11
-96.900273
 21
34.620385
  0
LINE
  8
ボルト／ビス
  6
CONTINUOUS
 10
-96.611597
 20
34.120385
 11
-96.46726
 21
34.370385
  0
LINE
  8
ボルト／ビス
  6
CONTINUOUS
 10
-96.611597
 20
34.620385
 11
-96.46726
 21
34.370385
  0
CIRCLE
  8
ボルト／ビス
  6
CONTINUOUS
 10
-96.755935
 20
34.370385
 40
0.25
  0
LINE
  8
ボルト／ビス
  6
CONTINUOUS
 10
-96.900273
 20
34.620385
 11
-96.611597
 21
34.620385
  0
LINE
  8
ボルト／ビス
  6
CONTINUOUS
 10
-96.611597
 20
34.120385
 11
-96.900273
 21
34.120385
  0
ENDBLK
  0
BLOCK
  2
*GRP_0013
 70
    65
 10
0.0
 20
0.0
  0
INSERT
  2
*GRP_0015
  8
補助線
  6
CONTINUOUS
 10
0.0
 20
0.0
  0
LINE
  8
ボルト／ビス
  6
CONTINUOUS
 10
-97.04461
 20
49.370385
 11
-96.900273
 21
49.120385
  0
LINE
  8
ボルト／ビス
  6
CONTINUOUS
 10
-97.04461
 20
49.370385
 11
-96.900273
 21
49.620385
  0
LINE
  8
ボルト／ビス
  6
CONTINUOUS
 10
-96.611597
 20
49.120385
 11
-96.46726
 21
49.370385
  0
LINE
  8
ボルト／ビス
  6
CONTINUOUS
 10
-96.611597
 20
49.620385
 11
-96.46726
 21
49.370385
  0
CIRCLE
  8
ボルト／ビス
  6
CONTINUOUS
 10
-96.755935
 20
49.370385
 40
0.25
  0
LINE
  8
ボルト／ビス
  6
CONTINUOUS
 10
-96.900273
 20
49.620385
 11
-96.611597
 21
49.620385
  0
LINE
  8
ボルト／ビス
  6
CONTINUOUS
 10
-96.611597
 20
49.120385
 11
-96.900273
 21
49.120385
  0
ENDBLK
  0
BLOCK
  2
*GRP_0014
 70
    65
 10
0.0
 20
0.0
  0
LINE
  8
補助線
  6
BYBLOCK
 62
     0
 10
-96.755935
 20
34.495385
 11
-96.755935
 21
34.245385
  0
LINE
  8
補助線
  6
BYBLOCK
 62
     0
 10
-96.880935
 20
34.370385
 11
-96.630935
 21
34.370385
  0
ENDBLK
  0
BLOCK
  2
*GRP_0015
 70
    65
 10
0.0
 20
0.0
  0
LINE
  8
補助線
  6
BYBLOCK
 62
     0
 10
-96.755935
 20
49.495385
 11
-96.755935
 21
49.245385
  0
LINE
  8
補助線
  6
BYBLOCK
 62
     0
 10
-96.880935
 20
49.370385
 11
-96.630935
 21
49.370385
  0
ENDBLK
  0
BLOCK
  2
*GRP_0016
 70
    65
 10
0.0
 20
0.0
  0
INSERT
  2
*GRP_0018
  8
補助線
  6
CONTINUOUS
 10
0.0
 20
0.0
  0
LINE
  8
ボルト／ビス
  6
CONTINUOUS
 10
-97.04461
 20
19.37038
 11
-96.900273
 21
19.62038
  0
LINE
  8
ボルト／ビス
  6
CONTINUOUS
 10
-97.04461
 20
19.37038
 11
-96.900273
 21
19.12038
  0
LINE
  8
ボルト／ビス
  6
CONTINUOUS
 10
-96.611597
 20
19.62038
 11
-96.46726
 21
19.37038
  0
LINE
  8
ボルト／ビス
  6
CONTINUOUS
 10
-96.611597
 20
19.12038
 11
-96.46726
 21
19.37038
  0
CIRCLE
  8
ボルト／ビス
  6
CONTINUOUS
 10
-96.755935
 20
19.37038
 40
0.25
  0
LINE
  8
ボルト／ビス
  6
CONTINUOUS
 10
-96.900273
 20
19.12038
 11
-96.611597
 21
19.12038
  0
LINE
  8
ボルト／ビス
  6
CONTINUOUS
 10
-96.611597
 20
19.62038
 11
-96.900273
 21
19.62038
  0
ENDBLK
  0
BLOCK
  2
*GRP_0017
 70
    65
 10
0.0
 20
0.0
  0
INSERT
  2
*GRP_0019
  8
補助線
  6
CONTINUOUS
 10
0.0
 20
0.0
  0
LINE
  8
ボルト／ビス
  6
CONTINUOUS
 10
-97.04461
 20
4.37038
 11
-96.900273
 21
4.62038
  0
LINE
  8
ボルト／ビス
  6
CONTINUOUS
 10
-97.04461
 20
4.37038
 11
-96.900273
 21
4.12038
  0
LINE
  8
ボルト／ビス
  6
CONTINUOUS
 10
-96.611597
 20
4.62038
 11
-96.46726
 21
4.37038
  0
LINE
  8
ボルト／ビス
  6
CONTINUOUS
 10
-96.611597
 20
4.12038
 11
-96.46726
 21
4.37038
  0
CIRCLE
  8
ボルト／ビス
  6
CONTINUOUS
 10
-96.755935
 20
4.37038
 40
0.25
  0
LINE
  8
ボルト／ビス
  6
CONTINUOUS
 10
-96.900273
 20
4.12038
 11
-96.611597
 21
4.12038
  0
LINE
  8
ボルト／ビス
  6
CONTINUOUS
 10
-96.611597
 20
4.62038
 11
-96.900273
 21
4.62038
  0
ENDBLK
  0
BLOCK
  2
*GRP_0018
 70
    65
 10
0.0
 20
0.0
  0
LINE
  8
補助線
  6
BYBLOCK
 62
     0
 10
-96.755935
 20
19.24538
 11
-96.755935
 21
19.49538
  0
LINE
  8
補助線
  6
BYBLOCK
 62
     0
 10
-96.880935
 20
19.37038
 11
-96.630935
 21
19.37038
  0
ENDBLK
  0
BLOCK
  2
*GRP_0019
 70
    65
 10
0.0
 20
0.0
  0
LINE
  8
補助線
  6
BYBLOCK
 62
     0
 10
-96.755935
 20
4.24538
 11
-96.755935
 21
4.49538
  0
LINE
  8
補助線
  6
BYBLOCK
 62
     0
 10
-96.880935
 20
4.37038
 11
-96.630935
 21
4.37038
  0
ENDBLK
  0
BLOCK
  2
*GRP_0020
 70
    65
 10
0.0
 20
0.0
  0
INSERT
  2
*GRP_0022
  8
補助線
  6
CONTINUOUS
 10
0.0
 20
0.0
  0
LINE
  8
ボルト／ビス
  6
CONTINUOUS
 10
-70.75594
 20
-6.91829
 11
-70.50594
 21
-6.773952
  0
LINE
  8
ボルト／ビス
  6
CONTINUOUS
 10
-70.75594
 20
-6.91829
 11
-71.00594
 21
-6.773952
  0
LINE
  8
ボルト／ビス
  6
CONTINUOUS
 10
-70.50594
 20
-6.485278
 11
-70.75594
 21
-6.34094
  0
LINE
  8
ボルト／ビス
  6
CONTINUOUS
 10
-71.00594
 20
-6.485278
 11
-70.75594
 21
-6.34094
  0
CIRCLE
  8
ボルト／ビス
  6
CONTINUOUS
 10
-70.75594
 20
-6.629615
 40
0.25
  0
LINE
  8
ボルト／ビス
  6
CONTINUOUS
 10
-71.00594
 20
-6.773952
 11
-71.00594
 21
-6.485278
  0
LINE
  8
ボルト／ビス
  6
CONTINUOUS
 10
-70.50594
 20
-6.485278
 11
-70.50594
 21
-6.773952
  0
ENDBLK
  0
BLOCK
  2
*GRP_0021
 70
    65
 10
0.0
 20
0.0
  0
INSERT
  2
*GRP_0023
  8
補助線
  6
CONTINUOUS
 10
0.0
 20
0.0
  0
LINE
  8
ボルト／ビス
  6
CONTINUOUS
 10
-85.75594
 20
-6.91829
 11
-85.50594
 21
-6.773952
  0
LINE
  8
ボルト／ビス
  6
CONTINUOUS
 10
-85.75594
 20
-6.91829
 11
-86.00594
 21
-6.773952
  0
LINE
  8
ボルト／ビス
  6
CONTINUOUS
 10
-85.50594
 20
-6.485278
 11
-85.75594
 21
-6.34094
  0
LINE
  8
ボルト／ビス
  6
CONTINUOUS
 10
-86.00594
 20
-6.485278
 11
-85.75594
 21
-6.34094
  0
CIRCLE
  8
ボルト／ビス
  6
CONTINUOUS
 10
-85.75594
 20
-6.629615
 40
0.25
  0
LINE
  8
ボルト／ビス
  6
CONTINUOUS
 10
-86.00594
 20
-6.773952
 11
-86.00594
 21
-6.485278
  0
LINE
  8
ボルト／ビス
  6
CONTINUOUS
 10
-85.50594
 20
-6.485278
 11
-85.50594
 21
-6.773952
  0
ENDBLK
  0
BLOCK
  2
*GRP_0022
 70
    65
 10
0.0
 20
0.0
  0
LINE
  8
補助線
  6
BYBLOCK
 62
     0
 10
-70.88094
 20
-6.629615
 11
-70.63094
 21
-6.629615
  0
LINE
  8
補助線
  6
BYBLOCK
 62
     0
 10
-70.75594
 20
-6.754615
 11
-70.75594
 21
-6.504615
  0
ENDBLK
  0
BLOCK
  2
*GRP_0023
 70
    65
 10
0.0
 20
0.0
  0
LINE
  8
補助線
  6
BYBLOCK
 62
     0
 10
-85.88094
 20
-6.629615
 11
-85.63094
 21
-6.629615
  0
LINE
  8
補助線
  6
BYBLOCK
 62
     0
 10
-85.75594
 20
-6.754615
 11
-85.75594
 21
-6.504615
  0
ENDBLK
  0
BLOCK
  2
*GRP_0024
 70
    65
 10
0.0
 20
0.0
  0
INSERT
  2
*GRP_0026
  8
補助線
  6
CONTINUOUS
 10
0.0
 20
0.0
  0
LINE
  8
ボルト／ビス
  6
CONTINUOUS
 10
-55.755935
 20
-6.91829
 11
-56.005935
 21
-6.773952
  0
LINE
  8
ボルト／ビス
  6
CONTINUOUS
 10
-55.755935
 20
-6.91829
 11
-55.505935
 21
-6.773952
  0
LINE
  8
ボルト／ビス
  6
CONTINUOUS
 10
-56.005935
 20
-6.485278
 11
-55.755935
 21
-6.34094
  0
LINE
  8
ボルト／ビス
  6
CONTINUOUS
 10
-55.505935
 20
-6.485278
 11
-55.755935
 21
-6.34094
  0
CIRCLE
  8
ボルト／ビス
  6
CONTINUOUS
 10
-55.755935
 20
-6.629615
 40
0.25
  0
LINE
  8
ボルト／ビス
  6
CONTINUOUS
 10
-55.505935
 20
-6.773952
 11
-55.505935
 21
-6.485278
  0
LINE
  8
ボルト／ビス
  6
CONTINUOUS
 10
-56.005935
 20
-6.485278
 11
-56.005935
 21
-6.773952
  0
ENDBLK
  0
BLOCK
  2
*GRP_0025
 70
    65
 10
0.0
 20
0.0
  0
INSERT
  2
*GRP_0027
  8
補助線
  6
CONTINUOUS
 10
0.0
 20
0.0
  0
LINE
  8
ボルト／ビス
  6
CONTINUOUS
 10
-40.755935
 20
-6.91829
 11
-41.005935
 21
-6.773952
  0
LINE
  8
ボルト／ビス
  6
CONTINUOUS
 10
-40.755935
 20
-6.91829
 11
-40.505935
 21
-6.773952
  0
LINE
  8
ボルト／ビス
  6
CONTINUOUS
 10
-41.005935
 20
-6.485278
 11
-40.755935
 21
-6.34094
  0
LINE
  8
ボルト／ビス
  6
CONTINUOUS
 10
-40.505935
 20
-6.485278
 11
-40.755935
 21
-6.34094
  0
CIRCLE
  8
ボルト／ビス
  6
CONTINUOUS
 10
-40.755935
 20
-6.629615
 40
0.25
  0
LINE
  8
ボルト／ビス
  6
CONTINUOUS
 10
-40.505935
 20
-6.773952
 11
-40.505935
 21
-6.485278
  0
LINE
  8
ボルト／ビス
  6
CONTINUOUS
 10
-41.005935
 20
-6.485278
 11
-41.005935
 21
-6.773952
  0
ENDBLK
  0
BLOCK
  2
*GRP_0026
 70
    65
 10
0.0
 20
0.0
  0
LINE
  8
補助線
  6
BYBLOCK
 62
     0
 10
-55.630935
 20
-6.629615
 11
-55.880935
 21
-6.629615
  0
LINE
  8
補助線
  6
BYBLOCK
 62
     0
 10
-55.755935
 20
-6.754615
 11
-55.755935
 21
-6.504615
  0
ENDBLK
  0
BLOCK
  2
*GRP_0027
 70
    65
 10
0.0
 20
0.0
  0
LINE
  8
補助線
  6
BYBLOCK
 62
     0
 10
-40.630935
 20
-6.629615
 11
-40.880935
 21
-6.629615
  0
LINE
  8
補助線
  6
BYBLOCK
 62
     0
 10
-40.755935
 20
-6.754615
 11
-40.755935
 21
-6.504615
  0
ENDBLK
  0
BLOCK
  2
*GRP_0028
 70
    65
 10
0.0
 20
0.0
  0
INSERT
  2
*GRP_0030
  8
補助線
  6
CONTINUOUS
 10
0.0
 20
0.0
  0
LINE
  8
ボルト／ビス
  6
CONTINUOUS
 10
-29.467263
 20
19.370383
 11
-29.6116
 21
19.620383
  0
LINE
  8
ボルト／ビス
  6
CONTINUOUS
 10
-29.467263
 20
19.370383
 11
-29.6116
 21
19.120383
  0
LINE
  8
ボルト／ビス
  6
CONTINUOUS
 10
-29.900275
 20
19.620383
 11
-30.044613
 21
19.370383
  0
LINE
  8
ボルト／ビス
  6
CONTINUOUS
 10
-29.900275
 20
19.120383
 11
-30.044613
 21
19.370383
  0
CIRCLE
  8
ボルト／ビス
  6
CONTINUOUS
 10
-29.755937
 20
19.370383
 40
0.25
  0
LINE
  8
ボルト／ビス
  6
CONTINUOUS
 10
-29.6116
 20
19.120383
 11
-29.900275
 21
19.120383
  0
LINE
  8
ボルト／ビス
  6
CONTINUOUS
 10
-29.900275
 20
19.620383
 11
-29.6116
 21
19.620383
  0
ENDBLK
  0
BLOCK
  2
*GRP_0029
 70
    65
 10
0.0
 20
0.0
  0
INSERT
  2
*GRP_0031
  8
補助線
  6
CONTINUOUS
 10
0.0
 20
0.0
  0
LINE
  8
ボルト／ビス
  6
CONTINUOUS
 10
-29.467263
 20
4.370383
 11
-29.6116
 21
4.620383
  0
LINE
  8
ボルト／ビス
  6
CONTINUOUS
 10
-29.467263
 20
4.370383
 11
-29.6116
 21
4.120383
  0
LINE
  8
ボルト／ビス
  6
CONTINUOUS
 10
-29.900275
 20
4.620383
 11
-30.044613
 21
4.370383
  0
LINE
  8
ボルト／ビス
  6
CONTINUOUS
 10
-29.900275
 20
4.120383
 11
-30.044613
 21
4.370383
  0
CIRCLE
  8
ボルト／ビス
  6
CONTINUOUS
 10
-29.755937
 20
4.370383
 40
0.25
  0
LINE
  8
ボルト／ビス
  6
CONTINUOUS
 10
-29.6116
 20
4.120383
 11
-29.900275
 21
4.120383
  0
LINE
  8
ボルト／ビス
  6
CONTINUOUS
 10
-29.900275
 20
4.620383
 11
-29.6116
 21
4.620383
  0
ENDBLK
  0
BLOCK
  2
*GRP_0030
 70
    65
 10
0.0
 20
0.0
  0
LINE
  8
補助線
  6
BYBLOCK
 62
     0
 10
-29.755937
 20
19.245383
 11
-29.755937
 21
19.495383
  0
LINE
  8
補助線
  6
BYBLOCK
 62
     0
 10
-29.630937
 20
19.370383
 11
-29.880937
 21
19.370383
  0
ENDBLK
  0
BLOCK
  2
*GRP_0031
 70
    65
 10
0.0
 20
0.0
  0
LINE
  8
補助線
  6
BYBLOCK
 62
     0
 10
-29.755937
 20
4.245383
 11
-29.755937
 21
4.495383
  0
LINE
  8
補助線
  6
BYBLOCK
 62
     0
 10
-29.630937
 20
4.370383
 11
-29.880937
 21
4.370383
  0
ENDBLK
  0
BLOCK
  2
*GRP_0032
 70
    65
 10
0.0
 20
0.0
  0
INSERT
  2
*GRP_0034
  8
補助線
  6
CONTINUOUS
 10
0.0
 20
0.0
  0
LINE
  8
ボルト／ビス
  6
CONTINUOUS
 10
-29.467263
 20
34.370383
 11
-29.6116
 21
34.120383
  0
LINE
  8
ボルト／ビス
  6
CONTINUOUS
 10
-29.467263
 20
34.370383
 11
-29.6116
 21
34.620383
  0
LINE
  8
ボルト／ビス
  6
CONTINUOUS
 10
-29.900275
 20
34.120383
 11
-30.044613
 21
34.370383
  0
LINE
  8
ボルト／ビス
  6
CONTINUOUS
 10
-29.900275
 20
34.620383
 11
-30.044613
 21
34.370383
  0
CIRCLE
  8
ボルト／ビス
  6
CONTINUOUS
 10
-29.755937
 20
34.370383
 40
0.25
  0
LINE
  8
ボルト／ビス
  6
CONTINUOUS
 10
-29.6116
 20
34.620383
 11
-29.900275
 21
34.620383
  0
LINE
  8
ボルト／ビス
  6
CONTINUOUS
 10
-29.900275
 20
34.120383
 11
-29.6116
 21
34.120383
  0
ENDBLK
  0
BLOCK
  2
*GRP_0033
 70
    65
 10
0.0
 20
0.0
  0
INSERT
  2
*GRP_0035
  8
補助線
  6
CONTINUOUS
 10
0.0
 20
0.0
  0
LINE
  8
ボルト／ビス
  6
CONTINUOUS
 10
-29.467263
 20
49.370383
 11
-29.6116
 21
49.120383
  0
LINE
  8
ボルト／ビス
  6
CONTINUOUS
 10
-29.467263
 20
49.370383
 11
-29.6116
 21
49.620383
  0
LINE
  8
ボルト／ビス
  6
CONTINUOUS
 10
-29.900275
 20
49.120383
 11
-30.044613
 21
49.370383
  0
LINE
  8
ボルト／ビス
  6
CONTINUOUS
 10
-29.900275
 20
49.620383
 11
-30.044613
 21
49.370383
  0
CIRCLE
  8
ボルト／ビス
  6
CONTINUOUS
 10
-29.755937
 20
49.370383
 40
0.25
  0
LINE
  8
ボルト／ビス
  6
CONTINUOUS
 10
-29.6116
 20
49.620383
 11
-29.900275
 21
49.620383
  0
LINE
  8
ボルト／ビス
  6
CONTINUOUS
 10
-29.900275
 20
49.120383
 11
-29.6116
 21
49.120383
  0
ENDBLK
  0
BLOCK
  2
*GRP_0034
 70
    65
 10
0.0
 20
0.0
  0
LINE
  8
補助線
  6
BYBLOCK
 62
     0
 10
-29.755937
 20
34.495383
 11
-29.755937
 21
34.245383
  0
LINE
  8
補助線
  6
BYBLOCK
 62
     0
 10
-29.630937
 20
34.370383
 11
-29.880937
 21
34.370383
  0
ENDBLK
  0
BLOCK
  2
*GRP_0035
 70
    65
 10
0.0
 20
0.0
  0
LINE
  8
補助線
  6
BYBLOCK
 62
     0
 10
-29.755937
 20
49.495383
 11
-29.755937
 21
49.245383
  0
LINE
  8
補助線
  6
BYBLOCK
 62
     0
 10
-29.630937
 20
49.370383
 11
-29.880937
 21
49.370383
  0
ENDBLK
  0
BLOCK
  2
*GRP_0036
 70
    65
 10
0.0
 20
0.0
  0
LINE
  8
別途部材
  6
CONTINUOUS
 62
    96
 10
-98.206255
 20
-77.495038
 11
-98.056255
 21
-77.495038
  0
LINE
  8
別途部材
  6
CONTINUOUS
 62
    96
 10
-98.356255
 20
-74.343418
 11
-100.352463
 21
-74.447927
  0
LINE
  8
別途部材
  6
CONTINUOUS
 62
    96
 10
-100.366255
 20
-75.270038
 11
-100.766255
 21
-75.095038
  0
LINE
  8
別途部材
  6
CONTINUOUS
 62
    96
 10
-100.33488
 20
-75.120038
 11
-100.56638
 21
-75.018757
  0
LINE
  8
別途部材
  6
CONTINUOUS
 62
    96
 10
-100.391637
 20
-74.299773
 11
-100.78194
 21
-74.495447
  0
LINE
  8
別途部材
  6
CONTINUOUS
 62
    96
 10
-100.352463
 20
-74.447927
 11
-100.74788
 21
-74.646167
  0
LINE
  8
別途部材
  6
CONTINUOUS
 62
    96
 10
-100.650558
 20
-74.69957
 11
-100.534862
 21
-74.6041
  0
LINE
  8
別途部材
  6
DASHDOTX2
 62
    96
 10
-100.766255
 20
-74.795038
 11
-100.766255
 21
-74.32481
  0
LINE
  8
別途部材
  6
DASHDOTX2
 62
    96
 10
-100.766255
 20
-74.795038
 11
-100.766255
 21
-75.290727
  0
LINE
  8
別途部材
  6
DASHDOTX2
 62
    96
 10
-100.766255
 20
-74.795038
 11
-100.371047
 21
-74.795038
  0
LINE
  8
別途部材
  6
DASHDOTX2
 62
    96
 10
-100.766255
 20
-74.795038
 11
-101.18372
 21
-74.795038
  0
LINE
  8
別途部材
  6
CONTINUOUS
 62
    96
 10
-98.056255
 20
-75.120038
 11
-100.33488
 21
-75.120038
  0
LINE
  8
別途部材
  6
CONTINUOUS
 62
    96
 10
-98.206255
 20
-75.270038
 11
-100.366255
 21
-75.270038
  0
LINE
  8
別途部材
  6
CONTINUOUS
 62
    96
 10
-98.506257
 20
-72.493418
 11
-98.506257
 21
-74.201065
  0
LINE
  8
別途部材
  6
CONTINUOUS
 62
    96
 10
-98.356255
 20
-72.493418
 11
-98.506257
 21
-72.493418
  0
LINE
  8
別途部材
  6
CONTINUOUS
 62
    96
 10
-98.356255
 20
-72.493418
 11
-98.356255
 21
-74.343418
  0
CIRCLE
  8
別途部材
  6
CONTINUOUS
 62
    96
 10
-100.766255
 20
-74.795038
 40
0.15
  0
ARC
  8
別途部材
  6
CONTINUOUS
 62
    96
 10
-100.766256
 20
-74.795036
 40
0.3
 50
92.998444
 51
411.219394
  0
LINE
  8
別途部材
  6
CONTINUOUS
 62
    96
 10
-98.056255
 20
-75.120038
 11
-98.056255
 21
-77.495038
  0
LINE
  8
別途部材
  6
CONTINUOUS
 62
    96
 10
-98.206255
 20
-75.270038
 11
-98.206255
 21
-77.495038
  0
LINE
  8
別途部材
  6
CONTINUOUS
 62
    96
 10
-100.391637
 20
-74.299773
 11
-98.506257
 21
-74.201065
  0
ENDBLK
  0
BLOCK
  2
*DIM_0037
 70
    65
 10
0.0
 20
0.0
  0
LINE
  8
寸法
  6
BYBLOCK
 62
     0
 10
-27.255935
 20
-69.569873
 11
-10.143282
 21
-69.569873
  0
LINE
  8
寸法
  6
BYBLOCK
 62
     0
 10
-24.155895
 20
-79.320225
 11
-10.143282
 21
-79.320225
  0
LINE
  8
寸法
  6
BYBLOCK
 62
     0
 10
-10.143282
 20
-69.569873
 11
-10.143282
 21
-79.320225
  0
POINT
  8
寸法
 62
     0
 10
-10.143282
 20
-69.569873
  0
POINT
  8
寸法
 62
     0
 10
-10.143282
 20
-79.320225
  0
TEXT
  7
TextStyle03
  8
寸法
  6
CONTINUOUS
 62
     0
 10
-10.525
 20
-76.8875
  1
195
 40
3.0
 50
90.0
 72
     5
 11
-10.525
 21
-72.0125
  0
ENDBLK
  0
BLOCK
  2
*DIM_0038
 70
    65
 10
0.0
 20
0.0
  0
LINE
  8
寸法
  6
BYBLOCK
 62
     0
 10
-25.155895
 20
-77.570225
 11
-25.155895
 21
-33.416065
  0
LINE
  8
寸法
  6
BYBLOCK
 62
     0
 10
-30.755937
 20
-33.416065
 11
-25.155895
 21
-33.416065
  0
POINT
  8
寸法
 62
     0
 10
-30.755937
 20
-33.416065
  0
POINT
  8
寸法
 62
     0
 10
-25.155895
 20
-33.416065
  0
TEXT
  7
TextStyle03
  8
寸法
  6
CONTINUOUS
 62
     0
 10
-30.4125
 20
-33.05
  1
112
 40
3.0
 72
     5
 11
-25.5375
 21
-33.05
  0
ENDBLK
  0
BLOCK
  2
*DIM_0039
 70
    65
 10
0.0
 20
0.0
  0
LINE
  8
寸法
  6
BYBLOCK
 62
     0
 10
-101.35598
 20
-77.570225
 11
-101.35598
 21
-33.416065
  0
LINE
  8
寸法
  6
BYBLOCK
 62
     0
 10
-95.755937
 20
-33.416065
 11
-101.35598
 21
-33.416065
  0
POINT
  8
寸法
 62
     0
 10
-95.755937
 20
-33.416065
  0
POINT
  8
寸法
 62
     0
 10
-101.35598
 20
-33.416065
  0
TEXT
  7
TextStyle03
  8
寸法
  6
CONTINUOUS
 62
     0
 10
-101.0125
 20
-33.05
  1
112
 40
3.0
 72
     5
 11
-96.1375
 21
-33.05
  0
ENDBLK
  0
BLOCK
  2
*GRP_0040
 70
    65
 10
0.0
 20
0.0
  0
LINE
  8
別途部材
  6
CONTINUOUS
 62
    96
 10
61.020138
 20
-77.495038
 11
61.170138
 21
-77.495038
  0
LINE
  8
別途部材
  6
CONTINUOUS
 62
    96
 10
60.870138
 20
-74.343418
 11
58.87393
 21
-74.447927
  0
LINE
  8
別途部材
  6
CONTINUOUS
 62
    96
 10
58.860138
 20
-75.270038
 11
58.460138
 21
-75.095038
  0
LINE
  8
別途部材
  6
CONTINUOUS
 62
    96
 10
58.891512
 20
-75.120038
 11
58.660013
 21
-75.018757
  0
LINE
  8
別途部材
  6
CONTINUOUS
 62
    96
 10
58.834755
 20
-74.299773
 11
58.444453
 21
-74.495447
  0
LINE
  8
別途部材
  6
CONTINUOUS
 62
    96
 10
58.87393
 20
-74.447927
 11
58.478513
 21
-74.646167
  0
LINE
  8
別途部材
  6
CONTINUOUS
 62
    96
 10
58.575835
 20
-74.69957
 11
58.69153
 21
-74.6041
  0
LINE
  8
別途部材
  6
DASHDOTX2
 62
    96
 10
58.460138
 20
-74.795038
 11
58.460138
 21
-74.32481
  0
LINE
  8
別途部材
  6
DASHDOTX2
 62
    96
 10
58.460138
 20
-74.795038
 11
58.460138
 21
-75.290727
  0
LINE
  8
別途部材
  6
DASHDOTX2
 62
    96
 10
58.460138
 20
-74.795038
 11
58.855345
 21
-74.795038
  0
LINE
  8
別途部材
  6
DASHDOTX2
 62
    96
 10
58.460138
 20
-74.795038
 11
58.042672
 21
-74.795038
  0
LINE
  8
別途部材
  6
CONTINUOUS
 62
    96
 10
61.170138
 20
-75.120038
 11
58.891512
 21
-75.120038
  0
LINE
  8
別途部材
  6
CONTINUOUS
 62
    96
 10
61.020138
 20
-75.270038
 11
58.860138
 21
-75.270038
  0
LINE
  8
別途部材
  6
CONTINUOUS
 62
    96
 10
60.720135
 20
-72.493418
 11
60.720135
 21
-74.201065
  0
LINE
  8
別途部材
  6
CONTINUOUS
 62
    96
 10
60.870138
 20
-72.493418
 11
60.720135
 21
-72.493418
  0
LINE
  8
別途部材
  6
CONTINUOUS
 62
    96
 10
60.870138
 20
-72.493418
 11
60.870138
 21
-74.343418
  0
CIRCLE
  8
別途部材
  6
CONTINUOUS
 62
    96
 10
58.460138
 20
-74.795038
 40
0.15
  0
ARC
  8
別途部材
  6
CONTINUOUS
 62
    96
 10
58.460136
 20
-74.795036
 40
0.3
 50
92.998444
 51
411.219394
  0
LINE
  8
別途部材
  6
CONTINUOUS
 62
    96
 10
61.170138
 20
-75.120038
 11
61.170138
 21
-77.495038
  0
LINE
  8
別途部材
  6
CONTINUOUS
 62
    96
 10
61.020138
 20
-75.270038
 11
61.020138
 21
-77.495038
  0
LINE
  8
別途部材
  6
CONTINUOUS
 62
    96
 10
58.834755
 20
-74.299773
 11
60.720135
 21
-74.201065
  0
ENDBLK
  0
BLOCK
  2
*DIM_0041
 70
    65
 10
0.0
 20
0.0
  0
LINE
  8
寸法
  6
BYBLOCK
 62
     0
 10
-29.755937
 20
59.370383
 11
-15.072648
 21
59.370383
  0
LINE
  8
寸法
  6
BYBLOCK
 62
     0
 10
-21.73206
 20
56.370383
 11
-15.072648
 21
56.370383
  0
LINE
  8
寸法
  6
BYBLOCK
 62
     0
 10
-15.072648
 20
59.370383
 11
-15.072648
 21
56.370383
  0
POINT
  8
寸法
 62
     0
 10
-15.072648
 20
59.370383
  0
POINT
  8
寸法
 62
     0
 10
-15.072648
 20
56.370383
  0
TEXT
  7
TextStyle03
  8
寸法
  6
CONTINUOUS
 62
     0
 10
-12.1
 20
56.23125
  1
60
 40
3.0
 50
90.0
 72
     5
 11
-12.1
 21
59.41875
  0
ENDBLK
  0
BLOCK
  2
*DIM_0042
 70
    65
 10
0.0
 20
0.0
  0
LINE
  8
寸法
  6
BYBLOCK
 62
     0
 10
-29.755937
 20
-5.629618
 11
-15.072648
 21
-5.629618
  0
LINE
  8
寸法
  6
BYBLOCK
 62
     0
 10
-21.73206
 20
-2.629618
 11
-15.072648
 21
-2.629618
  0
LINE
  8
寸法
  6
BYBLOCK
 62
     0
 10
-15.072648
 20
-5.629618
 11
-15.072648
 21
-2.629618
  0
POINT
  8
寸法
 62
     0
 10
-15.072648
 20
-5.629618
  0
POINT
  8
寸法
 62
     0
 10
-15.072648
 20
-2.629618
  0
TEXT
  7
TextStyle03
  8
寸法
  6
CONTINUOUS
 62
     0
 10
-12.075
 20
-5.74375
  1
60
 40
3.0
 50
90.0
 72
     5
 11
-12.075
 21
-2.55625
  0
ENDBLK
  0
BLOCK
  2
*DIM_0043
 70
    65
 10
0.0
 20
0.0
  0
LINE
  8
寸法
  6
BYBLOCK
 62
     0
 10
-80.755937
 20
82.238818
 11
-80.755937
 21
92.594355
  0
LINE
  8
寸法
  6
BYBLOCK
 62
     0
 10
-45.755937
 20
82.238818
 11
-45.755937
 21
92.594355
  0
LINE
  8
寸法
  6
BYBLOCK
 62
     0
 10
-80.755937
 20
92.594355
 11
-45.755937
 21
92.594355
  0
POINT
  8
寸法
 62
     0
 10
-80.755937
 20
92.594355
  0
POINT
  8
寸法
 62
     0
 10
-45.755937
 20
92.594355
  0
TEXT
  7
TextStyle03
  8
寸法
  6
CONTINUOUS
 62
     0
 10
-65.7125
 20
92.975
  1
700
 40
3.0
 72
     5
 11
-60.8375
 21
92.975
  0
ENDBLK
  0
BLOCK
  2
*DIM_0044
 70
    65
 10
0.0
 20
0.0
  0
LINE
  8
寸法
  6
BYBLOCK
 62
     0
 10
-123.904373
 20
44.370385
 11
-134.25991
 21
44.370385
  0
LINE
  8
寸法
  6
BYBLOCK
 62
     0
 10
-123.904375
 20
9.370385
 11
-134.259912
 21
9.370385
  0
LINE
  8
寸法
  6
BYBLOCK
 62
     0
 10
-134.25991
 20
44.370385
 11
-134.259912
 21
9.370385
  0
POINT
  8
寸法
 62
     0
 10
-134.25991
 20
44.370385
  0
POINT
  8
寸法
 62
     0
 10
-134.259912
 20
9.370385
  0
TEXT
  7
TextStyle03
  8
寸法
  6
CONTINUOUS
 62
     0
 10
-134.65
 20
24.4375
  1
700
 40
3.0
 50
90.0
 72
     5
 11
-134.65
 21
29.3125
  0
ENDBLK
  0
BLOCK
  2
*DIM_0045
 70
    65
 10
0.0
 20
0.0
  0
LINE
  8
寸法
  6
BYBLOCK
 62
     0
 10
101.504785
 20
77.557477
 11
101.504785
 21
85.255945
  0
LINE
  8
寸法
  6
BYBLOCK
 62
     0
 10
167.304785
 20
77.557477
 11
167.304785
 21
85.255945
  0
LINE
  8
寸法
  6
BYBLOCK
 62
     0
 10
101.504785
 20
85.255945
 11
167.304785
 21
85.255945
  0
POINT
  8
寸法
 62
     0
 10
101.504785
 20
85.255945
  0
POINT
  8
寸法
 62
     0
 10
167.304785
 20
85.255945
  0
TEXT
  7
TextStyle03
  8
寸法
  6
CONTINUOUS
 62
     0
 10
131.11875
 20
85.625
  1
1316
 40
3.0
 72
     5
 11
137.68125
 21
85.625
  0
ENDBLK
  0
BLOCK
  2
*DIM_0046
 70
    65
 10
0.0
 20
0.0
  0
LINE
  8
寸法
  6
BYBLOCK
 62
     0
 10
170.304785
 20
74.557477
 11
180.193265
 21
74.557477
  0
LINE
  8
寸法
  6
BYBLOCK
 62
     0
 10
170.304785
 20
8.757477
 11
180.193265
 21
8.757477
  0
LINE
  8
寸法
  6
BYBLOCK
 62
     0
 10
180.193265
 20
74.557477
 11
180.193265
 21
8.757477
  0
POINT
  8
寸法
 62
     0
 10
180.193265
 20
74.557477
  0
POINT
  8
寸法
 62
     0
 10
180.193265
 20
8.757477
  0
TEXT
  7
TextStyle03
  8
寸法
  6
CONTINUOUS
 62
     0
 10
179.8
 20
38.36875
  1
1316
 40
3.0
 50
90.0
 72
     5
 11
179.8
 21
44.93125
  0
ENDBLK
  0
BLOCK
  2
*GRP_0047
 70
    65
 10
0.0
 20
0.0
  0
LINE
  8
ボルト／ビス
  6
CONTINUOUS
 10
-29.755933
 20
-69.569875
 11
-29.755933
 21
-68.869875
  0
LINE
  8
ボルト／ビス
  6
CONTINUOUS
 10
-29.205933
 20
-69.569875
 11
-29.205933
 21
-69.469875
  0
LINE
  8
ボルト／ビス
  6
CONTINUOUS
 10
-29.205933
 20
-69.469875
 11
-30.305933
 21
-69.469875
  0
LINE
  8
ボルト／ビス
  6
CONTINUOUS
 10
-30.305933
 20
-69.469875
 11
-30.305933
 21
-69.569875
  0
LINE
  8
ボルト／ビス
  6
CONTINUOUS
 10
-29.205933
 20
-69.569875
 11
-30.305933
 21
-69.569875
  0
LINE
  8
ボルト／ビス
  6
CONTINUOUS
 10
-29.305933
 20
-69.419875
 11
-29.305933
 21
-69.469875
  0
LINE
  8
ボルト／ビス
  6
CONTINUOUS
 10
-29.305933
 20
-69.419875
 11
-30.205933
 21
-69.419875
  0
LINE
  8
ボルト／ビス
  6
CONTINUOUS
 10
-30.205933
 20
-69.419875
 11
-30.205933
 21
-69.469875
  0
LINE
  8
ボルト／ビス
  6
CONTINUOUS
 62
    64
 10
-29.51537
 20
-69.119875
 11
-29.467257
 21
-69.137388
  0
ARC
  8
ボルト／ビス
  6
CONTINUOUS
 62
    64
 10
-29.539427
 20
-69.277344
 40
0.157468
 50
90.0
 51
117.278033
  0
ARC
  8
ボルト／ビス
  6
CONTINUOUS
 62
    64
 10
-29.755933
 20
-69.72348
 40
0.603603
 50
76.165015
 51
103.834998
  0
LINE
  8
ボルト／ビス
  6
CONTINUOUS
 62
    64
 10
-29.996495
 20
-69.119875
 11
-30.044607
 21
-69.137388
  0
ARC
  8
ボルト／ビス
  6
CONTINUOUS
 62
    64
 10
-29.972439
 20
-69.277344
 40
0.157468
 50
62.721967
 51
90.0
  0
LINE
  8
ボルト／ビス
  6
CONTINUOUS
 62
    64
 10
-29.51537
 20
-69.119875
 11
-29.996495
 21
-69.119875
  0
LINE
  8
ボルト／ビス
  6
CONTINUOUS
 62
    64
 10
-30.044607
 20
-69.137388
 11
-30.044607
 21
-69.319875
  0
LINE
  8
ボルト／ビス
  6
CONTINUOUS
 62
    64
 10
-29.90027
 20
-69.137388
 11
-29.90027
 21
-69.319875
  0
LINE
  8
ボルト／ビス
  6
CONTINUOUS
 62
    64
 10
-29.467257
 20
-69.137388
 11
-29.467257
 21
-69.319875
  0
LINE
  8
ボルト／ビス
  6
CONTINUOUS
 62
    64
 10
-29.611595
 20
-69.137388
 11
-29.611595
 21
-69.319875
  0
LINE
  8
ボルト／ビス
  6
CONTINUOUS
 10
-29.467257
 20
-69.319875
 11
-30.044607
 21
-69.319875
  0
LINE
  8
ボルト／ビス
  6
CONTINUOUS
 10
-29.455933
 20
-69.319875
 11
-29.455933
 21
-69.419875
  0
LINE
  8
ボルト／ビス
  6
CONTINUOUS
 10
-29.455933
 20
-69.319875
 11
-30.055933
 21
-69.319875
  0
LINE
  8
ボルト／ビス
  6
CONTINUOUS
 10
-30.055933
 20
-69.319875
 11
-30.055933
 21
-69.419875
  0
ENDBLK
  0
BLOCK
  2
*GRP_0048
 70
    65
 10
0.0
 20
0.0
  0
LINE
  8
ボルト／ビス
  6
CONTINUOUS
 10
-96.755937
 20
-69.569875
 11
-96.755937
 21
-68.869875
  0
LINE
  8
ボルト／ビス
  6
CONTINUOUS
 10
-96.205937
 20
-69.569875
 11
-96.205937
 21
-69.469875
  0
LINE
  8
ボルト／ビス
  6
CONTINUOUS
 10
-96.205937
 20
-69.469875
 11
-97.305937
 21
-69.469875
  0
LINE
  8
ボルト／ビス
  6
CONTINUOUS
 10
-97.305937
 20
-69.469875
 11
-97.305937
 21
-69.569875
  0
LINE
  8
ボルト／ビス
  6
CONTINUOUS
 10
-96.205937
 20
-69.569875
 11
-97.305937
 21
-69.569875
  0
LINE
  8
ボルト／ビス
  6
CONTINUOUS
 10
-96.305937
 20
-69.419875
 11
-96.305937
 21
-69.469875
  0
LINE
  8
ボルト／ビス
  6
CONTINUOUS
 10
-96.305937
 20
-69.419875
 11
-97.205937
 21
-69.419875
  0
LINE
  8
ボルト／ビス
  6
CONTINUOUS
 10
-97.205937
 20
-69.419875
 11
-97.205937
 21
-69.469875
  0
LINE
  8
ボルト／ビス
  6
CONTINUOUS
 62
    64
 10
-96.515375
 20
-69.119875
 11
-96.467263
 21
-69.137388
  0
ARC
  8
ボルト／ビス
  6
CONTINUOUS
 62
    64
 10
-96.539432
 20
-69.277344
 40
0.157468
 50
90.0
 51
117.278033
  0
ARC
  8
ボルト／ビス
  6
CONTINUOUS
 62
    64
 10
-96.755938
 20
-69.72348
 40
0.603603
 50
76.165015
 51
103.834998
  0
LINE
  8
ボルト／ビス
  6
CONTINUOUS
 62
    64
 10
-96.9965
 20
-69.119875
 11
-97.044613
 21
-69.137388
  0
ARC
  8
ボルト／ビス
  6
CONTINUOUS
 62
    64
 10
-96.972444
 20
-69.277344
 40
0.157468
 50
62.721967
 51
90.0
  0
LINE
  8
ボルト／ビス
  6
CONTINUOUS
 62
    64
 10
-96.515375
 20
-69.119875
 11
-96.9965
 21
-69.119875
  0
LINE
  8
ボルト／ビス
  6
CONTINUOUS
 62
    64
 10
-97.044613
 20
-69.137388
 11
-97.044613
 21
-69.319875
  0
LINE
  8
ボルト／ビス
  6
CONTINUOUS
 62
    64
 10
-96.900275
 20
-69.137388
 11
-96.900275
 21
-69.319875
  0
LINE
  8
ボルト／ビス
  6
CONTINUOUS
 62
    64
 10
-96.467263
 20
-69.137388
 11
-96.467263
 21
-69.319875
  0
LINE
  8
ボルト／ビス
  6
CONTINUOUS
 62
    64
 10
-96.6116
 20
-69.137388
 11
-96.6116
 21
-69.319875
  0
LINE
  8
ボルト／ビス
  6
CONTINUOUS
 10
-96.467263
 20
-69.319875
 11
-97.044613
 21
-69.319875
  0
LINE
  8
ボルト／ビス
  6
CONTINUOUS
 10
-96.455937
 20
-69.319875
 11
-96.455937
 21
-69.419875
  0
LINE
  8
ボルト／ビス
  6
CONTINUOUS
 10
-96.455937
 20
-69.319875
 11
-97.055937
 21
-69.319875
  0
LINE
  8
ボルト／ビス
  6
CONTINUOUS
 10
-97.055937
 20
-69.319875
 11
-97.055937
 21
-69.419875
  0
ENDBLK
  0
BLOCK
  2
*GRP_0049
 70
    65
 10
0.0
 20
0.0
  0
LINE
  8
ボルト／ビス
  6
CONTINUOUS
 10
62.470455
 20
-69.569875
 11
62.470455
 21
-68.869875
  0
LINE
  8
ボルト／ビス
  6
CONTINUOUS
 10
63.020455
 20
-69.569875
 11
63.020455
 21
-69.469875
  0
LINE
  8
ボルト／ビス
  6
CONTINUOUS
 10
63.020455
 20
-69.469875
 11
61.920455
 21
-69.469875
  0
LINE
  8
ボルト／ビス
  6
CONTINUOUS
 10
61.920455
 20
-69.469875
 11
61.920455
 21
-69.569875
  0
LINE
  8
ボルト／ビス
  6
CONTINUOUS
 10
63.020455
 20
-69.569875
 11
61.920455
 21
-69.569875
  0
LINE
  8
ボルト／ビス
  6
CONTINUOUS
 10
62.920455
 20
-69.419875
 11
62.920455
 21
-69.469875
  0
LINE
  8
ボルト／ビス
  6
CONTINUOUS
 10
62.920455
 20
-69.419875
 11
62.020455
 21
-69.419875
  0
LINE
  8
ボルト／ビス
  6
CONTINUOUS
 10
62.020455
 20
-69.419875
 11
62.020455
 21
-69.469875
  0
LINE
  8
ボルト／ビス
  6
CONTINUOUS
 62
    64
 10
62.711017
 20
-69.119875
 11
62.75913
 21
-69.137388
  0
ARC
  8
ボルト／ビス
  6
CONTINUOUS
 62
    64
 10
62.686961
 20
-69.277344
 40
0.157468
 50
90.0
 51
117.278033
  0
ARC
  8
ボルト／ビス
  6
CONTINUOUS
 62
    64
 10
62.470454
 20
-69.72348
 40
0.603603
 50
76.165015
 51
103.834998
  0
LINE
  8
ボルト／ビス
  6
CONTINUOUS
 62
    64
 10
62.229892
 20
-69.119875
 11
62.18178
 21
-69.137388
  0
ARC
  8
ボルト／ビス
  6
CONTINUOUS
 62
    64
 10
62.253948
 20
-69.277344
 40
0.157468
 50
62.721967
 51
90.0
  0
LINE
  8
ボルト／ビス
  6
CONTINUOUS
 62
    64
 10
62.711017
 20
-69.119875
 11
62.229892
 21
-69.119875
  0
LINE
  8
ボルト／ビス
  6
CONTINUOUS
 62
    64
 10
62.18178
 20
-69.137388
 11
62.18178
 21
-69.319875
  0
LINE
  8
ボルト／ビス
  6
CONTINUOUS
 62
    64
 10
62.326117
 20
-69.137388
 11
62.326117
 21
-69.319875
  0
LINE
  8
ボルト／ビス
  6
CONTINUOUS
 62
    64
 10
62.75913
 20
-69.137388
 11
62.75913
 21
-69.319875
  0
LINE
  8
ボルト／ビス
  6
CONTINUOUS
 62
    64
 10
62.614792
 20
-69.137388
 11
62.614792
 21
-69.319875
  0
LINE
  8
ボルト／ビス
  6
CONTINUOUS
 10
62.75913
 20
-69.319875
 11
62.18178
 21
-69.319875
  0
LINE
  8
ボルト／ビス
  6
CONTINUOUS
 10
62.770455
 20
-69.319875
 11
62.770455
 21
-69.419875
  0
LINE
  8
ボルト／ビス
  6
CONTINUOUS
 10
62.770455
 20
-69.319875
 11
62.170455
 21
-69.319875
  0
LINE
  8
ボルト／ビス
  6
CONTINUOUS
 10
62.170455
 20
-69.319875
 11
62.170455
 21
-69.419875
  0
ENDBLK
  0
BLOCK
  2
*GRP_0050
 70
    65
 10
0.0
 20
0.0
  0
LINE
  8
ボルト／ビス
  6
CONTINUOUS
 10
129.47046
 20
-69.569875
 11
129.47046
 21
-68.869875
  0
LINE
  8
ボルト／ビス
  6
CONTINUOUS
 10
130.02046
 20
-69.569875
 11
130.02046
 21
-69.469875
  0
LINE
  8
ボルト／ビス
  6
CONTINUOUS
 10
130.02046
 20
-69.469875
 11
128.92046
 21
-69.469875
  0
LINE
  8
ボルト／ビス
  6
CONTINUOUS
 10
128.92046
 20
-69.469875
 11
128.92046
 21
-69.569875
  0
LINE
  8
ボルト／ビス
  6
CONTINUOUS
 10
130.02046
 20
-69.569875
 11
128.92046
 21
-69.569875
  0
LINE
  8
ボルト／ビス
  6
CONTINUOUS
 10
129.92046
 20
-69.419875
 11
129.92046
 21
-69.469875
  0
LINE
  8
ボルト／ビス
  6
CONTINUOUS
 10
129.92046
 20
-69.419875
 11
129.02046
 21
-69.419875
  0
LINE
  8
ボルト／ビス
  6
CONTINUOUS
 10
129.02046
 20
-69.419875
 11
129.02046
 21
-69.469875
  0
LINE
  8
ボルト／ビス
  6
CONTINUOUS
 62
    64
 10
129.711023
 20
-69.119875
 11
129.759135
 21
-69.137388
  0
ARC
  8
ボルト／ビス
  6
CONTINUOUS
 62
    64
 10
129.686966
 20
-69.277344
 40
0.157468
 50
90.0
 51
117.278033
  0
ARC
  8
ボルト／ビス
  6
CONTINUOUS
 62
    64
 10
129.470459
 20
-69.72348
 40
0.603603
 50
76.165015
 51
103.834998
  0
LINE
  8
ボルト／ビス
  6
CONTINUOUS
 62
    64
 10
129.229897
 20
-69.119875
 11
129.181785
 21
-69.137388
  0
ARC
  8
ボルト／ビス
  6
CONTINUOUS
 62
    64
 10
129.253953
 20
-69.277344
 40
0.157468
 50
62.721967
 51
90.0
  0
LINE
  8
ボルト／ビス
  6
CONTINUOUS
 62
    64
 10
129.711023
 20
-69.119875
 11
129.229897
 21
-69.119875
  0
LINE
  8
ボルト／ビス
  6
CONTINUOUS
 62
    64
 10
129.181785
 20
-69.137388
 11
129.181785
 21
-69.319875
  0
LINE
  8
ボルト／ビス
  6
CONTINUOUS
 62
    64
 10
129.326123
 20
-69.137388
 11
129.326123
 21
-69.319875
  0
LINE
  8
ボルト／ビス
  6
CONTINUOUS
 62
    64
 10
129.759135
 20
-69.137388
 11
129.759135
 21
-69.319875
  0
LINE
  8
ボルト／ビス
  6
CONTINUOUS
 62
    64
 10
129.614797
 20
-69.137388
 11
129.614797
 21
-69.319875
  0
LINE
  8
ボルト／ビス
  6
CONTINUOUS
 10
129.759135
 20
-69.319875
 11
129.181785
 21
-69.319875
  0
LINE
  8
ボルト／ビス
  6
CONTINUOUS
 10
129.77046
 20
-69.319875
 11
129.77046
 21
-69.419875
  0
LINE
  8
ボルト／ビス
  6
CONTINUOUS
 10
129.77046
 20
-69.319875
 11
129.17046
 21
-69.319875
  0
LINE
  8
ボルト／ビス
  6
CONTINUOUS
 10
129.17046
 20
-69.319875
 11
129.17046
 21
-69.419875
  0
ENDBLK
  0
BLOCK
  2
*GRP_0051
 70
    65
 10
0.0
 20
0.0
  0
LINE
  8
ボルト／ビス
  6
DOT
 10
57.601113
 20
-68.264567
 11
57.106137
 21
-67.769593
  0
LINE
  8
ボルト／ビス
  6
DOT
 10
57.99002
 20
-67.875658
 11
57.91931
 21
-67.804947
  0
LINE
  8
ボルト／ビス
  6
DOT
 10
57.91931
 20
-67.804947
 11
57.141492
 21
-68.582765
  0
LINE
  8
ボルト／ビス
  6
DOT
 10
57.141492
 20
-68.582765
 11
57.212203
 21
-68.653475
  0
LINE
  8
ボルト／ビス
  6
DOT
 10
57.99002
 20
-67.875658
 11
57.212203
 21
-68.653475
  0
LINE
  8
ボルト／ビス
  6
DOT
 10
57.813245
 20
-67.840302
 11
57.8486
 21
-67.875658
  0
LINE
  8
ボルト／ビス
  6
DOT
 10
57.813245
 20
-67.840302
 11
57.176848
 21
-68.476697
  0
LINE
  8
ボルト／ビス
  6
DOT
 10
57.176848
 20
-68.476697
 11
57.212203
 21
-68.512053
  0
LINE
  8
ボルト／ビス
  6
DOT
 62
    64
 10
57.453017
 20
-67.776265
 11
57.499423
 21
-67.754627
  0
ARC
  8
ボルト／ビス
  6
DOT
 62
    64
 10
57.547356
 20
-67.904623
 40
0.157468
 50
134.999997
 51
162.27803
  0
ARC
  8
ボルト／ビス
  6
DOT
 62
    64
 10
57.709728
 20
-68.373182
 40
0.603603
 50
121.165012
 51
148.834995
  0
LINE
  8
ボルト／ビス
  6
DOT
 62
    64
 10
57.11281
 20
-68.116472
 11
57.091172
 21
-68.162875
  0
ARC
  8
ボルト／ビス
  6
DOT
 62
    64
 10
57.241169
 20
-68.210809
 40
0.157468
 50
107.721964
 51
134.999997
  0
LINE
  8
ボルト／ビス
  6
DOT
 62
    64
 10
57.453017
 20
-67.776265
 11
57.11281
 21
-68.116472
  0
LINE
  8
ボルト／ビス
  6
DOT
 62
    64
 10
57.091172
 20
-68.162875
 11
57.220212
 21
-68.291913
  0
LINE
  8
ボルト／ビス
  6
DOT
 62
    64
 10
57.193235
 20
-68.060812
 11
57.322272
 21
-68.189852
  0
LINE
  8
ボルト／ビス
  6
DOT
 62
    64
 10
57.499423
 20
-67.754627
 11
57.62846
 21
-67.883665
  0
LINE
  8
ボルト／ビス
  6
DOT
 62
    64
 10
57.39736
 20
-67.85669
 11
57.526397
 21
-67.985728
  0
LINE
  8
ボルト／ビス
  6
DOT
 10
57.62846
 20
-67.883665
 11
57.220212
 21
-68.291913
  0
LINE
  8
ボルト／ビス
  6
DOT
 10
57.636468
 20
-67.875658
 11
57.707178
 21
-67.946367
  0
LINE
  8
ボルト／ビス
  6
DOT
 10
57.636468
 20
-67.875658
 11
57.212203
 21
-68.299922
  0
LINE
  8
ボルト／ビス
  6
DOT
 10
57.212203
 20
-68.299922
 11
57.282915
 21
-68.370633
  0
ENDBLK
  0
BLOCK
  2
*GRP_0052
 70
    65
 10
0.0
 20
0.0
  0
LINE
  8
ボルト／ビス
  6
DOT
 10
104.97727
 20
-20.88841
 11
104.482295
 21
-20.393435
  0
LINE
  8
ボルト／ビス
  6
DOT
 10
105.366178
 20
-20.4995
 11
105.295468
 21
-20.42879
  0
LINE
  8
ボルト／ビス
  6
DOT
 10
105.295468
 20
-20.42879
 11
104.51765
 21
-21.206607
  0
LINE
  8
ボルト／ビス
  6
DOT
 10
104.51765
 20
-21.206607
 11
104.58836
 21
-21.277318
  0
LINE
  8
ボルト／ビス
  6
DOT
 10
105.366178
 20
-20.4995
 11
104.58836
 21
-21.277318
  0
LINE
  8
ボルト／ビス
  6
DOT
 10
105.189402
 20
-20.464145
 11
105.224757
 21
-20.4995
  0
LINE
  8
ボルト／ビス
  6
DOT
 10
105.189402
 20
-20.464145
 11
104.553005
 21
-21.10054
  0
LINE
  8
ボルト／ビス
  6
DOT
 10
104.553005
 20
-21.10054
 11
104.58836
 21
-21.135895
  0
LINE
  8
ボルト／ビス
  6
DOT
 62
    64
 10
104.829175
 20
-20.400108
 11
104.87558
 21
-20.37847
  0
ARC
  8
ボルト／ビス
  6
DOT
 62
    64
 10
104.923513
 20
-20.528465
 40
0.157468
 50
134.999997
 51
162.27803
  0
ARC
  8
ボルト／ビス
  6
DOT
 62
    64
 10
105.085885
 20
-20.997024
 40
0.603603
 50
121.165012
 51
148.834995
  0
LINE
  8
ボルト／ビス
  6
DOT
 62
    64
 10
104.488968
 20
-20.740315
 11
104.46733
 21
-20.786718
  0
ARC
  8
ボルト／ビス
  6
DOT
 62
    64
 10
104.617326
 20
-20.834651
 40
0.157468
 50
107.721964
 51
134.999997
  0
LINE
  8
ボルト／ビス
  6
DOT
 62
    64
 10
104.829175
 20
-20.400108
 11
104.488968
 21
-20.740315
  0
LINE
  8
ボルト／ビス
  6
DOT
 62
    64
 10
104.46733
 20
-20.786718
 11
104.59637
 21
-20.915755
  0
LINE
  8
ボルト／ビス
  6
DOT
 62
    64
 10
104.569392
 20
-20.684655
 11
104.69843
 21
-20.813695
  0
LINE
  8
ボルト／ビス
  6
DOT
 62
    64
 10
104.87558
 20
-20.37847
 11
105.004617
 21
-20.507507
  0
LINE
  8
ボルト／ビス
  6
DOT
 62
    64
 10
104.773517
 20
-20.480533
 11
104.902555
 21
-20.60957
  0
LINE
  8
ボルト／ビス
  6
DOT
 10
105.004617
 20
-20.507507
 11
104.59637
 21
-20.915755
  0
LINE
  8
ボルト／ビス
  6
DOT
 10
105.012625
 20
-20.4995
 11
105.083335
 21
-20.57021
  0
LINE
  8
ボルト／ビス
  6
DOT
 10
105.012625
 20
-20.4995
 11
104.58836
 21
-20.923765
  0
LINE
  8
ボルト／ビス
  6
DOT
 10
104.58836
 20
-20.923765
 11
104.659073
 21
-20.994475
  0
ENDBLK
  0
ENDSEC
  0
SECTION
  2
ENTITIES
  0
POLYLINE
  8
通り芯
  6
CONTINUOUS
 66
     1
 70
     1
  0
VERTEX
  8
通り芯
 10
-210.0
 20
-148.5
  0
VERTEX
  8
通り芯
 10
210.0
 20
-148.5
  0
VERTEX
  8
通り芯
 10
210.0
 20
148.5
  0
VERTEX
  8
通り芯
 10
-210.0
 20
148.5
  0
SEQEND
  0
INSERT
  2
*GRP_0001
  8
型材断面
  6
CONTINUOUS
 10
0.0
 20
0.0
  0
LINE
  8
型材断面
  6
DASHDOT
 10
-30.755937
 20
-85.083888
 11
-30.755937
 21
59.370383
  0
LINE
  8
型材断面
  6
DASHDOT
 10
-95.755937
 20
-85.083888
 11
-95.755937
 21
59.370383
  0
LINE
  8
型材断面
  6
CONTINUOUS
 10
-22.732063
 20
26.870383
 11
-18.846303
 21
24.626937
  0
LINE
  8
型材断面
  6
CONTINUOUS
 10
-22.732063
 20
26.870383
 11
-18.846303
 21
29.113827
  0
LINE
  8
型材断面
  6
CONTINUOUS
 10
-18.846303
 20
29.113827
 11
-18.846303
 21
24.626937
  0
LINE
  8
型材断面
  6
CONTINUOUS
 10
-63.255937
 20
67.394257
 11
-65.499382
 21
71.280018
  0
LINE
  8
型材断面
  6
CONTINUOUS
 10
-63.255937
 20
67.394257
 11
-61.012493
 21
71.280018
  0
LINE
  8
型材断面
  6
CONTINUOUS
 10
-61.012493
 20
71.280018
 11
-65.499382
 21
71.280018
  0
LINE
  8
型材断面
  6
CONTINUOUS
 10
-63.255937
 20
-13.653492
 11
-65.499382
 21
-17.539253
  0
LINE
  8
型材断面
  6
CONTINUOUS
 10
-63.255937
 20
-13.653492
 11
-61.012493
 21
-17.539253
  0
LINE
  8
型材断面
  6
CONTINUOUS
 10
-61.012493
 20
-17.539253
 11
-65.499382
 21
-17.539253
  0
LINE
  8
型材断面
  6
CONTINUOUS
 10
-103.779813
 20
26.870383
 11
-107.665572
 21
24.626937
  0
LINE
  8
型材断面
  6
CONTINUOUS
 10
-103.779813
 20
26.870383
 11
-107.665572
 21
29.113827
  0
LINE
  8
型材断面
  6
CONTINUOUS
 10
-107.665572
 20
29.113827
 11
-107.665572
 21
24.626937
  0
LINE
  8
型材断面
  6
CONTINUOUS
 10
4.930422
 20
-11.415415
 11
2.686977
 21
-15.301175
  0
LINE
  8
型材断面
  6
CONTINUOUS
 10
4.930422
 20
-11.415415
 11
7.173868
 21
-15.301175
  0
LINE
  8
型材断面
  6
CONTINUOUS
 10
7.173868
 20
-15.301175
 11
2.686977
 21
-15.301175
  0
LINE
  8
型材断面
  6
CONTINUOUS
 10
4.930422
 20
-19.104962
 11
5.824508
 21
-22.990722
  0
LINE
  8
型材断面
  6
CONTINUOUS
 10
4.930422
 20
-19.104962
 11
4.036338
 21
-22.990722
  0
LINE
  8
型材断面
  6
CONTINUOUS
 10
4.036338
 20
-22.990722
 11
5.824508
 21
-22.990722
  0
LINE
  8
型材断面
  6
CONTINUOUS
 10
-4.103457
 20
-16.709068
 11
48.553223
 21
-16.709068
  0
LINE
  8
型材断面
  6
CONTINUOUS
 10
-4.103457
 20
-27.90906
 11
48.553223
 21
-27.90906
  0
LINE
  8
型材断面
  6
CONTINUOUS
 10
-4.103457
 20
-34.749005
 11
48.553223
 21
-34.749005
  0
LINE
  8
型材断面
  6
DASHDOT
 10
-63.255937
 20
-85.083888
 11
-63.255937
 21
59.370383
  0
LINE
  8
型材断面
  6
DASHDOT
 10
-95.755937
 20
26.870383
 11
-30.755937
 21
26.870383
  0
LINE
  8
型材断面
  6
DASHDOT
 10
-95.755937
 20
59.370383
 11
-30.755937
 21
59.370383
  0
LINE
  8
型材断面
  6
DASHDOT
 10
-95.755937
 20
-5.629618
 11
-30.755937
 21
-5.629618
  0
LINE
  8
型材断面
  6
CONTINUOUS
 62
    47
 10
-97.325978
 20
-74.72005
 11
-98.406297
 21
-74.72005
  0
LINE
  8
型材断面
  6
CONTINUOUS
 62
    47
 10
-98.341252
 20
-72.78007
 11
-98.356253
 21
-72.76507
  0
LINE
  8
型材断面
  6
CONTINUOUS
 62
    47
 10
-98.341252
 20
-72.78007
 11
-98.356253
 21
-72.79507
  0
LINE
  8
型材断面
  6
CONTINUOUS
 62
    47
 10
-98.341252
 20
-73.743418
 11
-98.356253
 21
-73.728417
  0
LINE
  8
型材断面
  6
CONTINUOUS
 62
    47
 10
-98.341252
 20
-73.743418
 11
-98.356253
 21
-73.758417
  0
LINE
  8
型材断面
  6
CONTINUOUS
 62
    47
 10
-98.356253
 20
-74.370095
 11
-98.356253
 21
-73.758417
  0
LINE
  8
型材断面
  6
CONTINUOUS
 62
    47
 10
-98.356253
 20
-73.728417
 11
-98.356253
 21
-72.79507
  0
LINE
  8
型材断面
  6
CONTINUOUS
 62
    47
 10
-100.605992
 20
-79.820225
 11
-100.605992
 21
-79.320225
  0
LINE
  8
型材断面
  6
CONTINUOUS
 62
    47
 10
-97.70625
 20
-78.320223
 11
-96.81098
 21
-78.320223
  0
LINE
  8
型材断面
  6
CONTINUOUS
 62
    47
 10
-98.05598
 20
-78.320202
 11
-101.35598
 21
-78.570225
  0
LINE
  8
型材断面
  6
CONTINUOUS
 62
    47
 10
-101.35598
 20
-79.320225
 11
-101.35598
 21
-78.570225
  0
LINE
  8
型材断面
  6
CONTINUOUS
 62
    47
 10
-100.25598
 20
-74.470082
 11
-100.25598
 21
-74.72005
  0
LINE
  8
型材断面
  6
CONTINUOUS
 62
    47
 10
-100.25598
 20
-75.120038
 11
-100.25598
 21
-74.920063
  0
LINE
  8
型材断面
  6
CONTINUOUS
 62
    47
 10
-98.356253
 20
-74.370095
 11
-100.26601
 21
-74.470082
  0
LINE
  8
型材断面
  6
CONTINUOUS
 62
    47
 10
-98.05598
 20
-75.120038
 11
-98.05598
 21
-78.320223
  0
LINE
  8
型材断面
  6
CONTINUOUS
 62
    47
 10
-98.356253
 20
-72.76507
 11
-98.356253
 21
-71.069873
  0
LINE
  8
型材断面
  6
CONTINUOUS
 62
    47
 10
-100.25598
 20
-75.120038
 11
-63.255937
 21
-75.120038
  0
LINE
  8
型材断面
  6
CONTINUOUS
 10
-100.25598
 20
-74.470082
 11
-63.255937
 21
-74.470082
  0
LINE
  8
型材断面
  6
CONTINUOUS
 10
-98.356253
 20
-74.370095
 11
-63.255937
 21
-74.370095
  0
LINE
  8
型材断面
  6
CONTINUOUS
 62
    47
 10
-100.25598
 20
-74.920063
 11
-63.255937
 21
-74.920063
  0
LINE
  8
型材断面
  6
CONTINUOUS
 62
    47
 10
-100.25598
 20
-74.72005
 11
-63.255937
 21
-74.72005
  0
LINE
  8
型材断面
  6
CONTINUOUS
 10
-98.05598
 20
-78.320223
 11
-63.255937
 21
-78.320223
  0
LINE
  8
型材断面
  6
CONTINUOUS
 10
-101.35598
 20
-78.570225
 11
-63.255937
 21
-78.570225
  0
LINE
  8
型材断面
  6
CONTINUOUS
 10
-101.35598
 20
-79.320225
 11
-63.255937
 21
-79.320225
  0
LINE
  8
型材断面
  6
CONTINUOUS
 10
-100.605992
 20
-79.820225
 11
-63.255937
 21
-79.820225
  0
LINE
  8
型材断面
  6
CONTINUOUS
 62
    47
 10
-29.185898
 20
-74.72005
 11
-28.105577
 21
-74.72005
  0
LINE
  8
型材断面
  6
CONTINUOUS
 62
    47
 10
-28.170622
 20
-72.78007
 11
-28.155623
 21
-72.76507
  0
LINE
  8
型材断面
  6
CONTINUOUS
 62
    47
 10
-28.170622
 20
-72.78007
 11
-28.155623
 21
-72.79507
  0
LINE
  8
型材断面
  6
CONTINUOUS
 62
    47
 10
-28.170622
 20
-73.743418
 11
-28.155623
 21
-73.728417
  0
LINE
  8
型材断面
  6
CONTINUOUS
 62
    47
 10
-28.170622
 20
-73.743418
 11
-28.155623
 21
-73.758417
  0
LINE
  8
型材断面
  6
CONTINUOUS
 62
    47
 10
-28.155623
 20
-74.370095
 11
-28.155623
 21
-73.758417
  0
LINE
  8
型材断面
  6
CONTINUOUS
 62
    47
 10
-28.155623
 20
-73.728417
 11
-28.155623
 21
-72.79507
  0
LINE
  8
型材断面
  6
CONTINUOUS
 62
    47
 10
-25.905883
 20
-79.820225
 11
-25.905883
 21
-79.320225
  0
LINE
  8
型材断面
  6
CONTINUOUS
 62
    47
 10
-28.805625
 20
-78.320223
 11
-29.700895
 21
-78.320223
  0
LINE
  8
型材断面
  6
CONTINUOUS
 62
    47
 10
-28.455895
 20
-78.320202
 11
-25.155895
 21
-78.570225
  0
LINE
  8
型材断面
  6
CONTINUOUS
 62
    47
 10
-25.155895
 20
-79.320225
 11
-25.155895
 21
-78.570225
  0
LINE
  8
型材断面
  6
CONTINUOUS
 62
    47
 10
-26.255895
 20
-74.470082
 11
-26.255895
 21
-74.72005
  0
LINE
  8
型材断面
  6
CONTINUOUS
 62
    47
 10
-26.255895
 20
-75.120038
 11
-26.255895
 21
-74.920063
  0
LINE
  8
型材断面
  6
CONTINUOUS
 62
    47
 10
-28.155623
 20
-74.370095
 11
-26.245865
 21
-74.470082
  0
LINE
  8
型材断面
  6
CONTINUOUS
 62
    47
 10
-28.455895
 20
-75.120038
 11
-28.455895
 21
-78.320223
  0
LINE
  8
型材断面
  6
CONTINUOUS
 62
    47
 10
-28.155623
 20
-72.76507
 11
-28.155623
 21
-71.069873
  0
LINE
  8
型材断面
  6
CONTINUOUS
 62
    47
 10
-26.255895
 20
-75.120038
 11
-63.255937
 21
-75.120038
  0
LINE
  8
型材断面
  6
CONTINUOUS
 10
-26.255895
 20
-74.470082
 11
-63.255937
 21
-74.470082
  0
LINE
  8
型材断面
  6
CONTINUOUS
 10
-28.155623
 20
-74.370095
 11
-63.255937
 21
-74.370095
  0
LINE
  8
型材断面
  6
CONTINUOUS
 62
    47
 10
-26.255895
 20
-74.920063
 11
-63.255937
 21
-74.920063
  0
LINE
  8
型材断面
  6
CONTINUOUS
 62
    47
 10
-26.255895
 20
-74.72005
 11
-63.255937
 21
-74.72005
  0
LINE
  8
型材断面
  6
CONTINUOUS
 10
-28.455895
 20
-78.320223
 11
-63.255937
 21
-78.320223
  0
LINE
  8
型材断面
  6
CONTINUOUS
 10
-25.155895
 20
-78.570225
 11
-63.255937
 21
-78.570225
  0
LINE
  8
型材断面
  6
CONTINUOUS
 10
-25.155895
 20
-79.320225
 11
-63.255937
 21
-79.320225
  0
LINE
  8
型材断面
  6
CONTINUOUS
 10
-25.905883
 20
-79.820225
 11
-63.255937
 21
-79.820225
  0
LINE
  8
型材断面
  6
CONTINUOUS
 10
-98.855937
 20
-8.729618
 11
-101.35598
 21
-11.22966
  0
LINE
  8
型材断面
  6
CONTINUOUS
 10
-100.25598
 20
-10.12966
 11
-63.255937
 21
-10.12966
  0
LINE
  8
型材断面
  6
CONTINUOUS
 10
-101.35598
 20
-11.22966
 11
-63.255937
 21
-11.22966
  0
LINE
  8
型材断面
  6
CONTINUOUS
 10
-101.35598
 20
-11.22966
 11
-101.35598
 21
26.870383
  0
LINE
  8
型材断面
  6
CONTINUOUS
 10
-100.25598
 20
-10.12966
 11
-100.25598
 21
26.870383
  0
LINE
  8
型材断面
  6
CONTINUOUS
 10
-27.655937
 20
-8.729618
 11
-25.155895
 21
-11.22966
  0
LINE
  8
型材断面
  6
CONTINUOUS
 10
-26.255895
 20
-10.12966
 11
-63.255937
 21
-10.12966
  0
LINE
  8
型材断面
  6
CONTINUOUS
 10
-25.155895
 20
-11.22966
 11
-63.255937
 21
-11.22966
  0
LINE
  8
型材断面
  6
CONTINUOUS
 10
-25.155895
 20
-11.22966
 11
-25.155895
 21
26.870383
  0
LINE
  8
型材断面
  6
CONTINUOUS
 10
-26.255895
 20
-10.12966
 11
-26.255895
 21
26.870383
  0
LINE
  8
型材断面
  6
CONTINUOUS
 10
-27.655937
 20
62.470383
 11
-25.155895
 21
64.970425
  0
LINE
  8
型材断面
  6
CONTINUOUS
 10
-26.255895
 20
63.870425
 11
-63.255937
 21
63.870425
  0
LINE
  8
型材断面
  6
CONTINUOUS
 10
-25.155895
 20
64.970425
 11
-63.255937
 21
64.970425
  0
LINE
  8
型材断面
  6
CONTINUOUS
 10
-25.155895
 20
64.970425
 11
-25.155895
 21
26.870383
  0
LINE
  8
型材断面
  6
CONTINUOUS
 10
-26.255895
 20
63.870425
 11
-26.255895
 21
26.870383
  0
LINE
  8
型材断面
  6
CONTINUOUS
 10
-98.855937
 20
62.470383
 11
-101.35598
 21
64.970425
  0
LINE
  8
型材断面
  6
CONTINUOUS
 10
-100.25598
 20
63.870425
 11
-63.255937
 21
63.870425
  0
LINE
  8
型材断面
  6
CONTINUOUS
 10
-101.35598
 20
64.970425
 11
-63.255937
 21
64.970425
  0
LINE
  8
型材断面
  6
CONTINUOUS
 10
-101.35598
 20
64.970425
 11
-101.35598
 21
26.870383
  0
LINE
  8
型材断面
  6
CONTINUOUS
 10
-100.25598
 20
63.870425
 11
-100.25598
 21
26.870383
  0
LINE
  8
型材断面
  6
CONTINUOUS
 62
    47
 10
61.900415
 20
-74.72005
 11
60.820095
 21
-74.72005
  0
LINE
  8
型材断面
  6
CONTINUOUS
 62
    47
 10
60.88514
 20
-72.78007
 11
60.87014
 21
-72.76507
  0
LINE
  8
型材断面
  6
CONTINUOUS
 62
    47
 10
60.88514
 20
-72.78007
 11
60.87014
 21
-72.79507
  0
LINE
  8
型材断面
  6
CONTINUOUS
 62
    47
 10
60.88514
 20
-73.743418
 11
60.87014
 21
-73.728417
  0
LINE
  8
型材断面
  6
CONTINUOUS
 62
    47
 10
60.88514
 20
-73.743418
 11
60.87014
 21
-73.758417
  0
LINE
  8
型材断面
  6
CONTINUOUS
 62
    47
 10
60.87014
 20
-74.370095
 11
60.87014
 21
-73.758417
  0
LINE
  8
型材断面
  6
CONTINUOUS
 62
    47
 10
60.87014
 20
-73.728417
 11
60.87014
 21
-72.79507
  0
LINE
  8
型材断面
  6
CONTINUOUS
 62
    47
 10
58.6204
 20
-79.820225
 11
58.6204
 21
-79.320225
  0
LINE
  8
型材断面
  6
CONTINUOUS
 62
    47
 10
61.520142
 20
-78.320223
 11
62.415412
 21
-78.320223
  0
LINE
  8
型材断面
  6
CONTINUOUS
 62
    47
 10
61.170413
 20
-78.320202
 11
57.870413
 21
-78.570225
  0
LINE
  8
型材断面
  6
CONTINUOUS
 62
    47
 10
57.870413
 20
-79.320225
 11
57.870413
 21
-78.570225
  0
LINE
  8
型材断面
  6
CONTINUOUS
 62
    47
 10
58.970413
 20
-74.470082
 11
58.970413
 21
-74.72005
  0
LINE
  8
型材断面
  6
CONTINUOUS
 62
    47
 10
58.970413
 20
-75.120038
 11
58.970413
 21
-74.920063
  0
LINE
  8
型材断面
  6
CONTINUOUS
 62
    47
 10
60.87014
 20
-74.370095
 11
58.960383
 21
-74.470082
  0
LINE
  8
型材断面
  6
CONTINUOUS
 62
    47
 10
61.170413
 20
-75.120038
 11
61.170413
 21
-78.320223
  0
LINE
  8
型材断面
  6
CONTINUOUS
 62
    47
 10
60.87014
 20
-72.76507
 11
60.87014
 21
-71.069873
  0
LINE
  8
型材断面
  6
CONTINUOUS
 62
    47
 10
58.970413
 20
-75.120038
 11
95.970455
 21
-75.120038
  0
LINE
  8
型材断面
  6
CONTINUOUS
 10
58.970413
 20
-74.470082
 11
95.970455
 21
-74.470082
  0
LINE
  8
型材断面
  6
CONTINUOUS
 10
60.87014
 20
-74.370095
 11
95.970455
 21
-74.370095
  0
LINE
  8
型材断面
  6
CONTINUOUS
 62
    47
 10
58.970413
 20
-74.920063
 11
95.970455
 21
-74.920063
  0
LINE
  8
型材断面
  6
CONTINUOUS
 62
    47
 10
58.970413
 20
-74.72005
 11
95.970455
 21
-74.72005
  0
LINE
  8
型材断面
  6
CONTINUOUS
 10
61.170413
 20
-78.320223
 11
95.970455
 21
-78.320223
  0
LINE
  8
型材断面
  6
CONTINUOUS
 10
57.870413
 20
-78.570225
 11
95.970455
 21
-78.570225
  0
LINE
  8
型材断面
  6
CONTINUOUS
 10
57.870413
 20
-79.320225
 11
95.970455
 21
-79.320225
  0
LINE
  8
型材断面
  6
CONTINUOUS
 10
58.6204
 20
-79.820225
 11
95.970455
 21
-79.820225
  0
LINE
  8
型材断面
  6
CONTINUOUS
 62
    47
 10
130.040495
 20
-74.72005
 11
131.120815
 21
-74.72005
  0
LINE
  8
型材断面
  6
CONTINUOUS
 62
    47
 10
131.05577
 20
-72.78007
 11
131.07077
 21
-72.76507
  0
LINE
  8
型材断面
  6
CONTINUOUS
 62
    47
 10
131.05577
 20
-72.78007
 11
131.07077
 21
-72.79507
  0
LINE
  8
型材断面
  6
CONTINUOUS
 62
    47
 10
131.05577
 20
-73.743418
 11
131.07077
 21
-73.728417
  0
LINE
  8
型材断面
  6
CONTINUOUS
 62
    47
 10
131.05577
 20
-73.743418
 11
131.07077
 21
-73.758417
  0
LINE
  8
型材断面
  6
CONTINUOUS
 62
    47
 10
131.07077
 20
-74.370095
 11
131.07077
 21
-73.758417
  0
LINE
  8
型材断面
  6
CONTINUOUS
 62
    47
 10
131.07077
 20
-73.728417
 11
131.07077
 21
-72.79507
  0
LINE
  8
型材断面
  6
CONTINUOUS
 62
    47
 10
133.32051
 20
-79.820225
 11
133.32051
 21
-79.320225
  0
LINE
  8
型材断面
  6
CONTINUOUS
 62
    47
 10
130.420767
 20
-78.320223
 11
129.525497
 21
-78.320223
  0
LINE
  8
型材断面
  6
CONTINUOUS
 62
    47
 10
130.770498
 20
-78.320202
 11
134.070498
 21
-78.570225
  0
LINE
  8
型材断面
  6
CONTINUOUS
 62
    47
 10
134.070498
 20
-79.320225
 11
134.070498
 21
-78.570225
  0
LINE
  8
型材断面
  6
CONTINUOUS
 62
    47
 10
132.970498
 20
-74.470082
 11
132.970498
 21
-74.72005
  0
LINE
  8
型材断面
  6
CONTINUOUS
 62
    47
 10
132.970498
 20
-75.120038
 11
132.970498
 21
-74.920063
  0
LINE
  8
型材断面
  6
CONTINUOUS
 62
    47
 10
131.07077
 20
-74.370095
 11
132.980528
 21
-74.470082
  0
LINE
  8
型材断面
  6
CONTINUOUS
 62
    47
 10
130.770498
 20
-75.120038
 11
130.770498
 21
-78.320223
  0
LINE
  8
型材断面
  6
CONTINUOUS
 62
    47
 10
131.07077
 20
-72.76507
 11
131.07077
 21
-71.069873
  0
LINE
  8
型材断面
  6
CONTINUOUS
 62
    47
 10
132.970498
 20
-75.120038
 11
95.970455
 21
-75.120038
  0
LINE
  8
型材断面
  6
CONTINUOUS
 10
132.970498
 20
-74.470082
 11
95.970455
 21
-74.470082
  0
LINE
  8
型材断面
  6
CONTINUOUS
 10
131.07077
 20
-74.370095
 11
95.970455
 21
-74.370095
  0
LINE
  8
型材断面
  6
CONTINUOUS
 62
    47
 10
132.970498
 20
-74.920063
 11
95.970455
 21
-74.920063
  0
LINE
  8
型材断面
  6
CONTINUOUS
 62
    47
 10
132.970498
 20
-74.72005
 11
95.970455
 21
-74.72005
  0
LINE
  8
型材断面
  6
CONTINUOUS
 10
130.770498
 20
-78.320223
 11
95.970455
 21
-78.320223
  0
LINE
  8
型材断面
  6
CONTINUOUS
 10
134.070498
 20
-78.570225
 11
95.970455
 21
-78.570225
  0
LINE
  8
型材断面
  6
CONTINUOUS
 10
134.070498
 20
-79.320225
 11
95.970455
 21
-79.320225
  0
LINE
  8
型材断面
  6
CONTINUOUS
 10
133.32051
 20
-79.820225
 11
95.970455
 21
-79.820225
  0
LINE
  8
型材断面
  6
DOT
 62
    47
 10
60.839758
 20
-72.30937
 11
60.075855
 21
-73.073272
  0
LINE
  8
型材断面
  6
DOT
 62
    47
 10
58.750075
 20
-71.655505
 11
58.728862
 21
-71.655505
  0
LINE
  8
型材断面
  6
DOT
 62
    47
 10
58.750075
 20
-71.655505
 11
58.750075
 21
-71.676717
  0
LINE
  8
型材断面
  6
DOT
 62
    47
 10
59.431265
 20
-72.336695
 11
59.410052
 21
-72.336695
  0
LINE
  8
型材断面
  6
DOT
 62
    47
 10
59.431265
 20
-72.336695
 11
59.431265
 21
-72.357907
  0
LINE
  8
型材断面
  6
DOT
 62
    47
 10
59.863788
 20
-72.790427
 11
59.431265
 21
-72.357907
  0
LINE
  8
型材断面
  6
DOT
 62
    47
 10
59.410052
 20
-72.336695
 11
58.750075
 21
-71.676717
  0
LINE
  8
型材断面
  6
DOT
 62
    47
 10
58.591178
 20
-74.20444
 11
58.767932
 21
-74.381195
  0
LINE
  8
型材断面
  6
DOT
 62
    47
 10
59.863788
 20
-72.790427
 11
58.584085
 21
-74.211532
  0
LINE
  8
型材断面
  6
DOT
 62
    47
 10
58.728862
 20
-71.655505
 11
57.530177
 21
-70.45682
  0
LINE
  8
型材断面
  6
DOT
 10
58.591178
 20
-74.20444
 11
84.75416
 21
-48.04146
  0
LINE
  8
型材断面
  6
DOT
 62
    47
 10
58.767932
 20
-74.381195
 11
84.930912
 21
-48.218213
  0
LINE
  8
型材断面
  6
DOT
 62
    47
 10
109.02207
 20
-24.127057
 11
109.78597
 21
-23.363155
  0
LINE
  8
型材断面
  6
DOT
 62
    47
 10
108.368205
 20
-22.037378
 11
108.368205
 21
-22.016162
  0
LINE
  8
型材断面
  6
DOT
 62
    47
 10
108.368205
 20
-22.037378
 11
108.389417
 21
-22.037378
  0
LINE
  8
型材断面
  6
DOT
 62
    47
 10
109.049395
 20
-22.718565
 11
109.049395
 21
-22.697353
  0
LINE
  8
型材断面
  6
DOT
 62
    47
 10
109.049395
 20
-22.718565
 11
109.070608
 21
-22.718565
  0
LINE
  8
型材断面
  6
DOT
 62
    47
 10
109.503127
 20
-23.151087
 11
109.070608
 21
-22.718565
  0
LINE
  8
型材断面
  6
DOT
 62
    47
 10
109.049395
 20
-22.697353
 11
108.389417
 21
-22.037378
  0
LINE
  8
型材断面
  6
DOT
 62
    47
 10
110.91714
 20
-21.87848
 11
111.093895
 21
-22.055232
  0
LINE
  8
型材断面
  6
DOT
 62
    47
 10
109.503127
 20
-23.151087
 11
110.924232
 21
-21.871388
  0
LINE
  8
型材断面
  6
DOT
 62
    47
 10
108.368205
 20
-22.016162
 11
107.169518
 21
-20.817478
  0
LINE
  8
型材断面
  6
DOT
 10
110.91714
 20
-21.87848
 11
84.75416
 21
-48.04146
  0
LINE
  8
型材断面
  6
DOT
 10
109.503127
 20
-23.151087
 11
84.683458
 21
-47.970758
  0
LINE
  8
型材断面
  6
DOT
 62
    47
 10
111.093895
 20
-22.055232
 11
84.930912
 21
-48.218213
  0
ARC
  8
型材断面
  6
DASHDOT
 10
58.460138
 20
-74.795038
 40
74.510397
 50
360.057663
 51
405.057662
  0
LINE
  8
型材断面
  6
CONTINUOUS
 10
-22.73206
 20
56.370383
 11
-18.8463
 21
55.476297
  0
LINE
  8
型材断面
  6
CONTINUOUS
 10
-22.73206
 20
56.370383
 11
-18.8463
 21
57.264467
  0
LINE
  8
型材断面
  6
CONTINUOUS
 10
-18.8463
 20
57.264467
 11
-18.8463
 21
55.476297
  0
LINE
  8
型材断面
  6
CONTINUOUS
 10
-22.73206
 20
-2.629618
 11
-18.8463
 21
-1.735533
  0
LINE
  8
型材断面
  6
CONTINUOUS
 10
-22.73206
 20
-2.629618
 11
-18.8463
 21
-3.523703
  0
LINE
  8
型材断面
  6
CONTINUOUS
 10
-18.8463
 20
-3.523703
 11
-18.8463
 21
-1.735533
  0
POLYLINE
  8
型材断面
  6
CONTINUOUS
 66
     1
 70
     1
  0
VERTEX
  8
型材断面
 10
-105.594575
 20
-72.018157
  0
VERTEX
  8
型材断面
 10
-119.190585
 20
-72.018157
  0
VERTEX
  8
型材断面
 10
-119.190585
 20
-77.311685
  0
VERTEX
  8
型材断面
 10
-105.594575
 20
-77.311685
  0
SEQEND
  0
POLYLINE
  8
型材断面
  6
DASHDOT
 66
     1
  0
VERTEX
  8
型材断面
 10
-30.755937
 20
59.370383
  0
VERTEX
  8
型材断面
 10
-95.755937
 20
26.870383
  0
VERTEX
  8
型材断面
 10
-30.755937
 20
-5.629618
  0
SEQEND
  0
LINE
  8
ガラス
  6
CONTINUOUS
 10
167.304785
 20
74.557477
 11
101.504785
 21
74.557477
  0
LINE
  8
ガラス
  6
CONTINUOUS
 10
101.504785
 20
74.557477
 11
101.504785
 21
8.757477
  0
LINE
  8
ガラス
  6
CONTINUOUS
 10
101.504785
 20
8.757477
 11
167.304785
 21
8.757477
  0
LINE
  8
ガラス
  6
CONTINUOUS
 10
167.304785
 20
74.557477
 11
167.304785
 21
8.757477
  0
CIRCLE
  8
ボルト／ビス
  6
CONTINUOUS
 10
-55.755937
 20
60.370383
 40
0.288675
  0
CIRCLE
  8
ボルト／ビス
  6
CONTINUOUS
 10
-55.755937
 20
60.370383
 40
0.455885
  0
CIRCLE
  8
ボルト／ビス
  6
CONTINUOUS
 10
-40.755937
 20
60.370383
 40
0.288675
  0
CIRCLE
  8
ボルト／ビス
  6
CONTINUOUS
 10
-40.755937
 20
60.370383
 40
0.455885
  0
CIRCLE
  8
ボルト／ビス
  6
CONTINUOUS
 10
-70.755937
 20
60.370383
 40
0.288675
  0
CIRCLE
  8
ボルト／ビス
  6
CONTINUOUS
 10
-70.755937
 20
60.370383
 40
0.455885
  0
CIRCLE
  8
ボルト／ビス
  6
CONTINUOUS
 10
-85.755937
 20
60.370383
 40
0.288675
  0
CIRCLE
  8
ボルト／ビス
  6
CONTINUOUS
 10
-85.755937
 20
60.370383
 40
0.455885
  0
CIRCLE
  8
ボルト／ビス
  6
CONTINUOUS
 10
-96.755935
 20
34.370385
 40
0.288675
  0
CIRCLE
  8
ボルト／ビス
  6
CONTINUOUS
 10
-96.755935
 20
34.370385
 40
0.455885
  0
CIRCLE
  8
ボルト／ビス
  6
CONTINUOUS
 10
-96.755935
 20
49.370385
 40
0.288675
  0
CIRCLE
  8
ボルト／ビス
  6
CONTINUOUS
 10
-96.755935
 20
49.370385
 40
0.455885
  0
CIRCLE
  8
ボルト／ビス
  6
CONTINUOUS
 10
-96.755935
 20
19.37038
 40
0.288675
  0
CIRCLE
  8
ボルト／ビス
  6
CONTINUOUS
 10
-96.755935
 20
19.37038
 40
0.455885
  0
CIRCLE
  8
ボルト／ビス
  6
CONTINUOUS
 10
-96.755935
 20
4.37038
 40
0.288675
  0
CIRCLE
  8
ボルト／ビス
  6
CONTINUOUS
 10
-96.755935
 20
4.37038
 40
0.455885
  0
CIRCLE
  8
ボルト／ビス
  6
CONTINUOUS
 10
-70.75594
 20
-6.629615
 40
0.288675
  0
CIRCLE
  8
ボルト／ビス
  6
CONTINUOUS
 10
-70.75594
 20
-6.629615
 40
0.455885
  0
CIRCLE
  8
ボルト／ビス
  6
CONTINUOUS
 10
-85.75594
 20
-6.629615
 40
0.288675
  0
CIRCLE
  8
ボルト／ビス
  6
CONTINUOUS
 10
-85.75594
 20
-6.629615
 40
0.455885
  0
CIRCLE
  8
ボルト／ビス
  6
CONTINUOUS
 10
-55.755935
 20
-6.629615
 40
0.288675
  0
CIRCLE
  8
ボルト／ビス
  6
CONTINUOUS
 10
-55.755935
 20
-6.629615
 40
0.455885
  0
CIRCLE
  8
ボルト／ビス
  6
CONTINUOUS
 10
-40.755935
 20
-6.629615
 40
0.288675
  0
CIRCLE
  8
ボルト／ビス
  6
CONTINUOUS
 10
-40.755935
 20
-6.629615
 40
0.455885
  0
CIRCLE
  8
ボルト／ビス
  6
CONTINUOUS
 10
-29.755937
 20
19.370383
 40
0.288675
  0
CIRCLE
  8
ボルト／ビス
  6
CONTINUOUS
 10
-29.755937
 20
19.370383
 40
0.455885
  0
CIRCLE
  8
ボルト／ビス
  6
CONTINUOUS
 10
-29.755937
 20
4.370383
 40
0.288675
  0
CIRCLE
  8
ボルト／ビス
  6
CONTINUOUS
 10
-29.755937
 20
4.370383
 40
0.455885
  0
CIRCLE
  8
ボルト／ビス
  6
CONTINUOUS
 10
-29.755937
 20
34.370383
 40
0.288675
  0
CIRCLE
  8
ボルト／ビス
  6
CONTINUOUS
 10
-29.755937
 20
34.370383
 40
0.455885
  0
CIRCLE
  8
ボルト／ビス
  6
CONTINUOUS
 10
-29.755937
 20
49.370383
 40
0.288675
  0
CIRCLE
  8
ボルト／ビス
  6
CONTINUOUS
 10
-29.755937
 20
49.370383
 40
0.455885
  0
TEXT
  7
TextStyle03
  8
文字
  6
CONTINUOUS
 10
9.175
 20
-14.975
  1
は排水穴位置を示す
 40
3.0
 72
     5
 11
39.175
 21
-14.975
  0
INSERT
  2
*GRP_0004
  8
文字
  6
CONTINUOUS
 10
0.0
 20
0.0
  0
INSERT
  2
*GRP_0006
  8
文字
  6
CONTINUOUS
 10
0.0
 20
0.0
  0
INSERT
  2
*GRP_0008
  8
文字
  6
CONTINUOUS
 10
0.0
 20
0.0
  0
INSERT
  2
*GRP_0009
  8
文字
  6
CONTINUOUS
 10
0.0
 20
0.0
  0
INSERT
  2
*GRP_0012
  8
文字
  6
CONTINUOUS
 10
0.0
 20
0.0
  0
INSERT
  2
*GRP_0013
  8
文字
  6
CONTINUOUS
 10
0.0
 20
0.0
  0
INSERT
  2
*GRP_0016
  8
文字
  6
CONTINUOUS
 10
0.0
 20
0.0
  0
INSERT
  2
*GRP_0017
  8
文字
  6
CONTINUOUS
 10
0.0
 20
0.0
  0
INSERT
  2
*GRP_0020
  8
文字
  6
CONTINUOUS
 10
0.0
 20
0.0
  0
INSERT
  2
*GRP_0021
  8
文字
  6
CONTINUOUS
 10
0.0
 20
0.0
  0
INSERT
  2
*GRP_0024
  8
文字
  6
CONTINUOUS
 10
0.0
 20
0.0
  0
INSERT
  2
*GRP_0025
  8
文字
  6
CONTINUOUS
 10
0.0
 20
0.0
  0
INSERT
  2
*GRP_0028
  8
文字
  6
CONTINUOUS
 10
0.0
 20
0.0
  0
INSERT
  2
*GRP_0029
  8
文字
  6
CONTINUOUS
 10
0.0
 20
0.0
  0
INSERT
  2
*GRP_0032
  8
文字
  6
CONTINUOUS
 10
0.0
 20
0.0
  0
INSERT
  2
*GRP_0033
  8
文字
  6
CONTINUOUS
 10
0.0
 20
0.0
  0
TEXT
  7
TextStyle03
  8
文字
  6
CONTINUOUS
 10
9.175
 20
-22.825
  1
はケーシング位置を示す
 40
3.0
 72
     5
 11
45.925
 21
-22.825
  0
TEXT
  7
TextStyle03
  8
文字
  6
CONTINUOUS
 10
9.175
 20
-26.2
  1
２ヶ所中1ヶ所に設定
 40
3.0
 72
     5
 11
40.8625
 21
-26.2
  0
TEXT
  7
TextStyle03
  8
文字
  6
CONTINUOUS
 10
130.7
 20
-47.6
  1
45°
 40
3.0
 72
     5
 11
137.075
 21
-47.6
  0
TEXT
  7
TextStyle03
  8
文字
  6
CONTINUOUS
 10
-117.55
 20
-76.025
  1
丁番側
 40
3.0
 72
     5
 11
-107.8
 21
-76.025
  0
TEXT
  7
TextStyle03
  8
文字
  6
CONTINUOUS
 10
83.3
 20
100.8
  1
ＮＳコード：ＮＳＨ
 40
5.0
 72
     5
 11
133.3
 21
100.8
  0
TEXT
  7
TextStyle03
  8
文字
  6
CONTINUOUS
 10
3.575
 20
-33.35
  1
アンカー数量　８ヶ所
 40
3.0
 72
     5
 11
36.95
 21
-33.35
  0
TEXT
  7
TextStyle03
  8
文字
  6
CONTINUOUS
 10
-110.25
 20
86.3
  1
アンカーピッチ
 40
3.0
 72
     5
 11
-87.0
 21
86.3
  0
TEXT
  7
TextStyle03
  8
文字
  6
CONTINUOUS
 10
-127.25
 20
-16.5
  1
アンカーピッチ
 40
3.0
 50
90.0
 72
     5
 11
-127.25
 21
6.75
  0
TEXT
  7
TextStyle03
  8
文字
  6
CONTINUOUS
 10
146.1
 20
18.8
  1
網入り6.8t
 40
3.0
 72
     5
 11
162.7875
 21
18.8
  0
TEXT
  7
TextStyle03
  8
文字
  6
CONTINUOUS
 10
152.725
 20
13.55
  1
×１枚
 40
3.0
 72
     5
 11
162.475
 21
13.55
  0
TEXT
  7
TextStyle03
  8
文字
  6
CONTINUOUS
 10
83.025
 20
121.425
  1
シリーズ：ＴＤ１Ｈ
 40
5.0
 72
     5
 11
133.025
 21
121.425
  0
TEXT
  7
TextStyle03
  8
文字
  6
CONTINUOUS
 10
83.025
 20
115.8
  1
　　　　　（片側開閉）1300×1300タイプ
 40
5.0
 72
     5
 11
189.275
 21
115.8
  0
TEXT
  7
TextStyle03
  8
文字
  6
CONTINUOUS
 10
83.025
 20
110.175
  1
図面名　：外観姿図
 40
5.0
 72
     5
 11
133.025
 21
110.175
  0
TEXT
  7
TextStyle03
  8
文字
  6
CONTINUOUS
 10
83.025
 20
104.55
  1
　　　　　　
 40
5.0
 72
     5
 11
116.15
 21
104.55
  0
INSERT
  2
*DIM_0002
  8
寸法
  6
CONTINUOUS
 10
0.0
 20
0.0
  0
INSERT
  2
*DIM_0003
  8
寸法
  6
CONTINUOUS
 10
0.0
 20
0.0
  0
INSERT
  2
*DIM_0037
  8
寸法
  6
CONTINUOUS
 10
0.0
 20
0.0
  0
INSERT
  2
*DIM_0038
  8
寸法
  6
CONTINUOUS
 10
0.0
 20
0.0
  0
INSERT
  2
*DIM_0039
  8
寸法
  6
CONTINUOUS
 10
0.0
 20
0.0
  0
INSERT
  2
*DIM_0041
  8
寸法
  6
CONTINUOUS
 10
0.0
 20
0.0
  0
INSERT
  2
*DIM_0042
  8
寸法
  6
CONTINUOUS
 10
0.0
 20
0.0
  0
INSERT
  2
*DIM_0043
  8
寸法
  6
CONTINUOUS
 10
0.0
 20
0.0
  0
INSERT
  2
*DIM_0044
  8
寸法
  6
CONTINUOUS
 10
0.0
 20
0.0
  0
INSERT
  2
*DIM_0045
  8
寸法
  6
CONTINUOUS
 10
0.0
 20
0.0
  0
INSERT
  2
*DIM_0046
  8
寸法
  6
CONTINUOUS
 10
0.0
 20
0.0
  0
LINE
  8
別途部材
  6
CONTINUOUS
 10
-98.255937
 20
26.870383
 11
-98.255937
 21
-8.129618
  0
LINE
  8
別途部材
  6
CONTINUOUS
 10
-63.255935
 20
-8.129618
 11
-98.255937
 21
-8.129618
  0
LINE
  8
別途部材
  6
CONTINUOUS
 10
-98.855937
 20
26.870383
 11
-98.855937
 21
-8.729618
  0
LINE
  8
別途部材
  6
CONTINUOUS
 10
-63.255935
 20
-8.729618
 11
-98.855937
 21
-8.729618
  0
LINE
  8
別途部材
  6
CONTINUOUS
 10
-98.855937
 20
-8.729618
 11
-98.255937
 21
-8.129618
  0
LINE
  8
別途部材
  6
CONTINUOUS
 10
-95.755937
 20
-5.629618
 11
-83.667053
 21
6.459267
  0
LINE
  8
別途部材
  6
CONTINUOUS
 10
-98.255937
 20
26.870383
 11
-98.255937
 21
61.870385
  0
LINE
  8
別途部材
  6
CONTINUOUS
 10
-63.255935
 20
61.870385
 11
-98.255937
 21
61.870385
  0
LINE
  8
別途部材
  6
CONTINUOUS
 10
-98.855937
 20
26.870383
 11
-98.855937
 21
62.470385
  0
LINE
  8
別途部材
  6
CONTINUOUS
 10
-63.255935
 20
62.470385
 11
-98.855937
 21
62.470385
  0
LINE
  8
別途部材
  6
CONTINUOUS
 10
-98.855937
 20
62.470385
 11
-98.255937
 21
61.870385
  0
LINE
  8
別途部材
  6
CONTINUOUS
 10
-95.755937
 20
59.370385
 11
-83.667053
 21
47.2815
  0
LINE
  8
別途部材
  6
CONTINUOUS
 10
-28.255935
 20
26.870383
 11
-28.255935
 21
61.870385
  0
LINE
  8
別途部材
  6
CONTINUOUS
 10
-63.255935
 20
61.870385
 11
-28.255935
 21
61.870385
  0
LINE
  8
別途部材
  6
CONTINUOUS
 10
-27.655935
 20
26.870383
 11
-27.655935
 21
62.470385
  0
LINE
  8
別途部材
  6
CONTINUOUS
 10
-63.255935
 20
62.470385
 11
-27.655935
 21
62.470385
  0
LINE
  8
別途部材
  6
CONTINUOUS
 10
-27.655935
 20
62.470385
 11
-28.255935
 21
61.870385
  0
LINE
  8
別途部材
  6
CONTINUOUS
 10
-30.755935
 20
59.370385
 11
-42.84482
 21
47.2815
  0
LINE
  8
別途部材
  6
CONTINUOUS
 10
-28.255935
 20
26.870383
 11
-28.255935
 21
-8.129618
  0
LINE
  8
別途部材
  6
CONTINUOUS
 10
-63.255935
 20
-8.129618
 11
-28.255935
 21
-8.129618
  0
LINE
  8
別途部材
  6
CONTINUOUS
 10
-27.655935
 20
26.870383
 11
-27.655935
 21
-8.729618
  0
LINE
  8
別途部材
  6
CONTINUOUS
 10
-63.255935
 20
-8.729618
 11
-27.655935
 21
-8.729618
  0
LINE
  8
別途部材
  6
CONTINUOUS
 10
-27.655935
 20
-8.729618
 11
-28.255935
 21
-8.129618
  0
LINE
  8
別途部材
  6
CONTINUOUS
 10
-30.755935
 20
-5.629618
 11
-42.84482
 21
6.459267
  0
LINE
  8
別途部材
  6
CONTINUOUS
 62
    96
 10
-98.255937
 20
-69.569873
 11
-98.855937
 21
-71.069873
  0
LINE
  8
別途部材
  6
CONTINUOUS
 62
    96
 10
-98.255937
 20
-69.569873
 11
-63.255935
 21
-69.569873
  0
LINE
  8
別途部材
  6
CONTINUOUS
 10
-98.855937
 20
-71.069873
 11
-63.255935
 21
-71.069873
  0
LINE
  8
別途部材
  6
CONTINUOUS
 62
    96
 10
-28.255935
 20
-69.569873
 11
-27.655935
 21
-71.069873
  0
LINE
  8
別途部材
  6
CONTINUOUS
 62
    96
 10
-28.255935
 20
-69.569873
 11
-63.255935
 21
-69.569873
  0
LINE
  8
別途部材
  6
CONTINUOUS
 10
-27.655935
 20
-71.069873
 11
-63.255935
 21
-71.069873
  0
ARC
  8
別途部材
  6
CONTINUOUS
 10
-63.255936
 20
-90.998446
 40
38.928572
 50
33.39849
 51
146.60151
  0
INSERT
  2
*GRP_0036
  8
別途部材
  6
CONTINUOUS
 10
0.0
 20
0.0
  0
LINE
  8
別途部材
  6
CONTINUOUS
 62
    96
 10
60.970455
 20
-69.569873
 11
60.370455
 21
-71.069873
  0
LINE
  8
別途部材
  6
CONTINUOUS
 62
    96
 10
60.970455
 20
-69.569873
 11
95.970457
 21
-69.569873
  0
LINE
  8
別途部材
  6
CONTINUOUS
 10
60.370455
 20
-71.069873
 11
95.970457
 21
-71.069873
  0
LINE
  8
別途部材
  6
CONTINUOUS
 62
    96
 10
130.970457
 20
-69.569873
 11
131.570457
 21
-71.069873
  0
LINE
  8
別途部材
  6
CONTINUOUS
 62
    96
 10
130.970457
 20
-69.569873
 11
95.970457
 21
-69.569873
  0
LINE
  8
別途部材
  6
CONTINUOUS
 10
131.570457
 20
-71.069873
 11
95.970457
 21
-71.069873
  0
ARC
  8
別途部材
  6
CONTINUOUS
 10
95.970456
 20
-90.998446
 40
38.928572
 50
33.39849
 51
146.60151
  0
INSERT
  2
*GRP_0040
  8
別途部材
  6
CONTINUOUS
 10
0.0
 20
0.0
  0
LINE
  8
別途部材
  6
DOT
 62
    96
 10
56.54045
 20
-69.325225
 11
57.176848
 21
-70.81015
  0
LINE
  8
別途部材
  6
DOT
 62
    96
 10
56.54045
 20
-69.325225
 11
81.28919
 21
-44.576487
  0
LINE
  8
別途部材
  6
DOT
 10
57.176848
 20
-70.81015
 11
82.34985
 21
-45.637147
  0
LINE
  8
別途部材
  6
DOT
 62
    96
 10
106.037927
 20
-19.82775
 11
107.52285
 21
-20.464145
  0
LINE
  8
別途部材
  6
DOT
 62
    96
 10
106.037927
 20
-19.82775
 11
81.28919
 21
-44.576487
  0
LINE
  8
別途部材
  6
DOT
 10
107.52285
 20
-20.464145
 11
82.34985
 21
-45.637147
  0
ARC
  8
別途部材
  6
DOT
 10
96.441478
 20
-59.728777
 40
38.928572
 50
78.39849
 51
191.60151
  0
INSERT
  2
*GRP_0047
  8
別途部材
  6
DOT
 10
0.0
 20
0.0
  0
INSERT
  2
*GRP_0048
  8
別途部材
  6
DOT
 10
0.0
 20
0.0
  0
INSERT
  2
*GRP_0049
  8
別途部材
  6
DOT
 10
0.0
 20
0.0
  0
INSERT
  2
*GRP_0050
  8
別途部材
  6
DOT
 10
0.0
 20
0.0
  0
INSERT
  2
*GRP_0051
  8
別途部材
  6
DOT
 10
0.0
 20
0.0
  0
INSERT
  2
*GRP_0052
  8
別途部材
  6
DOT
 10
0.0
 20
0.0
  0
ENDSEC
  0
EOF
