  0
SECTION
  2
HEADER
  9
$EXTMIN
 10
-210.0
 20
-148.5
  9
$EXTMAX
 10
210.0
 20
148.5
  9
$PDMODE
 70
    32
  9
$PDSIZE
 40
1.5
  9
$LTSCALE
 40
10.0
  0
ENDSEC
  0
SECTION
  2
TABLES
  0
TABLE
  2
LTYPE
 70
    15
  0
LTYPE
  2
CONTINUOUS
 70
    64
  3
実線
 72
    65
 73
     0
 40
0.0
  0
LTYPE
  2
DASHED
 70
    64
  3
破線A
 72
    65
 73
     2
 40
0.6
 49
0.4
 49
-0.2
  0
LTYPE
  2
DASHEDX2
 70
    64
  3
破線B
 72
    65
 73
     2
 40
1.3
 49
0.9
 49
-0.4
  0
LTYPE
  2
DASHDOT
 70
    64
  3
１点鎖線A
 72
    65
 73
     4
 40
0.5375
 49
0.375
 49
-0.05
 49
0.0625
 49
-0.05
  0
LTYPE
  2
DASHDOTX2
 70
    64
  3
１点鎖線B
 72
    65
 73
     4
 40
1.075
 49
0.75
 49
-0.1
 49
0.125
 49
-0.1
  0
LTYPE
  2
DIVIDE2
 70
    64
  3
２点鎖線A
 72
    65
 73
     6
 40
0.5125
 49
0.3
 49
-0.0375
 49
0.05
 49
-0.0375
 49
0.05
 49
-0.0375
  0
LTYPE
  2
DIVIDE
 70
    64
  3
２点鎖線B
 72
    65
 73
     6
 40
1.05
 49
0.55
 49
-0.1
 49
0.1
 49
-0.1
 49
0.1
 49
-0.1
  0
LTYPE
  2
DOT
 70
    64
  3
点線A
 72
    65
 73
     2
 40
0.1125
 49
0.0625
 49
-0.05
  0
LTYPE
  2
DOTX2
 70
    64
  3
点線B
 72
    65
 73
     2
 40
0.275
 49
0.15
 49
-0.125
  0
LTYPE
  2
CONTINUOUS
 70
    64
  3
実線
 72
    65
 73
     0
 40
0.0
  0
LTYPE
  2
CONTINUOUS
 70
    64
  3
実線
 72
    65
 73
     0
 40
0.0
  0
LTYPE
  2
CONTINUOUS
 70
    64
  3
実線
 72
    65
 73
     0
 40
0.0
  0
LTYPE
  2
CONTINUOUS
 70
    64
  3
実線
 72
    65
 73
     0
 40
0.0
  0
LTYPE
  2
CONTINUOUS
 70
    64
  3
実線
 72
    65
 73
     0
 40
0.0
  0
LTYPE
  2
CONTINUOUS
 70
    64
  3
実線
 72
    65
 73
     0
 40
0.0
  0
ENDTAB
  0
TABLE
  2
LAYER
 70
    34
  0
LAYER
  2
通り芯
 70
     0
 62
    15
  6
CONTINUOUS
  0
LAYER
  2
補助線
 70
     0
 62
    16
  6
DOT
  0
LAYER
  2
躯体
 70
     0
 62
    31
  6
CONTINUOUS
  0
LAYER
  2
型材
 70
     0
 62
    32
  6
CONTINUOUS
  0
LAYER
  2
型材断面
 70
     0
 62
    47
  6
CONTINUOUS
  0
LAYER
  2
ガラス
 70
     0
 62
    48
  6
CONTINUOUS
  0
LAYER
  2
ゴム等
 70
     0
 62
    63
  6
CONTINUOUS
  0
LAYER
  2
ボルト／ビス
 70
     0
 62
    64
  6
CONTINUOUS
  0
LAYER
  2
文字
 70
     0
 62
    79
  6
CONTINUOUS
  0
LAYER
  2
寸法
 70
     0
 62
    80
  6
CONTINUOUS
  0
LAYER
  2
ﾊｯﾁﾝｸﾞ
 70
     0
 62
    95
  6
CONTINUOUS
  0
LAYER
  2
別途部材
 70
     0
 62
    96
  6
CONTINUOUS
  0
LAYER
  2
曲げ物
 70
     0
 62
   111
  6
CONTINUOUS
  0
LAYER
  2
鉄骨等
 70
     0
 62
   112
  6
CONTINUOUS
  0
LAYER
  2
St
 70
     0
 62
   127
  6
CONTINUOUS
  0
LAYER
  2
その他部品等
 70
     0
 62
   128
  6
CONTINUOUS
  0
LAYER
  2
ｶﾞｽｹｯﾄ
 70
     0
 62
   143
  6
CONTINUOUS
  0
LAYER
  2
ｽｹｯﾁ
 70
     0
 62
    14
  6
CONTINUOUS
  0
LAYER
  2
0
 70
     0
 62
    17
  6
CONTINUOUS
  0
LAYER
  2
1
 70
     0
 62
    30
  6
CONTINUOUS
  0
LAYER
  2
4
 70
     0
 62
    33
  6
CONTINUOUS
  0
LAYER
  2
ﾚｲﾔ3
 70
     0
 62
    46
  6
CONTINUOUS
  0
LAYER
  2
外形線
 70
     0
 62
    49
  6
CONTINUOUS
  0
LAYER
  2
部品
 70
     0
 62
    14
  6
CONTINUOUS
  0
LAYER
  2
サッシ芯
 70
     0
 62
    17
  6
DASHDOTX2
  0
LAYER
  2
寸法線
 70
     0
 62
    62
  6
CONTINUOUS
  0
LAYER
  2
姿図外形線
 70
     0
 62
    65
  6
CONTINUOUS
  0
LAYER
  2
姿補助線
 70
     0
 62
    30
  6
CONTINUOUS
  0
LAYER
  2
透視線
 70
     0
 62
    78
  6
DOT
  0
LAYER
  2
用紙
 70
     0
 62
    81
  6
CONTINUOUS
  0
LAYER
  2
実線図枠
 70
     0
 62
    94
  6
CONTINUOUS
  0
LAYER
  2
補助図枠
 70
     0
 62
    97
  6
CONTINUOUS
  0
LAYER
  2
建具記号
 70
     0
 62
   110
  6
CONTINUOUS
  0
LAYER
  2
補助文字
 70
     0
 62
   113
  6
CONTINUOUS
  0
ENDTAB
  0
TABLE
  2
STYLE
 70
    10
  0
STYLE
  2
STANDARD
 70
     0
 40
1.0
 41
1.0
 42
1.0
 50
0.0
 71
     0
  3
TXT
  4
BIGFONT
  0
STYLE
  2
TATE
 70
     4
 40
1.0
 41
1.0
 42
1.0
 50
0.0
 71
     0
  3
TXT
  4
BIGFONT
  0
STYLE
  2
TextStyle03
 70
     0
 40
1.0
 41
1.0
 42
1.0
 50
0.0
 71
     0
  3
MONOTXT
  4
BIGFONT
  0
STYLE
  2
TextStyle04
 70
     0
 40
1.0
 41
1.0
 42
1.0
 50
0.0
 71
     0
  3
MONOTXT
  4
BIGFONT
  0
STYLE
  2
TextStyle05
 70
     0
 40
1.0
 41
1.0
 42
1.0
 50
0.0
 71
     0
  3
MONOTXT
  4
BIGFONT
  0
STYLE
  2
TextStyle06
 70
     0
 40
1.0
 41
1.0
 42
1.0
 50
0.0
 71
     0
  3
MONOTXT
  4
BIGFONT
  0
STYLE
  2
TextStyle07
 70
     0
 40
1.0
 41
1.0
 42
1.0
 50
0.0
 71
     0
  3
MONOTXT
  4
BIGFONT
  0
STYLE
  2
TextStyle08
 70
     0
 40
1.0
 41
1.0
 42
1.0
 50
0.0
 71
     0
  3
MONOTXT
  4
BIGFONT
  0
STYLE
  2
TextStyle09
 70
     0
 40
1.0
 41
1.0
 42
1.0
 50
0.0
 71
     0
  3
MONOTXT
  4
BIGFONT
  0
STYLE
  2
TextStyle10
 70
     0
 40
1.0
 41
1.0
 42
1.0
 50
0.0
 71
     0
  3
MONOTXT
  4
BIGFONT
  0
ENDTAB
  0
ENDSEC
  0
SECTION
  2
BLOCKS
  0
BLOCK
  2
*GRP_0001
 70
    65
 10
0.0
 20
0.0
  0
LINE
  8
型材断面
  6
CONTINUOUS
 10
195.0
 20
133.5
 11
195.0
 21
-133.5
  0
LINE
  8
型材断面
  6
CONTINUOUS
 10
195.0
 20
-133.5
 11
-185.0
 21
-133.5
  0
LINE
  8
型材断面
  6
CONTINUOUS
 10
-185.0
 20
-133.5
 11
-185.0
 21
133.5
  0
LINE
  8
型材断面
  6
CONTINUOUS
 10
195.0
 20
133.5
 11
-185.0
 21
133.5
  0
LINE
  8
型材断面
  6
CONTINUOUS
 10
145.0
 20
-133.5
 11
145.0
 21
-118.5
  0
LINE
  8
型材断面
  6
CONTINUOUS
 10
195.0
 20
-118.5
 11
145.0
 21
-118.5
  0
ENDBLK
  0
BLOCK
  2
*GRP_0002
 70
    65
 10
0.0
 20
0.0
  0
INSERT
  2
*GRP_0012
  8
補助線
  6
CONTINUOUS
 10
0.0
 20
0.0
  0
LINE
  8
ボルト／ビス
  6
CONTINUOUS
 10
-84.935405
 20
0.403315
 11
-84.685405
 21
0.547653
  0
LINE
  8
ボルト／ビス
  6
CONTINUOUS
 10
-84.935405
 20
0.403315
 11
-85.185405
 21
0.547653
  0
LINE
  8
ボルト／ビス
  6
CONTINUOUS
 10
-84.685405
 20
0.836327
 11
-84.935405
 21
0.980665
  0
LINE
  8
ボルト／ビス
  6
CONTINUOUS
 10
-85.185405
 20
0.836327
 11
-84.935405
 21
0.980665
  0
CIRCLE
  8
ボルト／ビス
  6
CONTINUOUS
 10
-84.935405
 20
0.69199
 40
0.25
  0
LINE
  8
ボルト／ビス
  6
CONTINUOUS
 10
-85.185405
 20
0.547653
 11
-85.185405
 21
0.836327
  0
LINE
  8
ボルト／ビス
  6
CONTINUOUS
 10
-84.685405
 20
0.836327
 11
-84.685405
 21
0.547653
  0
ENDBLK
  0
BLOCK
  2
*GRP_0003
 70
    65
 10
0.0
 20
0.0
  0
INSERT
  2
*GRP_0013
  8
補助線
  6
CONTINUOUS
 10
0.0
 20
0.0
  0
LINE
  8
ボルト／ビス
  6
CONTINUOUS
 10
-93.72408
 20
9.19199
 11
-93.579742
 21
9.44199
  0
LINE
  8
ボルト／ビス
  6
CONTINUOUS
 10
-93.72408
 20
9.19199
 11
-93.579742
 21
8.94199
  0
LINE
  8
ボルト／ビス
  6
CONTINUOUS
 10
-93.291068
 20
9.44199
 11
-93.14673
 21
9.19199
  0
LINE
  8
ボルト／ビス
  6
CONTINUOUS
 10
-93.291068
 20
8.94199
 11
-93.14673
 21
9.19199
  0
CIRCLE
  8
ボルト／ビス
  6
CONTINUOUS
 10
-93.435405
 20
9.19199
 40
0.25
  0
LINE
  8
ボルト／ビス
  6
CONTINUOUS
 10
-93.579742
 20
8.94199
 11
-93.291068
 21
8.94199
  0
LINE
  8
ボルト／ビス
  6
CONTINUOUS
 10
-93.291068
 20
9.44199
 11
-93.579742
 21
9.44199
  0
ENDBLK
  0
BLOCK
  2
*GRP_0004
 70
    65
 10
0.0
 20
0.0
  0
INSERT
  2
*GRP_0014
  8
補助線
  6
CONTINUOUS
 10
0.0
 20
0.0
  0
LINE
  8
ボルト／ビス
  6
CONTINUOUS
 10
-69.935405
 20
0.403315
 11
-70.185405
 21
0.547653
  0
LINE
  8
ボルト／ビス
  6
CONTINUOUS
 10
-69.935405
 20
0.403315
 11
-69.685405
 21
0.547653
  0
LINE
  8
ボルト／ビス
  6
CONTINUOUS
 10
-70.185405
 20
0.836327
 11
-69.935405
 21
0.980665
  0
LINE
  8
ボルト／ビス
  6
CONTINUOUS
 10
-69.685405
 20
0.836327
 11
-69.935405
 21
0.980665
  0
CIRCLE
  8
ボルト／ビス
  6
CONTINUOUS
 10
-69.935405
 20
0.69199
 40
0.25
  0
LINE
  8
ボルト／ビス
  6
CONTINUOUS
 10
-69.685405
 20
0.547653
 11
-69.685405
 21
0.836327
  0
LINE
  8
ボルト／ビス
  6
CONTINUOUS
 10
-70.185405
 20
0.836327
 11
-70.185405
 21
0.547653
  0
ENDBLK
  0
BLOCK
  2
*GRP_0005
 70
    65
 10
0.0
 20
0.0
  0
INSERT
  2
*GRP_0015
  8
補助線
  6
CONTINUOUS
 10
0.0
 20
0.0
  0
LINE
  8
ボルト／ビス
  6
CONTINUOUS
 10
-61.14673
 20
9.19199
 11
-61.291068
 21
9.44199
  0
LINE
  8
ボルト／ビス
  6
CONTINUOUS
 10
-61.14673
 20
9.19199
 11
-61.291068
 21
8.94199
  0
LINE
  8
ボルト／ビス
  6
CONTINUOUS
 10
-61.579742
 20
9.44199
 11
-61.72408
 21
9.19199
  0
LINE
  8
ボルト／ビス
  6
CONTINUOUS
 10
-61.579742
 20
8.94199
 11
-61.72408
 21
9.19199
  0
CIRCLE
  8
ボルト／ビス
  6
CONTINUOUS
 10
-61.435405
 20
9.19199
 40
0.25
  0
LINE
  8
ボルト／ビス
  6
CONTINUOUS
 10
-61.291068
 20
8.94199
 11
-61.579742
 21
8.94199
  0
LINE
  8
ボルト／ビス
  6
CONTINUOUS
 10
-61.579742
 20
9.44199
 11
-61.291068
 21
9.44199
  0
ENDBLK
  0
BLOCK
  2
*GRP_0006
 70
    65
 10
0.0
 20
0.0
  0
INSERT
  2
*GRP_0016
  8
補助線
  6
CONTINUOUS
 10
0.0
 20
0.0
  0
LINE
  8
ボルト／ビス
  6
CONTINUOUS
 10
-69.935405
 20
32.980665
 11
-70.185405
 21
32.836327
  0
LINE
  8
ボルト／ビス
  6
CONTINUOUS
 10
-69.935405
 20
32.980665
 11
-69.685405
 21
32.836327
  0
LINE
  8
ボルト／ビス
  6
CONTINUOUS
 10
-70.185405
 20
32.547653
 11
-69.935405
 21
32.403315
  0
LINE
  8
ボルト／ビス
  6
CONTINUOUS
 10
-69.685405
 20
32.547653
 11
-69.935405
 21
32.403315
  0
CIRCLE
  8
ボルト／ビス
  6
CONTINUOUS
 10
-69.935405
 20
32.69199
 40
0.25
  0
LINE
  8
ボルト／ビス
  6
CONTINUOUS
 10
-69.685405
 20
32.836327
 11
-69.685405
 21
32.547653
  0
LINE
  8
ボルト／ビス
  6
CONTINUOUS
 10
-70.185405
 20
32.547653
 11
-70.185405
 21
32.836327
  0
ENDBLK
  0
BLOCK
  2
*GRP_0007
 70
    65
 10
0.0
 20
0.0
  0
INSERT
  2
*GRP_0017
  8
補助線
  6
CONTINUOUS
 10
0.0
 20
0.0
  0
LINE
  8
ボルト／ビス
  6
CONTINUOUS
 10
-61.14673
 20
24.19199
 11
-61.291068
 21
23.94199
  0
LINE
  8
ボルト／ビス
  6
CONTINUOUS
 10
-61.14673
 20
24.19199
 11
-61.291068
 21
24.44199
  0
LINE
  8
ボルト／ビス
  6
CONTINUOUS
 10
-61.579742
 20
23.94199
 11
-61.72408
 21
24.19199
  0
LINE
  8
ボルト／ビス
  6
CONTINUOUS
 10
-61.579742
 20
24.44199
 11
-61.72408
 21
24.19199
  0
CIRCLE
  8
ボルト／ビス
  6
CONTINUOUS
 10
-61.435405
 20
24.19199
 40
0.25
  0
LINE
  8
ボルト／ビス
  6
CONTINUOUS
 10
-61.291068
 20
24.44199
 11
-61.579742
 21
24.44199
  0
LINE
  8
ボルト／ビス
  6
CONTINUOUS
 10
-61.579742
 20
23.94199
 11
-61.291068
 21
23.94199
  0
ENDBLK
  0
BLOCK
  2
*GRP_0008
 70
    65
 10
0.0
 20
0.0
  0
INSERT
  2
*GRP_0018
  8
補助線
  6
CONTINUOUS
 10
0.0
 20
0.0
  0
LINE
  8
ボルト／ビス
  6
CONTINUOUS
 10
-84.935405
 20
32.980665
 11
-84.685405
 21
32.836327
  0
LINE
  8
ボルト／ビス
  6
CONTINUOUS
 10
-84.935405
 20
32.980665
 11
-85.185405
 21
32.836327
  0
LINE
  8
ボルト／ビス
  6
CONTINUOUS
 10
-84.685405
 20
32.547653
 11
-84.935405
 21
32.403315
  0
LINE
  8
ボルト／ビス
  6
CONTINUOUS
 10
-85.185405
 20
32.547653
 11
-84.935405
 21
32.403315
  0
CIRCLE
  8
ボルト／ビス
  6
CONTINUOUS
 10
-84.935405
 20
32.69199
 40
0.25
  0
LINE
  8
ボルト／ビス
  6
CONTINUOUS
 10
-85.185405
 20
32.836327
 11
-85.185405
 21
32.547653
  0
LINE
  8
ボルト／ビス
  6
CONTINUOUS
 10
-84.685405
 20
32.547653
 11
-84.685405
 21
32.836327
  0
ENDBLK
  0
BLOCK
  2
*GRP_0009
 70
    65
 10
0.0
 20
0.0
  0
INSERT
  2
*GRP_0019
  8
補助線
  6
CONTINUOUS
 10
0.0
 20
0.0
  0
LINE
  8
ボルト／ビス
  6
CONTINUOUS
 10
-93.72408
 20
24.19199
 11
-93.579742
 21
23.94199
  0
LINE
  8
ボルト／ビス
  6
CONTINUOUS
 10
-93.72408
 20
24.19199
 11
-93.579742
 21
24.44199
  0
LINE
  8
ボルト／ビス
  6
CONTINUOUS
 10
-93.291068
 20
23.94199
 11
-93.14673
 21
24.19199
  0
LINE
  8
ボルト／ビス
  6
CONTINUOUS
 10
-93.291068
 20
24.44199
 11
-93.14673
 21
24.19199
  0
CIRCLE
  8
ボルト／ビス
  6
CONTINUOUS
 10
-93.435405
 20
24.19199
 40
0.25
  0
LINE
  8
ボルト／ビス
  6
CONTINUOUS
 10
-93.579742
 20
24.44199
 11
-93.291068
 21
24.44199
  0
LINE
  8
ボルト／ビス
  6
CONTINUOUS
 10
-93.291068
 20
23.94199
 11
-93.579742
 21
23.94199
  0
ENDBLK
  0
BLOCK
  2
*DIM_0010
 70
    65
 10
0.0
 20
0.0
  0
LINE
  8
寸法
  6
BYBLOCK
 62
     0
 10
-76.435405
 20
-54.248265
 11
-41.30588
 21
-54.248265
  0
LINE
  8
寸法
  6
BYBLOCK
 62
     0
 10
-41.30588
 20
-62.248265
 11
-41.30588
 21
-54.248265
  0
POINT
  8
寸法
 62
     0
 10
-41.30588
 20
-62.248265
  0
POINT
  8
寸法
 62
     0
 10
-41.30588
 20
-54.248265
  0
TEXT
  7
TextStyle03
  8
寸法
  6
CONTINUOUS
 62
     0
 10
-41.7
 20
-60.6875
  1
160
 40
3.0
 50
90.0
 72
     5
 11
-41.7
 21
-55.8125
  0
ENDBLK
  0
BLOCK
  2
*DIM_0011
 70
    65
 10
0.0
 20
0.0
  0
LINE
  8
寸法
  6
BYBLOCK
 62
     0
 10
-92.435405
 20
-26.094458
 11
-62.435405
 21
-26.094458
  0
POINT
  8
寸法
 62
     0
 10
-92.435405
 20
-26.094458
  0
POINT
  8
寸法
 62
     0
 10
-62.435405
 20
-26.094458
  0
TEXT
  7
TextStyle03
  8
寸法
  6
CONTINUOUS
 62
     0
 10
-88.325
 20
-25.725
  1
呼称寸法　600
 40
3.0
 72
     5
 11
-66.575
 21
-25.725
  0
ENDBLK
  0
BLOCK
  2
*GRP_0012
 70
    65
 10
0.0
 20
0.0
  0
LINE
  8
補助線
  6
BYBLOCK
 62
     0
 10
-85.060405
 20
0.69199
 11
-84.810405
 21
0.69199
  0
LINE
  8
補助線
  6
BYBLOCK
 62
     0
 10
-84.935405
 20
0.56699
 11
-84.935405
 21
0.81699
  0
ENDBLK
  0
BLOCK
  2
*GRP_0013
 70
    65
 10
0.0
 20
0.0
  0
LINE
  8
補助線
  6
BYBLOCK
 62
     0
 10
-93.435405
 20
9.06699
 11
-93.435405
 21
9.31699
  0
LINE
  8
補助線
  6
BYBLOCK
 62
     0
 10
-93.560405
 20
9.19199
 11
-93.310405
 21
9.19199
  0
ENDBLK
  0
BLOCK
  2
*GRP_0014
 70
    65
 10
0.0
 20
0.0
  0
LINE
  8
補助線
  6
BYBLOCK
 62
     0
 10
-69.810405
 20
0.69199
 11
-70.060405
 21
0.69199
  0
LINE
  8
補助線
  6
BYBLOCK
 62
     0
 10
-69.935405
 20
0.56699
 11
-69.935405
 21
0.81699
  0
ENDBLK
  0
BLOCK
  2
*GRP_0015
 70
    65
 10
0.0
 20
0.0
  0
LINE
  8
補助線
  6
BYBLOCK
 62
     0
 10
-61.435405
 20
9.06699
 11
-61.435405
 21
9.31699
  0
LINE
  8
補助線
  6
BYBLOCK
 62
     0
 10
-61.310405
 20
9.19199
 11
-61.560405
 21
9.19199
  0
ENDBLK
  0
BLOCK
  2
*GRP_0016
 70
    65
 10
0.0
 20
0.0
  0
LINE
  8
補助線
  6
BYBLOCK
 62
     0
 10
-69.810405
 20
32.69199
 11
-70.060405
 21
32.69199
  0
LINE
  8
補助線
  6
BYBLOCK
 62
     0
 10
-69.935405
 20
32.81699
 11
-69.935405
 21
32.56699
  0
ENDBLK
  0
BLOCK
  2
*GRP_0017
 70
    65
 10
0.0
 20
0.0
  0
LINE
  8
補助線
  6
BYBLOCK
 62
     0
 10
-61.435405
 20
24.31699
 11
-61.435405
 21
24.06699
  0
LINE
  8
補助線
  6
BYBLOCK
 62
     0
 10
-61.310405
 20
24.19199
 11
-61.560405
 21
24.19199
  0
ENDBLK
  0
BLOCK
  2
*GRP_0018
 70
    65
 10
0.0
 20
0.0
  0
LINE
  8
補助線
  6
BYBLOCK
 62
     0
 10
-85.060405
 20
32.69199
 11
-84.810405
 21
32.69199
  0
LINE
  8
補助線
  6
BYBLOCK
 62
     0
 10
-84.935405
 20
32.81699
 11
-84.935405
 21
32.56699
  0
ENDBLK
  0
BLOCK
  2
*GRP_0019
 70
    65
 10
0.0
 20
0.0
  0
LINE
  8
補助線
  6
BYBLOCK
 62
     0
 10
-93.435405
 20
24.31699
 11
-93.435405
 21
24.06699
  0
LINE
  8
補助線
  6
BYBLOCK
 62
     0
 10
-93.560405
 20
24.19199
 11
-93.310405
 21
24.19199
  0
ENDBLK
  0
BLOCK
  2
*GRP_0020
 70
    65
 10
0.0
 20
0.0
  0
LINE
  8
別途部材
  6
CONTINUOUS
 62
    96
 10
39.351495
 20
-70.39843
 11
39.501495
 21
-70.39843
  0
LINE
  8
別途部材
  6
CONTINUOUS
 62
    96
 10
39.201495
 20
-67.24681
 11
37.205287
 21
-67.35132
  0
LINE
  8
別途部材
  6
CONTINUOUS
 62
    96
 10
37.191495
 20
-68.17343
 11
36.791495
 21
-67.99843
  0
LINE
  8
別途部材
  6
CONTINUOUS
 62
    96
 10
37.22287
 20
-68.02343
 11
36.99137
 21
-67.92215
  0
LINE
  8
別途部材
  6
CONTINUOUS
 62
    96
 10
37.166113
 20
-67.203165
 11
36.77581
 21
-67.39884
  0
LINE
  8
別途部材
  6
CONTINUOUS
 62
    96
 10
37.205287
 20
-67.35132
 11
36.80987
 21
-67.54956
  0
LINE
  8
別途部材
  6
CONTINUOUS
 62
    96
 10
36.907193
 20
-67.602963
 11
37.022888
 21
-67.507492
  0
LINE
  8
別途部材
  6
DASHDOTX2
 62
    96
 10
36.791495
 20
-67.69843
 11
36.791495
 21
-67.228203
  0
LINE
  8
別途部材
  6
DASHDOTX2
 62
    96
 10
36.791495
 20
-67.69843
 11
36.791495
 21
-68.19412
  0
LINE
  8
別途部材
  6
DASHDOTX2
 62
    96
 10
36.791495
 20
-67.69843
 11
37.186702
 21
-67.69843
  0
LINE
  8
別途部材
  6
DASHDOTX2
 62
    96
 10
36.791495
 20
-67.69843
 11
36.37403
 21
-67.69843
  0
LINE
  8
別途部材
  6
CONTINUOUS
 62
    96
 10
39.501495
 20
-68.02343
 11
37.22287
 21
-68.02343
  0
LINE
  8
別途部材
  6
CONTINUOUS
 62
    96
 10
39.351495
 20
-68.17343
 11
37.191495
 21
-68.17343
  0
LINE
  8
別途部材
  6
CONTINUOUS
 62
    96
 10
39.051492
 20
-65.39681
 11
39.051492
 21
-67.104457
  0
LINE
  8
別途部材
  6
CONTINUOUS
 62
    96
 10
39.201495
 20
-65.39681
 11
39.051492
 21
-65.39681
  0
LINE
  8
別途部材
  6
CONTINUOUS
 62
    96
 10
39.201495
 20
-65.39681
 11
39.201495
 21
-67.24681
  0
CIRCLE
  8
別途部材
  6
CONTINUOUS
 62
    96
 10
36.791495
 20
-67.69843
 40
0.15
  0
ARC
  8
別途部材
  6
CONTINUOUS
 62
    96
 10
36.791495
 20
-67.698428
 40
0.3
 50
92.998444
 51
411.219394
  0
LINE
  8
別途部材
  6
CONTINUOUS
 62
    96
 10
39.501495
 20
-68.02343
 11
39.501495
 21
-70.39843
  0
LINE
  8
別途部材
  6
CONTINUOUS
 62
    96
 10
39.351495
 20
-68.17343
 11
39.351495
 21
-70.39843
  0
LINE
  8
別途部材
  6
CONTINUOUS
 62
    96
 10
37.166113
 20
-67.203165
 11
39.051492
 21
-67.104457
  0
ENDBLK
  0
BLOCK
  2
*DIM_0021
 70
    65
 10
0.0
 20
0.0
  0
LINE
  8
寸法
  6
BYBLOCK
 62
     0
 10
-61.435405
 20
31.69199
 11
-46.752115
 21
31.69199
  0
LINE
  8
寸法
  6
BYBLOCK
 62
     0
 10
-53.411528
 20
28.69199
 11
-46.752115
 21
28.69199
  0
LINE
  8
寸法
  6
BYBLOCK
 62
     0
 10
-46.752115
 20
31.69199
 11
-46.752115
 21
28.69199
  0
POINT
  8
寸法
 62
     0
 10
-46.752115
 20
31.69199
  0
POINT
  8
寸法
 62
     0
 10
-46.752115
 20
28.69199
  0
TEXT
  7
TextStyle03
  8
寸法
  6
CONTINUOUS
 62
     0
 10
-43.775
 20
28.58125
  1
60
 40
3.0
 50
90.0
 72
     5
 11
-43.775
 21
31.76875
  0
ENDBLK
  0
BLOCK
  2
*DIM_0022
 70
    65
 10
0.0
 20
0.0
  0
LINE
  8
寸法
  6
BYBLOCK
 62
     0
 10
-61.435405
 20
1.69199
 11
-46.752115
 21
1.69199
  0
LINE
  8
寸法
  6
BYBLOCK
 62
     0
 10
-53.411528
 20
4.69199
 11
-46.752115
 21
4.69199
  0
LINE
  8
寸法
  6
BYBLOCK
 62
     0
 10
-46.752115
 20
1.69199
 11
-46.752115
 21
4.69199
  0
POINT
  8
寸法
 62
     0
 10
-46.752115
 20
1.69199
  0
POINT
  8
寸法
 62
     0
 10
-46.752115
 20
4.69199
  0
TEXT
  7
TextStyle03
  8
寸法
  6
CONTINUOUS
 62
     0
 10
-43.775
 20
1.58125
  1
60
 40
3.0
 50
90.0
 72
     5
 11
-43.775
 21
4.76875
  0
ENDBLK
  0
BLOCK
  2
*DIM_0023
 70
    65
 10
0.0
 20
0.0
  0
LINE
  8
寸法
  6
BYBLOCK
 62
     0
 10
-56.835362
 20
-70.473618
 11
-56.835362
 21
-26.094458
  0
LINE
  8
寸法
  6
BYBLOCK
 62
     0
 10
-62.435405
 20
-26.094458
 11
-56.835362
 21
-26.094458
  0
POINT
  8
寸法
 62
     0
 10
-62.435405
 20
-26.094458
  0
POINT
  8
寸法
 62
     0
 10
-56.835362
 20
-26.094458
  0
TEXT
  7
TextStyle03
  8
寸法
  6
CONTINUOUS
 62
     0
 10
-62.0875
 20
-25.725
  1
112
 40
3.0
 72
     5
 11
-57.2125
 21
-25.725
  0
ENDBLK
  0
BLOCK
  2
*DIM_0024
 70
    65
 10
0.0
 20
0.0
  0
LINE
  8
寸法
  6
BYBLOCK
 62
     0
 10
-98.035448
 20
-70.473618
 11
-98.035448
 21
-26.094458
  0
LINE
  8
寸法
  6
BYBLOCK
 62
     0
 10
-92.435405
 20
-26.094458
 11
-98.035448
 21
-26.094458
  0
POINT
  8
寸法
 62
     0
 10
-92.435405
 20
-26.094458
  0
POINT
  8
寸法
 62
     0
 10
-98.035448
 20
-26.094458
  0
TEXT
  7
TextStyle03
  8
寸法
  6
CONTINUOUS
 62
     0
 10
-97.6875
 20
-25.725
  1
112
 40
3.0
 72
     5
 11
-92.8125
 21
-25.725
  0
ENDBLK
  0
BLOCK
  2
*GRP_0025
 70
    65
 10
0.0
 20
0.0
  0
LINE
  8
別途部材
  6
CONTINUOUS
 62
    96
 10
-94.885722
 20
-70.17343
 11
-94.735722
 21
-70.17343
  0
LINE
  8
別途部材
  6
CONTINUOUS
 62
    96
 10
-95.035722
 20
-67.02181
 11
-97.03193
 21
-67.12632
  0
LINE
  8
別途部材
  6
CONTINUOUS
 62
    96
 10
-97.045723
 20
-67.94843
 11
-97.445723
 21
-67.77343
  0
LINE
  8
別途部材
  6
CONTINUOUS
 62
    96
 10
-97.014347
 20
-67.79843
 11
-97.245848
 21
-67.69715
  0
LINE
  8
別途部材
  6
CONTINUOUS
 62
    96
 10
-97.071105
 20
-66.978165
 11
-97.461408
 21
-67.17384
  0
LINE
  8
別途部材
  6
CONTINUOUS
 62
    96
 10
-97.03193
 20
-67.12632
 11
-97.427347
 21
-67.32456
  0
LINE
  8
別途部材
  6
CONTINUOUS
 62
    96
 10
-97.330025
 20
-67.377963
 11
-97.21433
 21
-67.282492
  0
LINE
  8
別途部材
  6
DASHDOTX2
 62
    96
 10
-97.445723
 20
-67.47343
 11
-97.445723
 21
-67.003203
  0
LINE
  8
別途部材
  6
DASHDOTX2
 62
    96
 10
-97.445723
 20
-67.47343
 11
-97.445723
 21
-67.96912
  0
LINE
  8
別途部材
  6
DASHDOTX2
 62
    96
 10
-97.445723
 20
-67.47343
 11
-97.050515
 21
-67.47343
  0
LINE
  8
別途部材
  6
DASHDOTX2
 62
    96
 10
-97.445723
 20
-67.47343
 11
-97.863188
 21
-67.47343
  0
LINE
  8
別途部材
  6
CONTINUOUS
 62
    96
 10
-94.735722
 20
-67.79843
 11
-97.014347
 21
-67.79843
  0
LINE
  8
別途部材
  6
CONTINUOUS
 62
    96
 10
-94.885722
 20
-67.94843
 11
-97.045723
 21
-67.94843
  0
LINE
  8
別途部材
  6
CONTINUOUS
 62
    96
 10
-95.185725
 20
-65.17181
 11
-95.185725
 21
-66.879457
  0
LINE
  8
別途部材
  6
CONTINUOUS
 62
    96
 10
-95.035722
 20
-65.17181
 11
-95.185725
 21
-65.17181
  0
LINE
  8
別途部材
  6
CONTINUOUS
 62
    96
 10
-95.035722
 20
-65.17181
 11
-95.035722
 21
-67.02181
  0
CIRCLE
  8
別途部材
  6
CONTINUOUS
 62
    96
 10
-97.445723
 20
-67.47343
 40
0.15
  0
ARC
  8
別途部材
  6
CONTINUOUS
 62
    96
 10
-97.445724
 20
-67.473428
 40
0.3
 50
92.998444
 51
411.219394
  0
LINE
  8
別途部材
  6
CONTINUOUS
 62
    96
 10
-94.735722
 20
-67.79843
 11
-94.735722
 21
-70.17343
  0
LINE
  8
別途部材
  6
CONTINUOUS
 62
    96
 10
-94.885722
 20
-67.94843
 11
-94.885722
 21
-70.17343
  0
LINE
  8
別途部材
  6
CONTINUOUS
 62
    96
 10
-97.071105
 20
-66.978165
 11
-95.185725
 21
-66.879457
  0
ENDBLK
  0
BLOCK
  2
*DIM_0026
 70
    65
 10
0.0
 20
0.0
  0
LINE
  8
寸法
  6
BYBLOCK
 62
     0
 10
-58.935405
 20
-62.248265
 11
-41.30588
 21
-62.248265
  0
LINE
  8
寸法
  6
BYBLOCK
 62
     0
 10
-55.835362
 20
-71.998617
 11
-41.30588
 21
-71.998617
  0
LINE
  8
寸法
  6
BYBLOCK
 62
     0
 10
-41.30588
 20
-62.248265
 11
-41.30588
 21
-71.998617
  0
POINT
  8
寸法
 62
     0
 10
-41.30588
 20
-62.248265
  0
POINT
  8
寸法
 62
     0
 10
-41.30588
 20
-71.998617
  0
TEXT
  7
TextStyle03
  8
寸法
  6
CONTINUOUS
 62
     0
 10
-41.7
 20
-69.5625
  1
195
 40
3.0
 50
90.0
 72
     5
 11
-41.7
 21
-64.6875
  0
ENDBLK
  0
BLOCK
  2
*DIM_0027
 70
    65
 10
0.0
 20
0.0
  0
LINE
  8
寸法
  6
BYBLOCK
 62
     0
 10
-87.435402
 20
32.691993
 11
-87.435402
 21
52.281172
  0
LINE
  8
寸法
  6
BYBLOCK
 62
     0
 10
-67.435402
 20
32.691993
 11
-67.435402
 21
52.281172
  0
LINE
  8
寸法
  6
BYBLOCK
 62
     0
 10
-87.435402
 20
52.281172
 11
-67.435402
 21
52.281172
  0
POINT
  8
寸法
 62
     0
 10
-87.435402
 20
52.281172
  0
POINT
  8
寸法
 62
     0
 10
-67.435402
 20
52.281172
  0
TEXT
  7
TextStyle03
  8
寸法
  6
CONTINUOUS
 62
     0
 10
-79.8875
 20
52.675
  1
400
 40
3.0
 72
     5
 11
-75.0125
 21
52.675
  0
ENDBLK
  0
BLOCK
  2
*DIM_0028
 70
    65
 10
0.0
 20
0.0
  0
LINE
  8
寸法
  6
BYBLOCK
 62
     0
 10
136.504785
 20
67.724703
 11
136.504785
 21
75.54922
  0
LINE
  8
寸法
  6
BYBLOCK
 62
     0
 10
167.304785
 20
67.724703
 11
167.304785
 21
75.54922
  0
LINE
  8
寸法
  6
BYBLOCK
 62
     0
 10
136.504785
 20
75.54922
 11
167.304785
 21
75.54922
  0
POINT
  8
寸法
 62
     0
 10
136.504785
 20
75.54922
  0
POINT
  8
寸法
 62
     0
 10
167.304785
 20
75.54922
  0
TEXT
  7
TextStyle03
  8
寸法
  6
CONTINUOUS
 62
     0
 10
149.4625
 20
75.9
  1
616
 40
3.0
 72
     5
 11
154.3375
 21
75.9
  0
ENDBLK
  0
BLOCK
  2
*DIM_0029
 70
    65
 10
0.0
 20
0.0
  0
LINE
  8
寸法
  6
BYBLOCK
 62
     0
 10
170.304785
 20
64.724703
 11
179.960675
 21
64.724703
  0
LINE
  8
寸法
  6
BYBLOCK
 62
     0
 10
170.304785
 20
33.924703
 11
179.960675
 21
33.924703
  0
LINE
  8
寸法
  6
BYBLOCK
 62
     0
 10
179.960675
 20
64.724703
 11
179.960675
 21
33.924703
  0
POINT
  8
寸法
 62
     0
 10
179.960675
 20
64.724703
  0
POINT
  8
寸法
 62
     0
 10
179.960675
 20
33.924703
  0
TEXT
  7
TextStyle03
  8
寸法
  6
CONTINUOUS
 62
     0
 10
179.575
 20
46.8625
  1
616
 40
3.0
 50
90.0
 72
     5
 11
179.575
 21
51.7375
  0
ENDBLK
  0
BLOCK
  2
*GRP_0030
 70
    65
 10
0.0
 20
0.0
  0
LINE
  8
ボルト／ビス
  6
CONTINUOUS
 10
-61.435405
 20
-62.248268
 11
-61.435405
 21
-61.548268
  0
LINE
  8
ボルト／ビス
  6
CONTINUOUS
 10
-60.885405
 20
-62.248268
 11
-60.885405
 21
-62.148268
  0
LINE
  8
ボルト／ビス
  6
CONTINUOUS
 10
-60.885405
 20
-62.148268
 11
-61.985405
 21
-62.148268
  0
LINE
  8
ボルト／ビス
  6
CONTINUOUS
 10
-61.985405
 20
-62.148268
 11
-61.985405
 21
-62.248268
  0
LINE
  8
ボルト／ビス
  6
CONTINUOUS
 10
-60.885405
 20
-62.248268
 11
-61.985405
 21
-62.248268
  0
LINE
  8
ボルト／ビス
  6
CONTINUOUS
 10
-60.985405
 20
-62.098268
 11
-60.985405
 21
-62.148268
  0
LINE
  8
ボルト／ビス
  6
CONTINUOUS
 10
-60.985405
 20
-62.098268
 11
-61.885405
 21
-62.098268
  0
LINE
  8
ボルト／ビス
  6
CONTINUOUS
 10
-61.885405
 20
-62.098268
 11
-61.885405
 21
-62.148268
  0
LINE
  8
ボルト／ビス
  6
CONTINUOUS
 62
    64
 10
-61.194842
 20
-61.798268
 11
-61.14673
 21
-61.81578
  0
ARC
  8
ボルト／ビス
  6
CONTINUOUS
 62
    64
 10
-61.218899
 20
-61.955737
 40
0.157468
 50
90.0
 51
117.278033
  0
ARC
  8
ボルト／ビス
  6
CONTINUOUS
 62
    64
 10
-61.435405
 20
-62.401872
 40
0.603603
 50
76.165015
 51
103.834998
  0
LINE
  8
ボルト／ビス
  6
CONTINUOUS
 62
    64
 10
-61.675968
 20
-61.798268
 11
-61.72408
 21
-61.81578
  0
ARC
  8
ボルト／ビス
  6
CONTINUOUS
 62
    64
 10
-61.651911
 20
-61.955737
 40
0.157468
 50
62.721967
 51
90.0
  0
LINE
  8
ボルト／ビス
  6
CONTINUOUS
 62
    64
 10
-61.194842
 20
-61.798268
 11
-61.675968
 21
-61.798268
  0
LINE
  8
ボルト／ビス
  6
CONTINUOUS
 62
    64
 10
-61.72408
 20
-61.81578
 11
-61.72408
 21
-61.998268
  0
LINE
  8
ボルト／ビス
  6
CONTINUOUS
 62
    64
 10
-61.579742
 20
-61.81578
 11
-61.579742
 21
-61.998268
  0
LINE
  8
ボルト／ビス
  6
CONTINUOUS
 62
    64
 10
-61.14673
 20
-61.81578
 11
-61.14673
 21
-61.998268
  0
LINE
  8
ボルト／ビス
  6
CONTINUOUS
 62
    64
 10
-61.291068
 20
-61.81578
 11
-61.291068
 21
-61.998268
  0
LINE
  8
ボルト／ビス
  6
CONTINUOUS
 10
-61.14673
 20
-61.998268
 11
-61.72408
 21
-61.998268
  0
LINE
  8
ボルト／ビス
  6
CONTINUOUS
 10
-61.135405
 20
-61.998268
 11
-61.135405
 21
-62.098268
  0
LINE
  8
ボルト／ビス
  6
CONTINUOUS
 10
-61.135405
 20
-61.998268
 11
-61.735405
 21
-61.998268
  0
LINE
  8
ボルト／ビス
  6
CONTINUOUS
 10
-61.735405
 20
-61.998268
 11
-61.735405
 21
-62.098268
  0
ENDBLK
  0
BLOCK
  2
*GRP_0031
 70
    65
 10
0.0
 20
0.0
  0
LINE
  8
ボルト／ビス
  6
CONTINUOUS
 10
-93.435405
 20
-62.248268
 11
-93.435405
 21
-61.548268
  0
LINE
  8
ボルト／ビス
  6
CONTINUOUS
 10
-92.885405
 20
-62.248268
 11
-92.885405
 21
-62.148268
  0
LINE
  8
ボルト／ビス
  6
CONTINUOUS
 10
-92.885405
 20
-62.148268
 11
-93.985405
 21
-62.148268
  0
LINE
  8
ボルト／ビス
  6
CONTINUOUS
 10
-93.985405
 20
-62.148268
 11
-93.985405
 21
-62.248268
  0
LINE
  8
ボルト／ビス
  6
CONTINUOUS
 10
-92.885405
 20
-62.248268
 11
-93.985405
 21
-62.248268
  0
LINE
  8
ボルト／ビス
  6
CONTINUOUS
 10
-92.985405
 20
-62.098268
 11
-92.985405
 21
-62.148268
  0
LINE
  8
ボルト／ビス
  6
CONTINUOUS
 10
-92.985405
 20
-62.098268
 11
-93.885405
 21
-62.098268
  0
LINE
  8
ボルト／ビス
  6
CONTINUOUS
 10
-93.885405
 20
-62.098268
 11
-93.885405
 21
-62.148268
  0
LINE
  8
ボルト／ビス
  6
CONTINUOUS
 62
    64
 10
-93.194842
 20
-61.798268
 11
-93.14673
 21
-61.81578
  0
ARC
  8
ボルト／ビス
  6
CONTINUOUS
 62
    64
 10
-93.218899
 20
-61.955737
 40
0.157468
 50
90.0
 51
117.278033
  0
ARC
  8
ボルト／ビス
  6
CONTINUOUS
 62
    64
 10
-93.435405
 20
-62.401872
 40
0.603603
 50
76.165015
 51
103.834998
  0
LINE
  8
ボルト／ビス
  6
CONTINUOUS
 62
    64
 10
-93.675968
 20
-61.798268
 11
-93.72408
 21
-61.81578
  0
ARC
  8
ボルト／ビス
  6
CONTINUOUS
 62
    64
 10
-93.651911
 20
-61.955737
 40
0.157468
 50
62.721967
 51
90.0
  0
LINE
  8
ボルト／ビス
  6
CONTINUOUS
 62
    64
 10
-93.194842
 20
-61.798268
 11
-93.675968
 21
-61.798268
  0
LINE
  8
ボルト／ビス
  6
CONTINUOUS
 62
    64
 10
-93.72408
 20
-61.81578
 11
-93.72408
 21
-61.998268
  0
LINE
  8
ボルト／ビス
  6
CONTINUOUS
 62
    64
 10
-93.579742
 20
-61.81578
 11
-93.579742
 21
-61.998268
  0
LINE
  8
ボルト／ビス
  6
CONTINUOUS
 62
    64
 10
-93.14673
 20
-61.81578
 11
-93.14673
 21
-61.998268
  0
LINE
  8
ボルト／ビス
  6
CONTINUOUS
 62
    64
 10
-93.291068
 20
-61.81578
 11
-93.291068
 21
-61.998268
  0
LINE
  8
ボルト／ビス
  6
CONTINUOUS
 10
-93.14673
 20
-61.998268
 11
-93.72408
 21
-61.998268
  0
LINE
  8
ボルト／ビス
  6
CONTINUOUS
 10
-93.135405
 20
-61.998268
 11
-93.135405
 21
-62.098268
  0
LINE
  8
ボルト／ビス
  6
CONTINUOUS
 10
-93.135405
 20
-61.998268
 11
-93.735405
 21
-61.998268
  0
LINE
  8
ボルト／ビス
  6
CONTINUOUS
 10
-93.735405
 20
-61.998268
 11
-93.735405
 21
-62.098268
  0
ENDBLK
  0
BLOCK
  2
*GRP_0032
 70
    65
 10
0.0
 20
0.0
  0
LINE
  8
ボルト／ビス
  6
CONTINUOUS
 10
40.801813
 20
-62.248268
 11
40.801813
 21
-61.548268
  0
LINE
  8
ボルト／ビス
  6
CONTINUOUS
 10
41.351813
 20
-62.248268
 11
41.351813
 21
-62.148268
  0
LINE
  8
ボルト／ビス
  6
CONTINUOUS
 10
41.351813
 20
-62.148268
 11
40.251813
 21
-62.148268
  0
LINE
  8
ボルト／ビス
  6
CONTINUOUS
 10
40.251813
 20
-62.148268
 11
40.251813
 21
-62.248268
  0
LINE
  8
ボルト／ビス
  6
CONTINUOUS
 10
41.351813
 20
-62.248268
 11
40.251813
 21
-62.248268
  0
LINE
  8
ボルト／ビス
  6
CONTINUOUS
 10
41.251813
 20
-62.098268
 11
41.251813
 21
-62.148268
  0
LINE
  8
ボルト／ビス
  6
CONTINUOUS
 10
41.251813
 20
-62.098268
 11
40.351813
 21
-62.098268
  0
LINE
  8
ボルト／ビス
  6
CONTINUOUS
 10
40.351813
 20
-62.098268
 11
40.351813
 21
-62.148268
  0
LINE
  8
ボルト／ビス
  6
CONTINUOUS
 62
    64
 10
41.042375
 20
-61.798268
 11
41.090488
 21
-61.81578
  0
ARC
  8
ボルト／ビス
  6
CONTINUOUS
 62
    64
 10
41.018318
 20
-61.955735
 40
0.157468
 50
90.0
 51
117.278033
  0
ARC
  8
ボルト／ビス
  6
CONTINUOUS
 62
    64
 10
40.801812
 20
-62.401871
 40
0.603603
 50
76.165015
 51
103.834998
  0
LINE
  8
ボルト／ビス
  6
CONTINUOUS
 62
    64
 10
40.56125
 20
-61.798268
 11
40.513138
 21
-61.81578
  0
ARC
  8
ボルト／ビス
  6
CONTINUOUS
 62
    64
 10
40.585306
 20
-61.955735
 40
0.157468
 50
62.721967
 51
90.0
  0
LINE
  8
ボルト／ビス
  6
CONTINUOUS
 62
    64
 10
41.042375
 20
-61.798268
 11
40.56125
 21
-61.798268
  0
LINE
  8
ボルト／ビス
  6
CONTINUOUS
 62
    64
 10
40.513138
 20
-61.81578
 11
40.513138
 21
-61.998268
  0
LINE
  8
ボルト／ビス
  6
CONTINUOUS
 62
    64
 10
40.657475
 20
-61.81578
 11
40.657475
 21
-61.998268
  0
LINE
  8
ボルト／ビス
  6
CONTINUOUS
 62
    64
 10
41.090488
 20
-61.81578
 11
41.090488
 21
-61.998268
  0
LINE
  8
ボルト／ビス
  6
CONTINUOUS
 62
    64
 10
40.94615
 20
-61.81578
 11
40.94615
 21
-61.998268
  0
LINE
  8
ボルト／ビス
  6
CONTINUOUS
 10
41.090488
 20
-61.998268
 11
40.513138
 21
-61.998268
  0
LINE
  8
ボルト／ビス
  6
CONTINUOUS
 10
41.101813
 20
-61.998268
 11
41.101813
 21
-62.098268
  0
LINE
  8
ボルト／ビス
  6
CONTINUOUS
 10
41.101813
 20
-61.998268
 11
40.501813
 21
-61.998268
  0
LINE
  8
ボルト／ビス
  6
CONTINUOUS
 10
40.501813
 20
-61.998268
 11
40.501813
 21
-62.098268
  0
ENDBLK
  0
BLOCK
  2
*GRP_0033
 70
    65
 10
0.0
 20
0.0
  0
LINE
  8
ボルト／ビス
  6
CONTINUOUS
 10
72.801813
 20
-62.248268
 11
72.801813
 21
-61.548268
  0
LINE
  8
ボルト／ビス
  6
CONTINUOUS
 10
73.351813
 20
-62.248268
 11
73.351813
 21
-62.148268
  0
LINE
  8
ボルト／ビス
  6
CONTINUOUS
 10
73.351813
 20
-62.148268
 11
72.251813
 21
-62.148268
  0
LINE
  8
ボルト／ビス
  6
CONTINUOUS
 10
72.251813
 20
-62.148268
 11
72.251813
 21
-62.248268
  0
LINE
  8
ボルト／ビス
  6
CONTINUOUS
 10
73.351813
 20
-62.248268
 11
72.251813
 21
-62.248268
  0
LINE
  8
ボルト／ビス
  6
CONTINUOUS
 10
73.251813
 20
-62.098268
 11
73.251813
 21
-62.148268
  0
LINE
  8
ボルト／ビス
  6
CONTINUOUS
 10
73.251813
 20
-62.098268
 11
72.351813
 21
-62.098268
  0
LINE
  8
ボルト／ビス
  6
CONTINUOUS
 10
72.351813
 20
-62.098268
 11
72.351813
 21
-62.148268
  0
LINE
  8
ボルト／ビス
  6
CONTINUOUS
 62
    64
 10
73.042375
 20
-61.798268
 11
73.090488
 21
-61.81578
  0
ARC
  8
ボルト／ビス
  6
CONTINUOUS
 62
    64
 10
73.018317
 20
-61.955734
 40
0.157468
 50
90.0
 51
117.278033
  0
ARC
  8
ボルト／ビス
  6
CONTINUOUS
 62
    64
 10
72.801811
 20
-62.40187
 40
0.603603
 50
76.165015
 51
103.834998
  0
LINE
  8
ボルト／ビス
  6
CONTINUOUS
 62
    64
 10
72.56125
 20
-61.798268
 11
72.513138
 21
-61.81578
  0
ARC
  8
ボルト／ビス
  6
CONTINUOUS
 62
    64
 10
72.585305
 20
-61.955734
 40
0.157468
 50
62.721967
 51
90.0
  0
LINE
  8
ボルト／ビス
  6
CONTINUOUS
 62
    64
 10
73.042375
 20
-61.798268
 11
72.56125
 21
-61.798268
  0
LINE
  8
ボルト／ビス
  6
CONTINUOUS
 62
    64
 10
72.513138
 20
-61.81578
 11
72.513138
 21
-61.998268
  0
LINE
  8
ボルト／ビス
  6
CONTINUOUS
 62
    64
 10
72.657475
 20
-61.81578
 11
72.657475
 21
-61.998268
  0
LINE
  8
ボルト／ビス
  6
CONTINUOUS
 62
    64
 10
73.090488
 20
-61.81578
 11
73.090488
 21
-61.998268
  0
LINE
  8
ボルト／ビス
  6
CONTINUOUS
 62
    64
 10
72.94615
 20
-61.81578
 11
72.94615
 21
-61.998268
  0
LINE
  8
ボルト／ビス
  6
CONTINUOUS
 10
73.090488
 20
-61.998268
 11
72.513138
 21
-61.998268
  0
LINE
  8
ボルト／ビス
  6
CONTINUOUS
 10
73.101813
 20
-61.998268
 11
73.101813
 21
-62.098268
  0
LINE
  8
ボルト／ビス
  6
CONTINUOUS
 10
73.101813
 20
-61.998268
 11
72.501813
 21
-61.998268
  0
LINE
  8
ボルト／ビス
  6
CONTINUOUS
 10
72.501813
 20
-61.998268
 11
72.501813
 21
-62.098268
  0
ENDBLK
  0
BLOCK
  2
*GRP_0034
 70
    65
 10
0.0
 20
0.0
  0
LINE
  8
ボルト／ビス
  6
DOT
 10
35.773373
 20
-61.00886
 11
35.278398
 21
-60.513885
  0
LINE
  8
ボルト／ビス
  6
DOT
 10
36.16228
 20
-60.61995
 11
36.09157
 21
-60.54924
  0
LINE
  8
ボルト／ビス
  6
DOT
 10
36.09157
 20
-60.54924
 11
35.313753
 21
-61.327057
  0
LINE
  8
ボルト／ビス
  6
DOT
 10
35.313753
 20
-61.327057
 11
35.384462
 21
-61.397768
  0
LINE
  8
ボルト／ビス
  6
DOT
 10
36.16228
 20
-60.61995
 11
35.384462
 21
-61.397768
  0
LINE
  8
ボルト／ビス
  6
DOT
 10
35.985503
 20
-60.584595
 11
36.02086
 21
-60.61995
  0
LINE
  8
ボルト／ビス
  6
DOT
 10
35.985503
 20
-60.584595
 11
35.349107
 21
-61.22099
  0
LINE
  8
ボルト／ビス
  6
DOT
 10
35.349107
 20
-61.22099
 11
35.384462
 21
-61.256347
  0
LINE
  8
ボルト／ビス
  6
DOT
 62
    64
 10
35.625278
 20
-60.520557
 11
35.67168
 21
-60.49892
  0
ARC
  8
ボルト／ビス
  6
DOT
 62
    64
 10
35.71961
 20
-60.648914
 40
0.157468
 50
135.000006
 51
162.278039
  0
ARC
  8
ボルト／ビス
  6
DOT
 62
    64
 10
35.881983
 20
-61.117472
 40
0.603603
 50
121.16502
 51
148.835003
  0
LINE
  8
ボルト／ビス
  6
DOT
 62
    64
 10
35.28507
 20
-60.860765
 11
35.263433
 21
-60.907168
  0
ARC
  8
ボルト／ビス
  6
DOT
 62
    64
 10
35.413424
 20
-60.9551
 40
0.157468
 50
107.721973
 51
135.000006
  0
LINE
  8
ボルト／ビス
  6
DOT
 62
    64
 10
35.625278
 20
-60.520557
 11
35.28507
 21
-60.860765
  0
LINE
  8
ボルト／ビス
  6
DOT
 62
    64
 10
35.263433
 20
-60.907168
 11
35.39247
 21
-61.036205
  0
LINE
  8
ボルト／ビス
  6
DOT
 62
    64
 10
35.365495
 20
-60.805105
 11
35.494533
 21
-60.934145
  0
LINE
  8
ボルト／ビス
  6
DOT
 62
    64
 10
35.67168
 20
-60.49892
 11
35.80072
 21
-60.627957
  0
LINE
  8
ボルト／ビス
  6
DOT
 62
    64
 10
35.56962
 20
-60.600983
 11
35.698658
 21
-60.73002
  0
LINE
  8
ボルト／ビス
  6
DOT
 10
35.80072
 20
-60.627957
 11
35.39247
 21
-61.036205
  0
LINE
  8
ボルト／ビス
  6
DOT
 10
35.808727
 20
-60.61995
 11
35.879437
 21
-60.69066
  0
LINE
  8
ボルト／ビス
  6
DOT
 10
35.808727
 20
-60.61995
 11
35.384462
 21
-61.044215
  0
LINE
  8
ボルト／ビス
  6
DOT
 10
35.384462
 20
-61.044215
 11
35.455172
 21
-61.114925
  0
ENDBLK
  0
BLOCK
  2
*GRP_0035
 70
    65
 10
0.0
 20
0.0
  0
LINE
  8
ボルト／ビス
  6
DOT
 10
58.400787
 20
-38.381445
 11
57.905812
 21
-37.88647
  0
LINE
  8
ボルト／ビス
  6
DOT
 10
58.789695
 20
-37.992535
 11
58.718985
 21
-37.921825
  0
LINE
  8
ボルト／ビス
  6
DOT
 10
58.718985
 20
-37.921825
 11
57.941167
 21
-38.699643
  0
LINE
  8
ボルト／ビス
  6
DOT
 10
57.941167
 20
-38.699643
 11
58.011878
 21
-38.770352
  0
LINE
  8
ボルト／ビス
  6
DOT
 10
58.789695
 20
-37.992535
 11
58.011878
 21
-38.770352
  0
LINE
  8
ボルト／ビス
  6
DOT
 10
58.612918
 20
-37.95718
 11
58.648275
 21
-37.992535
  0
LINE
  8
ボルト／ビス
  6
DOT
 10
58.612918
 20
-37.95718
 11
57.976522
 21
-38.593575
  0
LINE
  8
ボルト／ビス
  6
DOT
 10
57.976522
 20
-38.593575
 11
58.011878
 21
-38.628932
  0
LINE
  8
ボルト／ビス
  6
DOT
 62
    64
 10
58.252693
 20
-37.893142
 11
58.299095
 21
-37.871505
  0
ARC
  8
ボルト／ビス
  6
DOT
 62
    64
 10
58.347025
 20
-38.021498
 40
0.157468
 50
135.000006
 51
162.278039
  0
ARC
  8
ボルト／ビス
  6
DOT
 62
    64
 10
58.509398
 20
-38.490056
 40
0.603603
 50
121.16502
 51
148.835003
  0
LINE
  8
ボルト／ビス
  6
DOT
 62
    64
 10
57.912485
 20
-38.23335
 11
57.890848
 21
-38.279752
  0
ARC
  8
ボルト／ビス
  6
DOT
 62
    64
 10
58.040839
 20
-38.327684
 40
0.157468
 50
107.721973
 51
135.000006
  0
LINE
  8
ボルト／ビス
  6
DOT
 62
    64
 10
58.252693
 20
-37.893142
 11
57.912485
 21
-38.23335
  0
LINE
  8
ボルト／ビス
  6
DOT
 62
    64
 10
57.890848
 20
-38.279752
 11
58.019885
 21
-38.40879
  0
LINE
  8
ボルト／ビス
  6
DOT
 62
    64
 10
57.99291
 20
-38.17769
 11
58.121947
 21
-38.30673
  0
LINE
  8
ボルト／ビス
  6
DOT
 62
    64
 10
58.299095
 20
-37.871505
 11
58.428135
 21
-38.000543
  0
LINE
  8
ボルト／ビス
  6
DOT
 62
    64
 10
58.197035
 20
-37.973567
 11
58.326073
 21
-38.102605
  0
LINE
  8
ボルト／ビス
  6
DOT
 10
58.428135
 20
-38.000543
 11
58.019885
 21
-38.40879
  0
LINE
  8
ボルト／ビス
  6
DOT
 10
58.436142
 20
-37.992535
 11
58.506853
 21
-38.063245
  0
LINE
  8
ボルト／ビス
  6
DOT
 10
58.436142
 20
-37.992535
 11
58.011878
 21
-38.4168
  0
LINE
  8
ボルト／ビス
  6
DOT
 10
58.011878
 20
-38.4168
 11
58.082588
 21
-38.48751
  0
ENDBLK
  0
ENDSEC
  0
SECTION
  2
ENTITIES
  0
POLYLINE
  8
通り芯
  6
CONTINUOUS
 66
     1
 70
     1
  0
VERTEX
  8
通り芯
 10
-210.0
 20
-148.5
  0
VERTEX
  8
通り芯
 10
210.0
 20
-148.5
  0
VERTEX
  8
通り芯
 10
210.0
 20
148.5
  0
VERTEX
  8
通り芯
 10
-210.0
 20
148.5
  0
SEQEND
  0
INSERT
  2
*GRP_0001
  8
型材断面
  6
CONTINUOUS
 10
0.0
 20
0.0
  0
LINE
  8
型材断面
  6
DASHDOT
 10
-92.435405
 20
1.69199
 11
-62.435405
 21
1.69199
  0
LINE
  8
型材断面
  6
DASHDOT
 10
-92.435405
 20
-77.76228
 11
-92.435405
 21
31.69199
  0
LINE
  8
型材断面
  6
DASHDOT
 10
-77.435405
 20
-77.76228
 11
-77.435405
 21
31.69199
  0
LINE
  8
型材断面
  6
DASHDOT
 10
-62.435405
 20
-77.76228
 11
-62.435405
 21
31.69199
  0
LINE
  8
型材断面
  6
DASHDOT
 10
-92.435405
 20
16.69199
 11
-62.435405
 21
16.69199
  0
LINE
  8
型材断面
  6
DASHDOT
 10
-92.435405
 20
31.69199
 11
-62.435405
 21
31.69199
  0
LINE
  8
型材断面
  6
CONTINUOUS
 10
-100.459278
 20
16.69199
 11
-104.345038
 21
14.448545
  0
LINE
  8
型材断面
  6
CONTINUOUS
 10
-100.459278
 20
16.69199
 11
-104.345038
 21
18.935435
  0
LINE
  8
型材断面
  6
CONTINUOUS
 10
-104.345038
 20
18.935435
 11
-104.345038
 21
14.448545
  0
LINE
  8
型材断面
  6
CONTINUOUS
 10
-54.411528
 20
16.69199
 11
-50.525767
 21
14.448545
  0
LINE
  8
型材断面
  6
CONTINUOUS
 10
-54.411528
 20
16.69199
 11
-50.525767
 21
18.935435
  0
LINE
  8
型材断面
  6
CONTINUOUS
 10
-50.525767
 20
18.935435
 11
-50.525767
 21
14.448545
  0
LINE
  8
型材断面
  6
CONTINUOUS
 10
-77.435405
 20
39.715863
 11
-79.67885
 21
43.601622
  0
LINE
  8
型材断面
  6
CONTINUOUS
 10
-77.435405
 20
39.715863
 11
-75.19196
 21
43.601622
  0
LINE
  8
型材断面
  6
CONTINUOUS
 10
-75.19196
 20
43.601622
 11
-79.67885
 21
43.601622
  0
LINE
  8
型材断面
  6
CONTINUOUS
 10
-77.435405
 20
-6.331887
 11
-79.67885
 21
-10.217648
  0
LINE
  8
型材断面
  6
CONTINUOUS
 10
-77.435405
 20
-6.331887
 11
-75.19196
 21
-10.217648
  0
LINE
  8
型材断面
  6
CONTINUOUS
 10
-75.19196
 20
-10.217648
 11
-79.67885
 21
-10.217648
  0
LINE
  8
型材断面
  6
CONTINUOUS
 10
-35.48472
 20
-6.182028
 11
-37.728165
 21
-10.067788
  0
LINE
  8
型材断面
  6
CONTINUOUS
 10
-35.48472
 20
-6.182028
 11
-33.241275
 21
-10.067788
  0
LINE
  8
型材断面
  6
CONTINUOUS
 10
-33.241275
 20
-10.067788
 11
-37.728165
 21
-10.067788
  0
LINE
  8
型材断面
  6
CONTINUOUS
 10
-35.48472
 20
-13.871575
 11
-34.590635
 21
-17.757335
  0
LINE
  8
型材断面
  6
CONTINUOUS
 10
-35.48472
 20
-13.871575
 11
-36.378805
 21
-17.757335
  0
LINE
  8
型材断面
  6
CONTINUOUS
 10
-36.378805
 20
-17.757335
 11
-34.590635
 21
-17.757335
  0
LINE
  8
型材断面
  6
CONTINUOUS
 10
-44.5186
 20
-11.47568
 11
8.13808
 21
-11.47568
  0
LINE
  8
型材断面
  6
CONTINUOUS
 10
-44.5186
 20
-22.675673
 11
8.13808
 21
-22.675673
  0
LINE
  8
型材断面
  6
CONTINUOUS
 10
-44.5186
 20
-29.515618
 11
8.13808
 21
-29.515618
  0
LINE
  8
型材断面
  6
CONTINUOUS
 10
-95.535405
 20
-1.40801
 11
-98.035448
 21
-3.908053
  0
LINE
  8
型材断面
  6
CONTINUOUS
 10
-98.035448
 20
-3.908053
 11
-98.035448
 21
16.69199
  0
LINE
  8
型材断面
  6
CONTINUOUS
 10
-96.935448
 20
-2.808053
 11
-96.935448
 21
16.69199
  0
LINE
  8
型材断面
  6
CONTINUOUS
 10
-98.035448
 20
-3.908053
 11
-77.435405
 21
-3.908053
  0
LINE
  8
型材断面
  6
CONTINUOUS
 10
-96.935448
 20
-2.808053
 11
-77.435405
 21
-2.808053
  0
LINE
  8
型材断面
  6
CONTINUOUS
 10
-59.335405
 20
-1.40801
 11
-56.835362
 21
-3.908053
  0
LINE
  8
型材断面
  6
CONTINUOUS
 10
-56.835362
 20
-3.908053
 11
-56.835362
 21
16.69199
  0
LINE
  8
型材断面
  6
CONTINUOUS
 10
-57.935362
 20
-2.808053
 11
-57.935362
 21
16.69199
  0
LINE
  8
型材断面
  6
CONTINUOUS
 10
-56.835362
 20
-3.908053
 11
-77.435405
 21
-3.908053
  0
LINE
  8
型材断面
  6
CONTINUOUS
 10
-57.935362
 20
-2.808053
 11
-77.435405
 21
-2.808053
  0
LINE
  8
型材断面
  6
CONTINUOUS
 10
-59.335405
 20
34.79199
 11
-56.835362
 21
37.292032
  0
LINE
  8
型材断面
  6
CONTINUOUS
 10
-56.835362
 20
37.292032
 11
-56.835362
 21
16.69199
  0
LINE
  8
型材断面
  6
CONTINUOUS
 10
-57.935362
 20
36.192032
 11
-57.935362
 21
16.69199
  0
LINE
  8
型材断面
  6
CONTINUOUS
 10
-56.835362
 20
37.292032
 11
-77.435405
 21
37.292032
  0
LINE
  8
型材断面
  6
CONTINUOUS
 10
-57.935362
 20
36.192032
 11
-77.435405
 21
36.192032
  0
LINE
  8
型材断面
  6
CONTINUOUS
 10
-95.535405
 20
34.79199
 11
-98.035448
 21
37.292032
  0
LINE
  8
型材断面
  6
CONTINUOUS
 10
-98.035448
 20
37.292032
 11
-98.035448
 21
16.69199
  0
LINE
  8
型材断面
  6
CONTINUOUS
 10
-96.935448
 20
36.192032
 11
-96.935448
 21
16.69199
  0
LINE
  8
型材断面
  6
CONTINUOUS
 10
-98.035448
 20
37.292032
 11
-77.435405
 21
37.292032
  0
LINE
  8
型材断面
  6
CONTINUOUS
 10
-96.935448
 20
36.192032
 11
-77.435405
 21
36.192032
  0
LINE
  8
型材断面
  6
CONTINUOUS
 62
    47
 10
40.231773
 20
-67.623442
 11
39.151453
 21
-67.623442
  0
LINE
  8
型材断面
  6
CONTINUOUS
 62
    47
 10
39.216497
 20
-65.683463
 11
39.201498
 21
-65.668462
  0
LINE
  8
型材断面
  6
CONTINUOUS
 62
    47
 10
39.216497
 20
-65.683463
 11
39.201498
 21
-65.698463
  0
LINE
  8
型材断面
  6
CONTINUOUS
 62
    47
 10
39.216497
 20
-66.64681
 11
39.201498
 21
-66.63181
  0
LINE
  8
型材断面
  6
CONTINUOUS
 62
    47
 10
39.216497
 20
-66.64681
 11
39.201498
 21
-66.66181
  0
LINE
  8
型材断面
  6
CONTINUOUS
 62
    47
 10
39.201498
 20
-67.273488
 11
39.201498
 21
-66.66181
  0
LINE
  8
型材断面
  6
CONTINUOUS
 62
    47
 10
39.201498
 20
-66.63181
 11
39.201498
 21
-65.698463
  0
LINE
  8
型材断面
  6
CONTINUOUS
 62
    47
 10
36.951757
 20
-72.723618
 11
36.951757
 21
-72.223618
  0
LINE
  8
型材断面
  6
CONTINUOUS
 62
    47
 10
39.8515
 20
-71.223615
 11
40.74677
 21
-71.223615
  0
LINE
  8
型材断面
  6
CONTINUOUS
 62
    47
 10
39.50177
 20
-71.223595
 11
36.20177
 21
-71.473618
  0
LINE
  8
型材断面
  6
CONTINUOUS
 62
    47
 10
36.20177
 20
-72.223618
 11
36.20177
 21
-71.473618
  0
LINE
  8
型材断面
  6
CONTINUOUS
 62
    47
 10
37.30177
 20
-68.02343
 11
56.801813
 21
-68.02343
  0
LINE
  8
型材断面
  6
CONTINUOUS
 10
56.801813
 20
-71.223615
 11
39.50177
 21
-71.223615
  0
LINE
  8
型材断面
  6
CONTINUOUS
 10
56.801813
 20
-72.723618
 11
36.951757
 21
-72.723618
  0
LINE
  8
型材断面
  6
CONTINUOUS
 10
56.801813
 20
-72.223618
 11
36.20177
 21
-72.223618
  0
LINE
  8
型材断面
  6
CONTINUOUS
 62
    47
 10
39.201498
 20
-65.668462
 11
39.201498
 21
-63.748265
  0
LINE
  8
型材断面
  6
CONTINUOUS
 62
    47
 10
56.801813
 20
-67.623442
 11
37.30177
 21
-67.623442
  0
LINE
  8
型材断面
  6
CONTINUOUS
 62
    47
 10
37.30177
 20
-67.373475
 11
37.30177
 21
-67.623442
  0
LINE
  8
型材断面
  6
CONTINUOUS
 62
    47
 10
56.801813
 20
-67.823455
 11
37.30177
 21
-67.823455
  0
LINE
  8
型材断面
  6
CONTINUOUS
 62
    47
 10
37.30177
 20
-68.02343
 11
37.30177
 21
-67.823455
  0
LINE
  8
型材断面
  6
CONTINUOUS
 62
    47
 10
39.201498
 20
-67.273488
 11
37.29174
 21
-67.373475
  0
LINE
  8
型材断面
  6
CONTINUOUS
 62
    47
 10
39.50177
 20
-68.02343
 11
39.50177
 21
-71.223615
  0
LINE
  8
型材断面
  6
CONTINUOUS
 10
56.801813
 20
-71.473618
 11
36.20177
 21
-71.473618
  0
LINE
  8
型材断面
  6
CONTINUOUS
 10
39.201498
 20
-67.273488
 11
56.801813
 21
-67.273488
  0
LINE
  8
型材断面
  6
CONTINUOUS
 10
37.30177
 20
-67.373475
 11
56.801813
 21
-67.373475
  0
LINE
  8
型材断面
  6
CONTINUOUS
 62
    47
 10
73.371853
 20
-67.623442
 11
74.452173
 21
-67.623442
  0
LINE
  8
型材断面
  6
CONTINUOUS
 62
    47
 10
74.387127
 20
-65.683463
 11
74.402127
 21
-65.668462
  0
LINE
  8
型材断面
  6
CONTINUOUS
 62
    47
 10
74.387127
 20
-65.683463
 11
74.402127
 21
-65.698463
  0
LINE
  8
型材断面
  6
CONTINUOUS
 62
    47
 10
74.387127
 20
-66.64681
 11
74.402127
 21
-66.63181
  0
LINE
  8
型材断面
  6
CONTINUOUS
 62
    47
 10
74.387127
 20
-66.64681
 11
74.402127
 21
-66.66181
  0
LINE
  8
型材断面
  6
CONTINUOUS
 62
    47
 10
74.402127
 20
-67.273488
 11
74.402127
 21
-66.66181
  0
LINE
  8
型材断面
  6
CONTINUOUS
 62
    47
 10
74.402127
 20
-66.63181
 11
74.402127
 21
-65.698463
  0
LINE
  8
型材断面
  6
CONTINUOUS
 62
    47
 10
76.651867
 20
-72.723618
 11
76.651867
 21
-72.223618
  0
LINE
  8
型材断面
  6
CONTINUOUS
 62
    47
 10
73.752125
 20
-71.223615
 11
72.856855
 21
-71.223615
  0
LINE
  8
型材断面
  6
CONTINUOUS
 62
    47
 10
74.101855
 20
-71.223595
 11
77.401855
 21
-71.473618
  0
LINE
  8
型材断面
  6
CONTINUOUS
 62
    47
 10
77.401855
 20
-72.223618
 11
77.401855
 21
-71.473618
  0
LINE
  8
型材断面
  6
CONTINUOUS
 62
    47
 10
76.301855
 20
-68.02343
 11
56.801813
 21
-68.02343
  0
LINE
  8
型材断面
  6
CONTINUOUS
 10
56.801813
 20
-71.223615
 11
74.101855
 21
-71.223615
  0
LINE
  8
型材断面
  6
CONTINUOUS
 10
56.801813
 20
-72.723618
 11
76.651867
 21
-72.723618
  0
LINE
  8
型材断面
  6
CONTINUOUS
 10
56.801813
 20
-72.223618
 11
77.401855
 21
-72.223618
  0
LINE
  8
型材断面
  6
CONTINUOUS
 62
    47
 10
74.402127
 20
-65.668462
 11
74.402127
 21
-63.748265
  0
LINE
  8
型材断面
  6
CONTINUOUS
 62
    47
 10
56.801813
 20
-67.623442
 11
76.301855
 21
-67.623442
  0
LINE
  8
型材断面
  6
CONTINUOUS
 62
    47
 10
76.301855
 20
-67.373475
 11
76.301855
 21
-67.623442
  0
LINE
  8
型材断面
  6
CONTINUOUS
 62
    47
 10
56.801813
 20
-67.823455
 11
76.301855
 21
-67.823455
  0
LINE
  8
型材断面
  6
CONTINUOUS
 62
    47
 10
76.301855
 20
-68.02343
 11
76.301855
 21
-67.823455
  0
LINE
  8
型材断面
  6
CONTINUOUS
 62
    47
 10
74.402127
 20
-67.273488
 11
76.311885
 21
-67.373475
  0
LINE
  8
型材断面
  6
CONTINUOUS
 62
    47
 10
74.101855
 20
-68.02343
 11
74.101855
 21
-71.223615
  0
LINE
  8
型材断面
  6
CONTINUOUS
 10
56.801813
 20
-71.473618
 11
77.401855
 21
-71.473618
  0
LINE
  8
型材断面
  6
CONTINUOUS
 10
74.402127
 20
-67.273488
 11
56.801813
 21
-67.273488
  0
LINE
  8
型材断面
  6
CONTINUOUS
 10
76.301855
 20
-67.373475
 11
56.801813
 21
-67.373475
  0
LINE
  8
型材断面
  6
CONTINUOUS
 10
-54.411528
 20
28.69199
 11
-50.525767
 21
27.797905
  0
LINE
  8
型材断面
  6
CONTINUOUS
 10
-54.411528
 20
28.69199
 11
-50.525767
 21
29.586075
  0
LINE
  8
型材断面
  6
CONTINUOUS
 10
-50.525767
 20
29.586075
 11
-50.525767
 21
27.797905
  0
LINE
  8
型材断面
  6
CONTINUOUS
 10
-54.411528
 20
4.69199
 11
-50.525767
 21
5.586075
  0
LINE
  8
型材断面
  6
CONTINUOUS
 10
-54.411528
 20
4.69199
 11
-50.525767
 21
3.797905
  0
LINE
  8
型材断面
  6
CONTINUOUS
 10
-50.525767
 20
3.797905
 11
-50.525767
 21
5.586075
  0
LINE
  8
型材断面
  6
DOT
 62
    47
 10
39.171115
 20
-65.212763
 11
38.407213
 21
-65.976665
  0
LINE
  8
型材断面
  6
DOT
 62
    47
 10
37.081432
 20
-64.558897
 11
37.06022
 21
-64.558897
  0
LINE
  8
型材断面
  6
DOT
 62
    47
 10
37.081432
 20
-64.558897
 11
37.081432
 21
-64.58011
  0
LINE
  8
型材断面
  6
DOT
 62
    47
 10
37.762622
 20
-65.240088
 11
37.74141
 21
-65.240088
  0
LINE
  8
型材断面
  6
DOT
 62
    47
 10
37.762622
 20
-65.240088
 11
37.762622
 21
-65.2613
  0
LINE
  8
型材断面
  6
DOT
 62
    47
 10
38.195145
 20
-65.69382
 11
37.762622
 21
-65.2613
  0
LINE
  8
型材断面
  6
DOT
 62
    47
 10
37.74141
 20
-65.240088
 11
37.081432
 21
-64.58011
  0
LINE
  8
型材断面
  6
DOT
 62
    47
 10
37.06022
 20
-64.558897
 11
35.702435
 21
-63.201113
  0
LINE
  8
型材断面
  6
DOT
 62
    47
 10
50.887903
 20
-53.495975
 11
37.09929
 21
-67.284588
  0
LINE
  8
型材断面
  6
DOT
 62
    47
 10
36.922535
 20
-67.107833
 11
37.09929
 21
-67.284588
  0
LINE
  8
型材断面
  6
DOT
 62
    47
 10
38.195145
 20
-65.69382
 11
36.915443
 21
-67.114925
  0
LINE
  8
型材断面
  6
DOT
 10
38.195145
 20
-65.69382
 11
50.640447
 21
-53.24852
  0
LINE
  8
型材断面
  6
DOT
 10
36.922535
 20
-67.107833
 11
50.711147
 21
-53.31922
  0
LINE
  8
型材断面
  6
DOT
 62
    47
 10
62.60469
 20
-41.779187
 11
63.368592
 21
-41.015285
  0
LINE
  8
型材断面
  6
DOT
 62
    47
 10
61.950825
 20
-39.689505
 11
61.950825
 21
-39.668293
  0
LINE
  8
型材断面
  6
DOT
 62
    47
 10
61.950825
 20
-39.689505
 11
61.972038
 21
-39.689505
  0
LINE
  8
型材断面
  6
DOT
 62
    47
 10
62.632015
 20
-40.370695
 11
62.632015
 21
-40.349482
  0
LINE
  8
型材断面
  6
DOT
 62
    47
 10
62.632015
 20
-40.370695
 11
62.653227
 21
-40.370695
  0
LINE
  8
型材断面
  6
DOT
 62
    47
 10
63.085748
 20
-40.803218
 11
62.653227
 21
-40.370695
  0
LINE
  8
型材断面
  6
DOT
 62
    47
 10
62.632015
 20
-40.349482
 11
61.972038
 21
-39.689505
  0
LINE
  8
型材断面
  6
DOT
 62
    47
 10
61.950825
 20
-39.668293
 11
60.59304
 21
-38.310508
  0
LINE
  8
型材断面
  6
DOT
 62
    47
 10
50.887903
 20
-53.495975
 11
64.676515
 21
-39.707363
  0
LINE
  8
型材断面
  6
DOT
 62
    47
 10
64.49976
 20
-39.530608
 11
64.676515
 21
-39.707363
  0
LINE
  8
型材断面
  6
DOT
 62
    47
 10
63.085748
 20
-40.803218
 11
64.506853
 21
-39.523517
  0
LINE
  8
型材断面
  6
DOT
 10
63.085748
 20
-40.803218
 11
50.640447
 21
-53.24852
  0
LINE
  8
型材断面
  6
DOT
 10
64.49976
 20
-39.530608
 11
50.711147
 21
-53.31922
  0
ARC
  8
型材断面
  6
DASHDOT
 10
36.791495
 20
-67.69843
 40
39.51043
 50
360.108743
 51
405.108742
  0
LINE
  8
型材断面
  6
CONTINUOUS
 62
    47
 10
-94.005445
 20
-67.398442
 11
-95.085765
 21
-67.398442
  0
LINE
  8
型材断面
  6
CONTINUOUS
 62
    47
 10
-95.02072
 20
-65.458463
 11
-95.03572
 21
-65.443462
  0
LINE
  8
型材断面
  6
CONTINUOUS
 62
    47
 10
-95.02072
 20
-65.458463
 11
-95.03572
 21
-65.473463
  0
LINE
  8
型材断面
  6
CONTINUOUS
 62
    47
 10
-95.02072
 20
-66.42181
 11
-95.03572
 21
-66.40681
  0
LINE
  8
型材断面
  6
CONTINUOUS
 62
    47
 10
-95.02072
 20
-66.42181
 11
-95.03572
 21
-66.43681
  0
LINE
  8
型材断面
  6
CONTINUOUS
 62
    47
 10
-95.03572
 20
-67.048488
 11
-95.03572
 21
-66.43681
  0
LINE
  8
型材断面
  6
CONTINUOUS
 62
    47
 10
-95.03572
 20
-66.40681
 11
-95.03572
 21
-65.473463
  0
LINE
  8
型材断面
  6
CONTINUOUS
 62
    47
 10
-97.28546
 20
-72.498617
 11
-97.28546
 21
-71.998617
  0
LINE
  8
型材断面
  6
CONTINUOUS
 62
    47
 10
-94.385718
 20
-70.998615
 11
-93.490448
 21
-70.998615
  0
LINE
  8
型材断面
  6
CONTINUOUS
 62
    47
 10
-94.735448
 20
-70.998595
 11
-98.035448
 21
-71.248617
  0
LINE
  8
型材断面
  6
CONTINUOUS
 62
    47
 10
-98.035448
 20
-71.998617
 11
-98.035448
 21
-71.248617
  0
LINE
  8
型材断面
  6
CONTINUOUS
 62
    47
 10
-96.935448
 20
-67.79843
 11
-77.435405
 21
-67.79843
  0
LINE
  8
型材断面
  6
CONTINUOUS
 10
-77.435405
 20
-70.998615
 11
-94.735448
 21
-70.998615
  0
LINE
  8
型材断面
  6
CONTINUOUS
 10
-77.435405
 20
-72.498617
 11
-97.28546
 21
-72.498617
  0
LINE
  8
型材断面
  6
CONTINUOUS
 10
-77.435405
 20
-71.998617
 11
-98.035448
 21
-71.998617
  0
LINE
  8
型材断面
  6
CONTINUOUS
 62
    47
 10
-77.435405
 20
-67.398442
 11
-96.935448
 21
-67.398442
  0
LINE
  8
型材断面
  6
CONTINUOUS
 62
    47
 10
-96.935448
 20
-67.148475
 11
-96.935448
 21
-67.398442
  0
LINE
  8
型材断面
  6
CONTINUOUS
 62
    47
 10
-77.435405
 20
-67.598455
 11
-96.935448
 21
-67.598455
  0
LINE
  8
型材断面
  6
CONTINUOUS
 62
    47
 10
-96.935448
 20
-67.79843
 11
-96.935448
 21
-67.598455
  0
LINE
  8
型材断面
  6
CONTINUOUS
 62
    47
 10
-95.03572
 20
-67.048488
 11
-96.945478
 21
-67.148475
  0
LINE
  8
型材断面
  6
CONTINUOUS
 62
    47
 10
-94.735448
 20
-67.79843
 11
-94.735448
 21
-70.998615
  0
LINE
  8
型材断面
  6
CONTINUOUS
 10
-77.435405
 20
-71.248617
 11
-98.035448
 21
-71.248617
  0
LINE
  8
型材断面
  6
CONTINUOUS
 10
-95.03572
 20
-67.048488
 11
-77.435405
 21
-67.048488
  0
LINE
  8
型材断面
  6
CONTINUOUS
 10
-96.935448
 20
-67.148475
 11
-77.435405
 21
-67.148475
  0
LINE
  8
型材断面
  6
CONTINUOUS
 62
    47
 10
-60.865365
 20
-67.398442
 11
-59.785045
 21
-67.398442
  0
LINE
  8
型材断面
  6
CONTINUOUS
 62
    47
 10
-59.85009
 20
-65.458463
 11
-59.83509
 21
-65.443462
  0
LINE
  8
型材断面
  6
CONTINUOUS
 62
    47
 10
-59.85009
 20
-65.458463
 11
-59.83509
 21
-65.473463
  0
LINE
  8
型材断面
  6
CONTINUOUS
 62
    47
 10
-59.85009
 20
-66.42181
 11
-59.83509
 21
-66.40681
  0
LINE
  8
型材断面
  6
CONTINUOUS
 62
    47
 10
-59.85009
 20
-66.42181
 11
-59.83509
 21
-66.43681
  0
LINE
  8
型材断面
  6
CONTINUOUS
 62
    47
 10
-59.83509
 20
-67.048488
 11
-59.83509
 21
-66.43681
  0
LINE
  8
型材断面
  6
CONTINUOUS
 62
    47
 10
-59.83509
 20
-66.40681
 11
-59.83509
 21
-65.473463
  0
LINE
  8
型材断面
  6
CONTINUOUS
 62
    47
 10
-57.58535
 20
-72.498617
 11
-57.58535
 21
-71.998617
  0
LINE
  8
型材断面
  6
CONTINUOUS
 62
    47
 10
-60.485092
 20
-70.998615
 11
-61.380362
 21
-70.998615
  0
LINE
  8
型材断面
  6
CONTINUOUS
 62
    47
 10
-60.135362
 20
-70.998595
 11
-56.835362
 21
-71.248617
  0
LINE
  8
型材断面
  6
CONTINUOUS
 62
    47
 10
-56.835362
 20
-71.998617
 11
-56.835362
 21
-71.248617
  0
LINE
  8
型材断面
  6
CONTINUOUS
 62
    47
 10
-57.935362
 20
-67.79843
 11
-77.435405
 21
-67.79843
  0
LINE
  8
型材断面
  6
CONTINUOUS
 10
-77.435405
 20
-70.998615
 11
-60.135362
 21
-70.998615
  0
LINE
  8
型材断面
  6
CONTINUOUS
 10
-77.435405
 20
-72.498617
 11
-57.58535
 21
-72.498617
  0
LINE
  8
型材断面
  6
CONTINUOUS
 10
-77.435405
 20
-71.998617
 11
-56.835362
 21
-71.998617
  0
LINE
  8
型材断面
  6
CONTINUOUS
 62
    47
 10
-77.435405
 20
-67.398442
 11
-57.935362
 21
-67.398442
  0
LINE
  8
型材断面
  6
CONTINUOUS
 62
    47
 10
-57.935362
 20
-67.148475
 11
-57.935362
 21
-67.398442
  0
LINE
  8
型材断面
  6
CONTINUOUS
 62
    47
 10
-77.435405
 20
-67.598455
 11
-57.935362
 21
-67.598455
  0
LINE
  8
型材断面
  6
CONTINUOUS
 62
    47
 10
-57.935362
 20
-67.79843
 11
-57.935362
 21
-67.598455
  0
LINE
  8
型材断面
  6
CONTINUOUS
 62
    47
 10
-59.83509
 20
-67.048488
 11
-57.925332
 21
-67.148475
  0
LINE
  8
型材断面
  6
CONTINUOUS
 62
    47
 10
-60.135362
 20
-67.79843
 11
-60.135362
 21
-70.998615
  0
LINE
  8
型材断面
  6
CONTINUOUS
 10
-77.435405
 20
-71.248617
 11
-56.835362
 21
-71.248617
  0
LINE
  8
型材断面
  6
CONTINUOUS
 10
-59.83509
 20
-67.048488
 11
-77.435405
 21
-67.048488
  0
LINE
  8
型材断面
  6
CONTINUOUS
 10
-57.935362
 20
-67.148475
 11
-77.435405
 21
-67.148475
  0
LINE
  8
型材断面
  6
CONTINUOUS
 62
    47
 10
-59.83509
 20
-65.443462
 11
-59.83509
 21
-63.748265
  0
LINE
  8
型材断面
  6
CONTINUOUS
 62
    47
 10
-95.03572
 20
-65.443462
 11
-95.03572
 21
-63.748265
  0
POLYLINE
  8
型材断面
  6
CONTINUOUS
 66
     1
 70
     1
  0
VERTEX
  8
型材断面
 10
-101.415475
 20
-64.546893
  0
VERTEX
  8
型材断面
 10
-115.011485
 20
-64.546893
  0
VERTEX
  8
型材断面
 10
-115.011485
 20
-69.84042
  0
VERTEX
  8
型材断面
 10
-101.415475
 20
-69.84042
  0
SEQEND
  0
POLYLINE
  8
型材断面
  6
DASHDOT
 66
     1
  0
VERTEX
  8
型材断面
 10
-62.435405
 20
31.69199
  0
VERTEX
  8
型材断面
 10
-92.435405
 20
16.69199
  0
VERTEX
  8
型材断面
 10
-62.435405
 20
1.69199
  0
SEQEND
  0
LINE
  8
ガラス
  6
CONTINUOUS
 10
167.304785
 20
64.724703
 11
136.504785
 21
64.724703
  0
LINE
  8
ガラス
  6
CONTINUOUS
 10
136.504785
 20
64.724703
 11
136.504785
 21
33.924703
  0
LINE
  8
ガラス
  6
CONTINUOUS
 10
136.504785
 20
33.924703
 11
167.304785
 21
33.924703
  0
LINE
  8
ガラス
  6
CONTINUOUS
 10
167.304785
 20
64.724703
 11
167.304785
 21
33.924703
  0
CIRCLE
  8
ボルト／ビス
  6
CONTINUOUS
 10
-84.935405
 20
0.69199
 40
0.288675
  0
CIRCLE
  8
ボルト／ビス
  6
CONTINUOUS
 10
-84.935405
 20
0.69199
 40
0.455885
  0
CIRCLE
  8
ボルト／ビス
  6
CONTINUOUS
 10
-93.435405
 20
9.19199
 40
0.288675
  0
CIRCLE
  8
ボルト／ビス
  6
CONTINUOUS
 10
-93.435405
 20
9.19199
 40
0.455885
  0
CIRCLE
  8
ボルト／ビス
  6
CONTINUOUS
 10
-69.935405
 20
0.69199
 40
0.288675
  0
CIRCLE
  8
ボルト／ビス
  6
CONTINUOUS
 10
-69.935405
 20
0.69199
 40
0.455885
  0
CIRCLE
  8
ボルト／ビス
  6
CONTINUOUS
 10
-61.435405
 20
9.19199
 40
0.288675
  0
CIRCLE
  8
ボルト／ビス
  6
CONTINUOUS
 10
-61.435405
 20
9.19199
 40
0.455885
  0
CIRCLE
  8
ボルト／ビス
  6
CONTINUOUS
 10
-69.935405
 20
32.69199
 40
0.288675
  0
CIRCLE
  8
ボルト／ビス
  6
CONTINUOUS
 10
-69.935405
 20
32.69199
 40
0.455885
  0
CIRCLE
  8
ボルト／ビス
  6
CONTINUOUS
 10
-61.435405
 20
24.19199
 40
0.288675
  0
CIRCLE
  8
ボルト／ビス
  6
CONTINUOUS
 10
-61.435405
 20
24.19199
 40
0.455885
  0
CIRCLE
  8
ボルト／ビス
  6
CONTINUOUS
 10
-84.935405
 20
32.69199
 40
0.288675
  0
CIRCLE
  8
ボルト／ビス
  6
CONTINUOUS
 10
-84.935405
 20
32.69199
 40
0.455885
  0
CIRCLE
  8
ボルト／ビス
  6
CONTINUOUS
 10
-93.435405
 20
24.19199
 40
0.288675
  0
CIRCLE
  8
ボルト／ビス
  6
CONTINUOUS
 10
-93.435405
 20
24.19199
 40
0.455885
  0
INSERT
  2
*GRP_0002
  8
文字
  6
CONTINUOUS
 10
0.0
 20
0.0
  0
INSERT
  2
*GRP_0003
  8
文字
  6
CONTINUOUS
 10
0.0
 20
0.0
  0
INSERT
  2
*GRP_0004
  8
文字
  6
CONTINUOUS
 10
0.0
 20
0.0
  0
INSERT
  2
*GRP_0005
  8
文字
  6
CONTINUOUS
 10
0.0
 20
0.0
  0
INSERT
  2
*GRP_0006
  8
文字
  6
CONTINUOUS
 10
0.0
 20
0.0
  0
INSERT
  2
*GRP_0007
  8
文字
  6
CONTINUOUS
 10
0.0
 20
0.0
  0
INSERT
  2
*GRP_0008
  8
文字
  6
CONTINUOUS
 10
0.0
 20
0.0
  0
INSERT
  2
*GRP_0009
  8
文字
  6
CONTINUOUS
 10
0.0
 20
0.0
  0
TEXT
  7
TextStyle03
  8
文字
  6
CONTINUOUS
 10
-31.2
 20
-9.725
  1
は排水穴位置を示す
 40
3.0
 72
     5
 11
-1.2
 21
-9.725
  0
TEXT
  7
TextStyle03
  8
文字
  6
CONTINUOUS
 10
-36.8
 20
-28.1
  1
アンカー数量　４ヶ所
 40
3.0
 72
     5
 11
-3.425
 21
-28.1
  0
TEXT
  7
TextStyle03
  8
文字
  6
CONTINUOUS
 10
-31.2
 20
-17.575
  1
はケーシング位置を示す
 40
3.0
 72
     5
 11
5.55
 21
-17.575
  0
TEXT
  7
TextStyle03
  8
文字
  6
CONTINUOUS
 10
-31.2
 20
-20.95
  1
２ヶ所中1ヶ所に設定
 40
3.0
 72
     5
 11
0.4875
 21
-20.95
  0
TEXT
  7
TextStyle03
  8
文字
  6
CONTINUOUS
 10
76.375
 20
-52.75
  1
45°
 40
3.0
 72
     5
 11
82.75
 21
-52.75
  0
TEXT
  7
TextStyle03
  8
文字
  6
CONTINUOUS
 10
-98.825
 20
58.1
  1
アンカーピッチ
 40
3.0
 72
     5
 11
-75.575
 21
58.1
  0
TEXT
  7
TextStyle03
  8
文字
  6
CONTINUOUS
 10
-113.4
 20
-68.55
  1
丁番側
 40
3.0
 72
     5
 11
-103.65
 21
-68.55
  0
TEXT
  7
TextStyle03
  8
文字
  6
CONTINUOUS
 10
80.875
 20
94.425
  1
ＮＳコード：ＮＳＨ
 40
5.0
 72
     5
 11
130.875
 21
94.425
  0
TEXT
  7
TextStyle03
  8
文字
  6
CONTINUOUS
 10
147.5
 20
42.125
  1
網入り6.8t
 40
3.0
 72
     5
 11
164.1875
 21
42.125
  0
TEXT
  7
TextStyle03
  8
文字
  6
CONTINUOUS
 10
154.125
 20
36.875
  1
×１枚
 40
3.0
 72
     5
 11
163.875
 21
36.875
  0
TEXT
  7
TextStyle03
  8
文字
  6
CONTINUOUS
 10
81.225
 20
116.5
  1
シリーズ：ＴＤ１Ｈ
 40
5.0
 72
     5
 11
131.225
 21
116.5
  0
TEXT
  7
TextStyle03
  8
文字
  6
CONTINUOUS
 10
81.225
 20
110.875
  1
　　　　　（片側開閉）600×600タイプ
 40
5.0
 72
     5
 11
181.85
 21
110.875
  0
TEXT
  7
TextStyle03
  8
文字
  6
CONTINUOUS
 10
81.225
 20
105.25
  1
図面名　：外観姿図
 40
5.0
 72
     5
 11
131.225
 21
105.25
  0
TEXT
  7
TextStyle03
  8
文字
  6
CONTINUOUS
 10
81.225
 20
99.625
  1
　　　　　　
 40
5.0
 72
     5
 11
114.35
 21
99.625
  0
INSERT
  2
*DIM_0010
  8
寸法
  6
CONTINUOUS
 10
0.0
 20
0.0
  0
INSERT
  2
*DIM_0011
  8
寸法
  6
CONTINUOUS
 10
0.0
 20
0.0
  0
INSERT
  2
*DIM_0021
  8
寸法
  6
CONTINUOUS
 10
0.0
 20
0.0
  0
INSERT
  2
*DIM_0022
  8
寸法
  6
CONTINUOUS
 10
0.0
 20
0.0
  0
INSERT
  2
*DIM_0023
  8
寸法
  6
CONTINUOUS
 10
0.0
 20
0.0
  0
INSERT
  2
*DIM_0024
  8
寸法
  6
CONTINUOUS
 10
0.0
 20
0.0
  0
INSERT
  2
*DIM_0026
  8
寸法
  6
CONTINUOUS
 10
0.0
 20
0.0
  0
INSERT
  2
*DIM_0027
  8
寸法
  6
CONTINUOUS
 10
0.0
 20
0.0
  0
INSERT
  2
*DIM_0028
  8
寸法
  6
CONTINUOUS
 10
0.0
 20
0.0
  0
INSERT
  2
*DIM_0029
  8
寸法
  6
CONTINUOUS
 10
0.0
 20
0.0
  0
LINE
  8
別途部材
  6
CONTINUOUS
 10
-95.535405
 20
-1.40801
 11
-94.935405
 21
-0.80801
  0
LINE
  8
別途部材
  6
CONTINUOUS
 62
    96
 10
-94.935405
 20
-62.248265
 11
-95.535405
 21
-63.748265
  0
LINE
  8
別途部材
  6
CONTINUOUS
 62
    96
 10
-94.935405
 20
-62.248265
 11
-77.435405
 21
-62.248265
  0
LINE
  8
別途部材
  6
CONTINUOUS
 10
-95.535405
 20
-63.748265
 11
-77.435405
 21
-63.748265
  0
LINE
  8
別途部材
  6
CONTINUOUS
 62
    96
 10
-59.935405
 20
-62.248265
 11
-59.335405
 21
-63.748265
  0
LINE
  8
別途部材
  6
CONTINUOUS
 62
    96
 10
-59.935405
 20
-62.248265
 11
-77.435405
 21
-62.248265
  0
LINE
  8
別途部材
  6
CONTINUOUS
 10
-59.335405
 20
-63.748265
 11
-77.435405
 21
-63.748265
  0
ARC
  8
別途部材
  6
CONTINUOUS
 10
-77.435405
 20
-72.310764
 40
18.0625
 50
33.855026
 51
146.144974
  0
LINE
  8
別途部材
  6
CONTINUOUS
 10
-95.535405
 20
-1.40801
 11
-95.535405
 21
16.69199
  0
LINE
  8
別途部材
  6
CONTINUOUS
 10
-94.935405
 20
-0.80801
 11
-94.935405
 21
16.69199
  0
LINE
  8
別途部材
  6
CONTINUOUS
 10
-94.935405
 20
-0.80801
 11
-77.435405
 21
-0.80801
  0
LINE
  8
別途部材
  6
CONTINUOUS
 10
-95.535405
 20
-1.40801
 11
-77.435405
 21
-1.40801
  0
LINE
  8
別途部材
  6
CONTINUOUS
 10
-59.335405
 20
-1.40801
 11
-59.935405
 21
-0.80801
  0
LINE
  8
別途部材
  6
CONTINUOUS
 10
-59.335405
 20
-1.40801
 11
-59.335405
 21
16.69199
  0
LINE
  8
別途部材
  6
CONTINUOUS
 10
-59.935405
 20
-0.80801
 11
-59.935405
 21
16.69199
  0
LINE
  8
別途部材
  6
CONTINUOUS
 10
-59.935405
 20
-0.80801
 11
-77.435405
 21
-0.80801
  0
LINE
  8
別途部材
  6
CONTINUOUS
 10
-59.335405
 20
-1.40801
 11
-77.435405
 21
-1.40801
  0
LINE
  8
別途部材
  6
CONTINUOUS
 10
-59.335405
 20
34.79199
 11
-59.935405
 21
34.19199
  0
LINE
  8
別途部材
  6
CONTINUOUS
 10
-59.335405
 20
34.79199
 11
-59.335405
 21
16.69199
  0
LINE
  8
別途部材
  6
CONTINUOUS
 10
-59.935405
 20
34.19199
 11
-59.935405
 21
16.69199
  0
LINE
  8
別途部材
  6
CONTINUOUS
 10
-59.935405
 20
34.19199
 11
-77.435405
 21
34.19199
  0
LINE
  8
別途部材
  6
CONTINUOUS
 10
-59.335405
 20
34.79199
 11
-77.435405
 21
34.79199
  0
LINE
  8
別途部材
  6
CONTINUOUS
 10
-95.535405
 20
34.79199
 11
-94.935405
 21
34.19199
  0
LINE
  8
別途部材
  6
CONTINUOUS
 10
-95.535405
 20
34.79199
 11
-95.535405
 21
16.69199
  0
LINE
  8
別途部材
  6
CONTINUOUS
 10
-94.935405
 20
34.19199
 11
-94.935405
 21
16.69199
  0
LINE
  8
別途部材
  6
CONTINUOUS
 10
-94.935405
 20
34.19199
 11
-77.435405
 21
34.19199
  0
LINE
  8
別途部材
  6
CONTINUOUS
 10
-95.535405
 20
34.79199
 11
-77.435405
 21
34.79199
  0
LINE
  8
別途部材
  6
CONTINUOUS
 10
-92.435405
 20
1.69199
 11
-88.025072
 21
6.102323
  0
LINE
  8
別途部材
  6
CONTINUOUS
 10
-62.435405
 20
1.69199
 11
-66.845737
 21
6.102323
  0
LINE
  8
別途部材
  6
CONTINUOUS
 62
    96
 10
39.301813
 20
-62.248265
 11
38.701813
 21
-63.748265
  0
LINE
  8
別途部材
  6
CONTINUOUS
 62
    96
 10
39.301813
 20
-62.248265
 11
56.801813
 21
-62.248265
  0
LINE
  8
別途部材
  6
CONTINUOUS
 10
38.701813
 20
-63.748265
 11
56.801813
 21
-63.748265
  0
LINE
  8
別途部材
  6
CONTINUOUS
 62
    96
 10
74.301813
 20
-62.248265
 11
74.901813
 21
-63.748265
  0
LINE
  8
別途部材
  6
CONTINUOUS
 62
    96
 10
74.301813
 20
-62.248265
 11
56.801813
 21
-62.248265
  0
LINE
  8
別途部材
  6
CONTINUOUS
 10
74.901813
 20
-63.748265
 11
56.801813
 21
-63.748265
  0
ARC
  8
別途部材
  6
CONTINUOUS
 10
56.801814
 20
-72.310764
 40
18.0625
 50
33.855026
 51
146.144974
  0
INSERT
  2
*GRP_0020
  8
別途部材
  6
CONTINUOUS
 10
0.0
 20
0.0
  0
LINE
  8
別途部材
  6
CONTINUOUS
 10
-92.435405
 20
31.69199
 11
-88.025072
 21
27.281658
  0
LINE
  8
別途部材
  6
CONTINUOUS
 10
-62.435405
 20
31.69199
 11
-66.845737
 21
27.281658
  0
LINE
  8
別途部材
  6
DOT
 62
    96
 10
34.71271
 20
-62.06952
 11
35.349105
 21
-63.554443
  0
LINE
  8
別途部材
  6
DOT
 62
    96
 10
34.71271
 20
-62.06952
 11
47.087077
 21
-49.69515
  0
LINE
  8
別途部材
  6
DOT
 10
35.349105
 20
-63.554443
 11
48.147738
 21
-50.75581
  0
LINE
  8
別途部材
  6
DOT
 62
    96
 10
59.461445
 20
-37.320783
 11
60.94637
 21
-37.957178
  0
LINE
  8
別途部材
  6
DOT
 62
    96
 10
59.461445
 20
-37.320783
 11
47.087077
 21
-49.69515
  0
LINE
  8
別途部材
  6
DOT
 10
60.94637
 20
-37.957178
 11
48.147738
 21
-50.75581
  0
ARC
  8
別途部材
  6
DOT
 10
54.202339
 20
-56.810411
 40
18.0625
 50
78.855026
 51
191.144974
  0
INSERT
  2
*GRP_0025
  8
別途部材
  6
CONTINUOUS
 10
0.0
 20
0.0
  0
INSERT
  2
*GRP_0030
  8
別途部材
  6
DOT
 10
0.0
 20
0.0
  0
INSERT
  2
*GRP_0031
  8
別途部材
  6
DOT
 10
0.0
 20
0.0
  0
INSERT
  2
*GRP_0032
  8
別途部材
  6
DOT
 10
0.0
 20
0.0
  0
INSERT
  2
*GRP_0033
  8
別途部材
  6
DOT
 10
0.0
 20
0.0
  0
INSERT
  2
*GRP_0034
  8
別途部材
  6
DOT
 10
0.0
 20
0.0
  0
INSERT
  2
*GRP_0035
  8
別途部材
  6
DOT
 10
0.0
 20
0.0
  0
ENDSEC
  0
EOF
