  0
SECTION
  2
HEADER
  9
$EXTMIN
 10
-210.0
 20
-148.5
  9
$EXTMAX
 10
210.0
 20
148.5
  9
$PDMODE
 70
    32
  9
$PDSIZE
 40
1.5
  9
$LTSCALE
 40
10.0
  0
ENDSEC
  0
SECTION
  2
TABLES
  0
TABLE
  2
LTYPE
 70
    15
  0
LTYPE
  2
CONTINUOUS
 70
    64
  3
実線
 72
    65
 73
     0
 40
0.0
  0
LTYPE
  2
DASHED
 70
    64
  3
破線A
 72
    65
 73
     2
 40
0.6
 49
0.4
 49
-0.2
  0
LTYPE
  2
DASHEDX2
 70
    64
  3
破線B
 72
    65
 73
     2
 40
1.3
 49
0.9
 49
-0.4
  0
LTYPE
  2
DASHDOT
 70
    64
  3
１点鎖線A
 72
    65
 73
     4
 40
0.5375
 49
0.375
 49
-0.05
 49
0.0625
 49
-0.05
  0
LTYPE
  2
DASHDOTX2
 70
    64
  3
１点鎖線B
 72
    65
 73
     4
 40
1.075
 49
0.75
 49
-0.1
 49
0.125
 49
-0.1
  0
LTYPE
  2
DIVIDE2
 70
    64
  3
２点鎖線A
 72
    65
 73
     6
 40
0.5125
 49
0.3
 49
-0.0375
 49
0.05
 49
-0.0375
 49
0.05
 49
-0.0375
  0
LTYPE
  2
DIVIDE
 70
    64
  3
２点鎖線B
 72
    65
 73
     6
 40
1.05
 49
0.55
 49
-0.1
 49
0.1
 49
-0.1
 49
0.1
 49
-0.1
  0
LTYPE
  2
DOT
 70
    64
  3
点線A
 72
    65
 73
     2
 40
0.1125
 49
0.0625
 49
-0.05
  0
LTYPE
  2
DOTX2
 70
    64
  3
点線B
 72
    65
 73
     2
 40
0.275
 49
0.15
 49
-0.125
  0
LTYPE
  2
CONTINUOUS
 70
    64
  3
実線
 72
    65
 73
     0
 40
0.0
  0
LTYPE
  2
CONTINUOUS
 70
    64
  3
実線
 72
    65
 73
     0
 40
0.0
  0
LTYPE
  2
CONTINUOUS
 70
    64
  3
実線
 72
    65
 73
     0
 40
0.0
  0
LTYPE
  2
CONTINUOUS
 70
    64
  3
実線
 72
    65
 73
     0
 40
0.0
  0
LTYPE
  2
CONTINUOUS
 70
    64
  3
実線
 72
    65
 73
     0
 40
0.0
  0
LTYPE
  2
CONTINUOUS
 70
    64
  3
実線
 72
    65
 73
     0
 40
0.0
  0
ENDTAB
  0
TABLE
  2
LAYER
 70
    34
  0
LAYER
  2
通り芯
 70
     0
 62
    15
  6
CONTINUOUS
  0
LAYER
  2
補助線
 70
     0
 62
    16
  6
DOT
  0
LAYER
  2
躯体
 70
     0
 62
    31
  6
CONTINUOUS
  0
LAYER
  2
型材
 70
     0
 62
    32
  6
CONTINUOUS
  0
LAYER
  2
型材断面
 70
     0
 62
    47
  6
CONTINUOUS
  0
LAYER
  2
ガラス
 70
     0
 62
    48
  6
CONTINUOUS
  0
LAYER
  2
ゴム等
 70
     0
 62
    63
  6
CONTINUOUS
  0
LAYER
  2
ボルト／ビス
 70
     0
 62
    64
  6
CONTINUOUS
  0
LAYER
  2
文字
 70
     0
 62
    79
  6
CONTINUOUS
  0
LAYER
  2
寸法
 70
     0
 62
    80
  6
CONTINUOUS
  0
LAYER
  2
ﾊｯﾁﾝｸﾞ
 70
     0
 62
    95
  6
CONTINUOUS
  0
LAYER
  2
別途部材
 70
     0
 62
    96
  6
CONTINUOUS
  0
LAYER
  2
曲げ物
 70
     0
 62
   111
  6
CONTINUOUS
  0
LAYER
  2
鉄骨等
 70
     0
 62
   112
  6
CONTINUOUS
  0
LAYER
  2
St
 70
     0
 62
   127
  6
CONTINUOUS
  0
LAYER
  2
その他部品等
 70
     0
 62
   128
  6
CONTINUOUS
  0
LAYER
  2
ｶﾞｽｹｯﾄ
 70
     0
 62
   143
  6
CONTINUOUS
  0
LAYER
  2
ｽｹｯﾁ
 70
     0
 62
    14
  6
CONTINUOUS
  0
LAYER
  2
0
 70
     0
 62
    17
  6
CONTINUOUS
  0
LAYER
  2
1
 70
     0
 62
    30
  6
CONTINUOUS
  0
LAYER
  2
4
 70
     0
 62
    33
  6
CONTINUOUS
  0
LAYER
  2
ﾚｲﾔ3
 70
     0
 62
    46
  6
CONTINUOUS
  0
LAYER
  2
外形線
 70
     0
 62
    49
  6
CONTINUOUS
  0
LAYER
  2
部品
 70
     0
 62
    14
  6
CONTINUOUS
  0
LAYER
  2
サッシ芯
 70
     0
 62
    17
  6
DASHDOTX2
  0
LAYER
  2
寸法線
 70
     0
 62
    62
  6
CONTINUOUS
  0
LAYER
  2
姿図外形線
 70
     0
 62
    65
  6
CONTINUOUS
  0
LAYER
  2
姿補助線
 70
     0
 62
    30
  6
CONTINUOUS
  0
LAYER
  2
透視線
 70
     0
 62
    78
  6
DOT
  0
LAYER
  2
用紙
 70
     0
 62
    81
  6
CONTINUOUS
  0
LAYER
  2
実線図枠
 70
     0
 62
    94
  6
CONTINUOUS
  0
LAYER
  2
補助図枠
 70
     0
 62
    97
  6
CONTINUOUS
  0
LAYER
  2
建具記号
 70
     0
 62
   110
  6
CONTINUOUS
  0
LAYER
  2
補助文字
 70
     0
 62
   113
  6
CONTINUOUS
  0
ENDTAB
  0
TABLE
  2
STYLE
 70
    10
  0
STYLE
  2
STANDARD
 70
     0
 40
1.0
 41
1.0
 42
1.0
 50
0.0
 71
     0
  3
TXT
  4
BIGFONT
  0
STYLE
  2
TATE
 70
     4
 40
1.0
 41
1.0
 42
1.0
 50
0.0
 71
     0
  3
TXT
  4
BIGFONT
  0
STYLE
  2
TextStyle03
 70
     0
 40
1.0
 41
1.0
 42
1.0
 50
0.0
 71
     0
  3
MONOTXT
  4
BIGFONT
  0
STYLE
  2
TextStyle04
 70
     0
 40
1.0
 41
1.0
 42
1.0
 50
0.0
 71
     0
  3
MONOTXT
  4
BIGFONT
  0
STYLE
  2
TextStyle05
 70
     0
 40
1.0
 41
1.0
 42
1.0
 50
0.0
 71
     0
  3
MONOTXT
  4
BIGFONT
  0
STYLE
  2
TextStyle06
 70
     0
 40
1.0
 41
1.0
 42
1.0
 50
0.0
 71
     0
  3
MONOTXT
  4
BIGFONT
  0
STYLE
  2
TextStyle07
 70
     0
 40
1.0
 41
1.0
 42
1.0
 50
0.0
 71
     0
  3
MONOTXT
  4
BIGFONT
  0
STYLE
  2
TextStyle08
 70
     0
 40
1.0
 41
1.0
 42
1.0
 50
0.0
 71
     0
  3
MONOTXT
  4
BIGFONT
  0
STYLE
  2
TextStyle09
 70
     0
 40
1.0
 41
1.0
 42
1.0
 50
0.0
 71
     0
  3
MONOTXT
  4
BIGFONT
  0
STYLE
  2
TextStyle10
 70
     0
 40
1.0
 41
1.0
 42
1.0
 50
0.0
 71
     0
  3
MONOTXT
  4
BIGFONT
  0
ENDTAB
  0
ENDSEC
  0
SECTION
  2
BLOCKS
  0
BLOCK
  2
*GRP_0001
 70
    65
 10
0.0
 20
0.0
  0
LINE
  8
型材断面
  6
CONTINUOUS
 10
195.0
 20
133.5
 11
195.0
 21
-133.5
  0
LINE
  8
型材断面
  6
CONTINUOUS
 10
195.0
 20
-133.5
 11
-185.0
 21
-133.5
  0
LINE
  8
型材断面
  6
CONTINUOUS
 10
-185.0
 20
-133.5
 11
-185.0
 21
133.5
  0
LINE
  8
型材断面
  6
CONTINUOUS
 10
195.0
 20
133.5
 11
-185.0
 21
133.5
  0
LINE
  8
型材断面
  6
CONTINUOUS
 10
145.0
 20
-133.5
 11
145.0
 21
-118.5
  0
LINE
  8
型材断面
  6
CONTINUOUS
 10
195.0
 20
-118.5
 11
145.0
 21
-118.5
  0
ENDBLK
  0
BLOCK
  2
*DIM_0002
 70
    65
 10
0.0
 20
0.0
  0
LINE
  8
寸法
  6
CONTINUOUS
 10
155.09276
 20
20.819672
 11
155.09276
 21
13.599942
  0
LINE
  8
寸法
  6
CONTINUOUS
 10
148.592525
 20
22.886368
 11
148.592525
 21
13.599942
  0
LINE
  8
寸法
  6
CONTINUOUS
 10
155.09276
 20
13.599942
 11
148.592525
 21
13.599942
  0
POINT
  8
寸法
 10
155.09276
 20
13.599942
  0
POINT
  8
寸法
 10
148.592525
 20
13.599942
  0
TEXT
  7
TextStyle03
  8
寸法
  6
CONTINUOUS
 10
149.3625
 20
13.975
  1
195
 40
3.0
 72
     5
 11
154.2375
 21
13.975
  0
ENDBLK
  0
BLOCK
  2
*DIM_0003
 70
    65
 10
0.0
 20
0.0
  0
LINE
  8
寸法
  6
CONTINUOUS
 10
148.592525
 20
22.886368
 11
148.592525
 21
13.599942
  0
LINE
  8
寸法
  6
CONTINUOUS
 10
136.925857
 20
46.2197
 11
136.925857
 21
13.599942
  0
LINE
  8
寸法
  6
CONTINUOUS
 10
148.592525
 20
13.599942
 11
136.925857
 21
13.599942
  0
POINT
  8
寸法
 10
148.592525
 20
13.599942
  0
POINT
  8
寸法
 10
136.925857
 20
13.599942
  0
TEXT
  7
TextStyle03
  8
寸法
  6
CONTINUOUS
 10
140.2875
 20
13.975
  1
350
 40
3.0
 72
     5
 11
145.1625
 21
13.975
  0
ENDBLK
  0
BLOCK
  2
*GRP_0004
 70
    65
 10
0.0
 20
0.0
  0
LINE
  8
別途部材
  6
CONTINUOUS
 62
    96
 10
153.875967
 20
74.519912
 11
153.875967
 21
74.419912
  0
LINE
  8
別途部材
  6
CONTINUOUS
 62
    96
 10
151.774887
 20
74.619912
 11
151.844563
 21
75.950718
  0
LINE
  8
別途部材
  6
CONTINUOUS
 62
    96
 10
152.392635
 20
75.959913
 11
152.275967
 21
76.22658
  0
LINE
  8
別途部材
  6
CONTINUOUS
 62
    96
 10
152.292635
 20
75.938997
 11
152.225115
 21
76.09333
  0
LINE
  8
別途部材
  6
CONTINUOUS
 62
    96
 10
151.745793
 20
75.976835
 11
151.876243
 21
76.237038
  0
LINE
  8
別途部材
  6
CONTINUOUS
 62
    96
 10
151.844563
 20
75.950718
 11
151.976722
 21
76.21433
  0
LINE
  8
別途部材
  6
CONTINUOUS
 62
    96
 10
152.012322
 20
76.149447
 11
151.948677
 21
76.072317
  0
LINE
  8
別途部材
  6
DASHDOTX2
 62
    96
 10
152.075967
 20
76.22658
 11
151.762483
 21
76.22658
  0
LINE
  8
別途部材
  6
DASHDOTX2
 62
    96
 10
152.075967
 20
76.22658
 11
152.406428
 21
76.22658
  0
LINE
  8
別途部材
  6
DASHDOTX2
 62
    96
 10
152.075967
 20
76.22658
 11
152.075967
 21
75.963107
  0
LINE
  8
別途部材
  6
DASHDOTX2
 62
    96
 10
152.075967
 20
76.22658
 11
152.075967
 21
76.50489
  0
LINE
  8
別途部材
  6
CONTINUOUS
 62
    96
 10
152.292635
 20
74.419912
 11
152.292635
 21
75.938997
  0
LINE
  8
別途部材
  6
CONTINUOUS
 62
    96
 10
152.392635
 20
74.519912
 11
152.392635
 21
75.959913
  0
LINE
  8
別途部材
  6
CONTINUOUS
 62
    96
 10
150.541555
 20
74.719915
 11
151.679988
 21
74.719915
  0
LINE
  8
別途部材
  6
CONTINUOUS
 62
    96
 10
150.541555
 20
74.619912
 11
150.541555
 21
74.719915
  0
LINE
  8
別途部材
  6
CONTINUOUS
 62
    96
 10
150.541555
 20
74.619912
 11
151.774887
 21
74.619912
  0
CIRCLE
  8
別途部材
  6
CONTINUOUS
 62
    96
 10
152.075967
 20
76.22658
 40
0.1
  0
ARC
  8
別途部材
  6
CONTINUOUS
 62
    96
 10
152.075965
 20
76.226582
 40
0.2
 50
218.780606
 51
537.001556
  0
LINE
  8
別途部材
  6
CONTINUOUS
 62
    96
 10
152.292635
 20
74.419912
 11
153.875967
 21
74.419912
  0
LINE
  8
別途部材
  6
CONTINUOUS
 62
    96
 10
152.392635
 20
74.519912
 11
153.875967
 21
74.519912
  0
LINE
  8
別途部材
  6
CONTINUOUS
 62
    96
 10
151.745793
 20
75.976835
 11
151.679988
 21
74.719915
  0
ENDBLK
  0
BLOCK
  2
*DIM_0005
 70
    65
 10
0.0
 20
0.0
  0
LINE
  8
寸法
  6
CONTINUOUS
 10
94.469873
 20
29.553035
 11
94.469873
 21
72.886368
  0
POINT
  8
寸法
 10
94.469873
 20
29.553035
  0
POINT
  8
寸法
 10
94.469873
 20
72.886368
  0
TEXT
  7
TextStyle03
  8
寸法
  6
CONTINUOUS
 10
94.075
 20
39.48125
  1
呼称寸法　1300
 40
3.0
 50
90.0
 72
     5
 11
94.075
 21
62.91875
  0
ENDBLK
  0
BLOCK
  2
*DIM_0006
 70
    65
 10
0.0
 20
0.0
  0
LINE
  8
寸法
  6
CONTINUOUS
 10
149.59276
 20
25.819672
 11
94.469873
 21
25.819672
  0
LINE
  8
寸法
  6
CONTINUOUS
 10
94.469873
 20
29.553035
 11
94.469873
 21
25.819672
  0
POINT
  8
寸法
 10
94.469873
 20
29.553035
  0
POINT
  8
寸法
 10
94.469873
 20
25.819672
  0
TEXT
  7
TextStyle03
  8
寸法
  6
CONTINUOUS
 10
94.075
 20
20.1875
  1
112
 40
3.0
 50
90.0
 72
     5
 11
94.075
 21
25.0625
  0
ENDBLK
  0
BLOCK
  2
*DIM_0007
 70
    65
 10
0.0
 20
0.0
  0
LINE
  8
寸法
  6
CONTINUOUS
 10
149.59276
 20
76.61973
 11
94.469873
 21
76.61973
  0
LINE
  8
寸法
  6
CONTINUOUS
 10
94.469873
 20
72.886368
 11
94.469873
 21
76.61973
  0
POINT
  8
寸法
 10
94.469873
 20
72.886368
  0
POINT
  8
寸法
 10
94.469873
 20
76.61973
  0
TEXT
  7
TextStyle03
  8
寸法
  6
CONTINUOUS
 10
94.075
 20
77.3625
  1
112
 40
3.0
 50
90.0
 72
     5
 11
94.075
 21
82.2375
  0
ENDBLK
  0
BLOCK
  2
*DIM_0008
 70
    65
 10
0.0
 20
0.0
  0
LINE
  8
寸法
  6
CONTINUOUS
 10
-84.71685
 20
-31.074888
 11
-1.383518
 21
-31.074888
  0
POINT
  8
寸法
 10
-84.71685
 20
-31.074888
  0
POINT
  8
寸法
 10
-1.383518
 20
-31.074888
  0
TEXT
  7
TextStyle03
  8
寸法
  6
CONTINUOUS
 10
-54.79375
 20
-30.7
  1
呼称寸法　2500
 40
3.0
 72
     5
 11
-31.35625
 21
-30.7
  0
ENDBLK
  0
BLOCK
  2
*DIM_0009
 70
    65
 10
0.0
 20
0.0
  0
LINE
  8
寸法
  6
CONTINUOUS
 10
-88.45021
 20
-56.327663
 11
-88.45021
 21
-31.074888
  0
LINE
  8
寸法
  6
CONTINUOUS
 10
-84.71685
 20
-31.074888
 11
-88.45021
 21
-31.074888
  0
POINT
  8
寸法
 10
-84.71685
 20
-31.074888
  0
POINT
  8
寸法
 10
-88.45021
 20
-31.074888
  0
TEXT
  7
TextStyle03
  8
寸法
  6
CONTINUOUS
 10
-90.4875
 20
-30.25
  1
112
 40
3.0
 72
     5
 11
-85.6125
 21
-30.25
  0
ENDBLK
  0
BLOCK
  2
*DIM_0010
 70
    65
 10
0.0
 20
0.0
  0
LINE
  8
寸法
  6
CONTINUOUS
 10
2.349845
 20
-56.327663
 11
2.349845
 21
-31.074888
  0
LINE
  8
寸法
  6
CONTINUOUS
 10
-1.383518
 20
-31.074888
 11
2.349845
 21
-31.074888
  0
POINT
  8
寸法
 10
-1.383518
 20
-31.074888
  0
POINT
  8
寸法
 10
2.349845
 20
-31.074888
  0
TEXT
  7
TextStyle03
  8
寸法
  6
CONTINUOUS
 10
-0.5375
 20
-29.95
  1
112
 40
3.0
 72
     5
 11
4.3375
 21
-29.95
  0
ENDBLK
  0
BLOCK
  2
*DIM_0011
 70
    65
 10
0.0
 20
0.0
  0
LINE
  8
寸法
  6
BYBLOCK
 62
     0
 10
-68.05018
 20
25.922907
 11
-68.05018
 21
20.919778
  0
LINE
  8
寸法
  6
BYBLOCK
 62
     0
 10
-18.050185
 20
25.922907
 11
-18.050185
 21
20.919778
  0
LINE
  8
寸法
  6
BYBLOCK
 62
     0
 10
-68.05018
 20
20.919778
 11
-18.050185
 21
20.919778
  0
POINT
  8
寸法
 62
     0
 10
-68.05018
 20
20.919778
  0
POINT
  8
寸法
 62
     0
 10
-18.050185
 20
20.919778
  0
TEXT
  7
TextStyle03
  8
寸法
  6
CONTINUOUS
 62
     0
 10
-46.33125
 20
21.275
  1
1500
 40
3.0
 72
     5
 11
-39.76875
 21
21.275
  0
ENDBLK
  0
BLOCK
  2
*DIM_0012
 70
    65
 10
0.0
 20
0.0
  0
LINE
  8
寸法
  6
BYBLOCK
 62
     0
 10
-87.716848
 20
39.553035
 11
-116.662013
 21
39.553035
  0
LINE
  8
寸法
  6
BYBLOCK
 62
     0
 10
-87.716848
 20
62.88637
 11
-116.662013
 21
62.88637
  0
LINE
  8
寸法
  6
BYBLOCK
 62
     0
 10
-116.662013
 20
39.553035
 11
-116.662013
 21
62.88637
  0
POINT
  8
寸法
 62
     0
 10
-116.662013
 20
39.553035
  0
POINT
  8
寸法
 62
     0
 10
-116.662013
 20
62.88637
  0
TEXT
  7
TextStyle03
  8
寸法
  6
CONTINUOUS
 62
     0
 10
-117.1
 20
48.7625
  1
700
 40
3.0
 50
90.0
 72
     5
 11
-117.1
 21
53.6375
  0
ENDBLK
  0
BLOCK
  2
*DIM_0013
 70
    65
 10
0.0
 20
0.0
  0
LINE
  8
寸法
  6
BYBLOCK
 62
     0
 10
-78.050183
 20
75.886368
 11
-78.050183
 21
105.633987
  0
LINE
  8
寸法
  6
BYBLOCK
 62
     0
 10
-54.71685
 20
75.886368
 11
-54.71685
 21
105.633987
  0
LINE
  8
寸法
  6
BYBLOCK
 62
     0
 10
-78.050183
 20
105.633987
 11
-54.71685
 21
105.633987
  0
POINT
  8
寸法
 62
     0
 10
-78.050183
 20
105.633987
  0
POINT
  8
寸法
 62
     0
 10
-54.71685
 20
105.633987
  0
TEXT
  7
TextStyle03
  8
寸法
  6
CONTINUOUS
 62
     0
 10
-68.8125
 20
106.0
  1
700
 40
3.0
 72
     5
 11
-63.9375
 21
106.0
  0
ENDBLK
  0
BLOCK
  2
*DIM_0014
 70
    65
 10
0.0
 20
0.0
  0
LINE
  8
寸法
  6
BYBLOCK
 62
     0
 10
-31.383515
 20
75.886368
 11
-31.383515
 21
105.633987
  0
LINE
  8
寸法
  6
BYBLOCK
 62
     0
 10
-54.71685
 20
105.633987
 11
-31.383515
 21
105.633987
  0
POINT
  8
寸法
 62
     0
 10
-31.383515
 20
105.633987
  0
TEXT
  7
TextStyle03
  8
寸法
  6
CONTINUOUS
 62
     0
 10
-45.4875
 20
106.0
  1
700
 40
3.0
 72
     5
 11
-40.6125
 21
106.0
  0
ENDBLK
  0
BLOCK
  2
*DIM_0015
 70
    65
 10
0.0
 20
0.0
  0
LINE
  8
寸法
  6
BYBLOCK
 62
     0
 10
-8.050183
 20
75.886368
 11
-8.050183
 21
105.633987
  0
LINE
  8
寸法
  6
BYBLOCK
 62
     0
 10
-31.383515
 20
105.633987
 11
-8.050183
 21
105.633987
  0
POINT
  8
寸法
 62
     0
 10
-8.050183
 20
105.633987
  0
TEXT
  7
TextStyle03
  8
寸法
  6
CONTINUOUS
 62
     0
 10
-22.1375
 20
106.0
  1
700
 40
3.0
 72
     5
 11
-17.2625
 21
106.0
  0
ENDBLK
  0
BLOCK
  2
*GRP_0016
 70
    65
 10
0.0
 20
0.0
  0
LINE
  8
別途部材
  6
CONTINUOUS
 62
    96
 10
-86.38352
 20
-55.177427
 11
-86.78352
 21
-56.177427
  0
ARC
  8
別途部材
  6
CONTINUOUS
 10
-63.050185
 20
-69.463138
 40
25.952382
 50
90.0
 51
146.601512
  0
LINE
  8
別途部材
  6
CONTINUOUS
 10
-86.78352
 20
-56.177427
 11
-43.050185
 21
-56.177427
  0
LINE
  8
別途部材
  6
CONTINUOUS
 62
    96
 10
-86.38352
 20
-55.177427
 11
-43.050185
 21
-55.177427
  0
LINE
  8
別途部材
  6
CONTINUOUS
 10
-43.550185
 20
-42.51076
 11
-44.550185
 21
-43.51076
  0
LINE
  8
別途部材
  6
CONTINUOUS
 10
-45.550185
 20
-43.51076
 11
-46.550185
 21
-42.51076
  0
LINE
  8
別途部材
  6
CONTINUOUS
 10
-47.550185
 20
-42.51076
 11
-48.550185
 21
-43.51076
  0
LINE
  8
別途部材
  6
CONTINUOUS
 10
-46.550185
 20
-42.51076
 11
-47.550185
 21
-42.51076
  0
LINE
  8
別途部材
  6
CONTINUOUS
 10
-43.550185
 20
-42.51076
 11
-43.050185
 21
-42.51076
  0
LINE
  8
別途部材
  6
CONTINUOUS
 10
-49.550185
 20
-43.51076
 11
-50.550185
 21
-42.51076
  0
LINE
  8
別途部材
  6
CONTINUOUS
 10
-51.550185
 20
-42.51076
 11
-52.550185
 21
-43.51076
  0
LINE
  8
別途部材
  6
CONTINUOUS
 10
-50.550185
 20
-42.51076
 11
-51.550185
 21
-42.51076
  0
LINE
  8
別途部材
  6
CONTINUOUS
 10
-53.550185
 20
-43.51076
 11
-54.550185
 21
-42.51076
  0
LINE
  8
別途部材
  6
CONTINUOUS
 10
-55.550185
 20
-42.51076
 11
-56.550185
 21
-43.51076
  0
LINE
  8
別途部材
  6
CONTINUOUS
 10
-54.550185
 20
-42.51076
 11
-55.550185
 21
-42.51076
  0
LINE
  8
別途部材
  6
CONTINUOUS
 10
-57.550185
 20
-43.51076
 11
-58.550185
 21
-42.51076
  0
LINE
  8
別途部材
  6
CONTINUOUS
 10
-59.550185
 20
-42.51076
 11
-60.550185
 21
-43.51076
  0
LINE
  8
別途部材
  6
CONTINUOUS
 10
-58.550185
 20
-42.51076
 11
-59.550185
 21
-42.51076
  0
LINE
  8
別途部材
  6
CONTINUOUS
 10
-56.550185
 20
-43.51076
 11
-57.550185
 21
-43.51076
  0
LINE
  8
別途部材
  6
CONTINUOUS
 10
-52.550185
 20
-43.51076
 11
-53.550185
 21
-43.51076
  0
LINE
  8
別途部材
  6
CONTINUOUS
 10
-48.550185
 20
-43.51076
 11
-49.550185
 21
-43.51076
  0
LINE
  8
別途部材
  6
CONTINUOUS
 10
-45.550185
 20
-43.51076
 11
-44.550185
 21
-43.51076
  0
LINE
  8
別途部材
  6
CONTINUOUS
 10
-59.550185
 20
-42.51076
 11
-59.550185
 21
-55.177427
  0
LINE
  8
別途部材
  6
CONTINUOUS
 10
-58.550185
 20
-42.51076
 11
-58.550185
 21
-55.177427
  0
LINE
  8
別途部材
  6
CONTINUOUS
 10
-48.550185
 20
-43.51076
 11
-48.550185
 21
-55.177427
  0
LINE
  8
別途部材
  6
CONTINUOUS
 10
-43.550185
 20
-42.51076
 11
-43.550185
 21
-55.177427
  0
LINE
  8
別途部材
  6
CONTINUOUS
 10
-44.550185
 20
-43.51076
 11
-44.550185
 21
-55.177427
  0
LINE
  8
別途部材
  6
CONTINUOUS
 10
-46.550185
 20
-42.51076
 11
-46.550185
 21
-55.177427
  0
LINE
  8
別途部材
  6
CONTINUOUS
 10
-47.550185
 20
-42.51076
 11
-47.550185
 21
-55.177427
  0
LINE
  8
別途部材
  6
CONTINUOUS
 10
-49.550185
 20
-43.51076
 11
-49.550185
 21
-55.177427
  0
LINE
  8
別途部材
  6
CONTINUOUS
 10
-60.550185
 20
-43.51076
 11
-60.550185
 21
-55.177427
  0
LINE
  8
別途部材
  6
CONTINUOUS
 10
-56.550185
 20
-43.51076
 11
-56.550185
 21
-55.177427
  0
LINE
  8
別途部材
  6
CONTINUOUS
 10
-57.550185
 20
-43.51076
 11
-57.550185
 21
-55.177427
  0
LINE
  8
別途部材
  6
CONTINUOUS
 10
-55.550185
 20
-42.51076
 11
-55.550185
 21
-55.177427
  0
LINE
  8
別途部材
  6
CONTINUOUS
 10
-53.550185
 20
-43.51076
 11
-53.550185
 21
-55.177427
  0
LINE
  8
別途部材
  6
CONTINUOUS
 10
-54.550185
 20
-42.51076
 11
-54.550185
 21
-55.177427
  0
LINE
  8
別途部材
  6
CONTINUOUS
 10
-52.550185
 20
-43.51076
 11
-52.550185
 21
-55.177427
  0
LINE
  8
別途部材
  6
CONTINUOUS
 10
-50.550185
 20
-42.51076
 11
-50.550185
 21
-55.177427
  0
LINE
  8
別途部材
  6
CONTINUOUS
 10
-51.550185
 20
-42.51076
 11
-51.550185
 21
-55.177427
  0
LINE
  8
別途部材
  6
CONTINUOUS
 10
-45.550185
 20
-43.51076
 11
-45.550185
 21
-55.177427
  0
LINE
  8
別途部材
  6
CONTINUOUS
 10
-60.550185
 20
-43.51076
 11
-63.050185
 21
-43.51076
  0
LINE
  8
別途部材
  6
CONTINUOUS
 62
    96
 10
0.283148
 20
-55.177427
 11
0.683148
 21
-56.177427
  0
ARC
  8
別途部材
  6
CONTINUOUS
 10
-23.050186
 20
-69.463138
 40
25.952382
 50
33.398488
 51
90.0
  0
LINE
  8
別途部材
  6
CONTINUOUS
 10
0.683148
 20
-56.177427
 11
-43.050185
 21
-56.177427
  0
LINE
  8
別途部材
  6
CONTINUOUS
 62
    96
 10
0.283148
 20
-55.177427
 11
-43.050185
 21
-55.177427
  0
LINE
  8
別途部材
  6
CONTINUOUS
 10
-42.550185
 20
-42.51076
 11
-41.550185
 21
-43.51076
  0
LINE
  8
別途部材
  6
CONTINUOUS
 10
-40.550185
 20
-43.51076
 11
-39.550185
 21
-42.51076
  0
LINE
  8
別途部材
  6
CONTINUOUS
 10
-38.550185
 20
-42.51076
 11
-37.550185
 21
-43.51076
  0
LINE
  8
別途部材
  6
CONTINUOUS
 10
-39.550185
 20
-42.51076
 11
-38.550185
 21
-42.51076
  0
LINE
  8
別途部材
  6
CONTINUOUS
 10
-42.550185
 20
-42.51076
 11
-43.050185
 21
-42.51076
  0
LINE
  8
別途部材
  6
CONTINUOUS
 10
-36.550185
 20
-43.51076
 11
-35.550185
 21
-42.51076
  0
LINE
  8
別途部材
  6
CONTINUOUS
 10
-34.550185
 20
-42.51076
 11
-33.550185
 21
-43.51076
  0
LINE
  8
別途部材
  6
CONTINUOUS
 10
-35.550185
 20
-42.51076
 11
-34.550185
 21
-42.51076
  0
LINE
  8
別途部材
  6
CONTINUOUS
 10
-32.550185
 20
-43.51076
 11
-31.550185
 21
-42.51076
  0
LINE
  8
別途部材
  6
CONTINUOUS
 10
-30.550185
 20
-42.51076
 11
-29.550185
 21
-43.51076
  0
LINE
  8
別途部材
  6
CONTINUOUS
 10
-31.550185
 20
-42.51076
 11
-30.550185
 21
-42.51076
  0
LINE
  8
別途部材
  6
CONTINUOUS
 10
-28.550185
 20
-43.51076
 11
-27.550185
 21
-42.51076
  0
LINE
  8
別途部材
  6
CONTINUOUS
 10
-26.550185
 20
-42.51076
 11
-25.550185
 21
-43.51076
  0
LINE
  8
別途部材
  6
CONTINUOUS
 10
-27.550185
 20
-42.51076
 11
-26.550185
 21
-42.51076
  0
LINE
  8
別途部材
  6
CONTINUOUS
 10
-29.550185
 20
-43.51076
 11
-28.550185
 21
-43.51076
  0
LINE
  8
別途部材
  6
CONTINUOUS
 10
-33.550185
 20
-43.51076
 11
-32.550185
 21
-43.51076
  0
LINE
  8
別途部材
  6
CONTINUOUS
 10
-37.550185
 20
-43.51076
 11
-36.550185
 21
-43.51076
  0
LINE
  8
別途部材
  6
CONTINUOUS
 10
-40.550185
 20
-43.51076
 11
-41.550185
 21
-43.51076
  0
LINE
  8
別途部材
  6
CONTINUOUS
 10
-26.550185
 20
-42.51076
 11
-26.550185
 21
-55.177427
  0
LINE
  8
別途部材
  6
CONTINUOUS
 10
-27.550185
 20
-42.51076
 11
-27.550185
 21
-55.177427
  0
LINE
  8
別途部材
  6
CONTINUOUS
 10
-37.550185
 20
-43.51076
 11
-37.550185
 21
-55.177427
  0
LINE
  8
別途部材
  6
CONTINUOUS
 10
-42.550185
 20
-42.51076
 11
-42.550185
 21
-55.177427
  0
LINE
  8
別途部材
  6
CONTINUOUS
 10
-41.550185
 20
-43.51076
 11
-41.550185
 21
-55.177427
  0
LINE
  8
別途部材
  6
CONTINUOUS
 10
-39.550185
 20
-42.51076
 11
-39.550185
 21
-55.177427
  0
LINE
  8
別途部材
  6
CONTINUOUS
 10
-38.550185
 20
-42.51076
 11
-38.550185
 21
-55.177427
  0
LINE
  8
別途部材
  6
CONTINUOUS
 10
-36.550185
 20
-43.51076
 11
-36.550185
 21
-55.177427
  0
LINE
  8
別途部材
  6
CONTINUOUS
 10
-25.550185
 20
-43.51076
 11
-25.550185
 21
-55.177427
  0
LINE
  8
別途部材
  6
CONTINUOUS
 10
-29.550185
 20
-43.51076
 11
-29.550185
 21
-55.177427
  0
LINE
  8
別途部材
  6
CONTINUOUS
 10
-28.550185
 20
-43.51076
 11
-28.550185
 21
-55.177427
  0
LINE
  8
別途部材
  6
CONTINUOUS
 10
-30.550185
 20
-42.51076
 11
-30.550185
 21
-55.177427
  0
LINE
  8
別途部材
  6
CONTINUOUS
 10
-32.550185
 20
-43.51076
 11
-32.550185
 21
-55.177427
  0
LINE
  8
別途部材
  6
CONTINUOUS
 10
-31.550185
 20
-42.51076
 11
-31.550185
 21
-55.177427
  0
LINE
  8
別途部材
  6
CONTINUOUS
 10
-33.550185
 20
-43.51076
 11
-33.550185
 21
-55.177427
  0
LINE
  8
別途部材
  6
CONTINUOUS
 10
-35.550185
 20
-42.51076
 11
-35.550185
 21
-55.177427
  0
LINE
  8
別途部材
  6
CONTINUOUS
 10
-34.550185
 20
-42.51076
 11
-34.550185
 21
-55.177427
  0
LINE
  8
別途部材
  6
CONTINUOUS
 10
-40.550185
 20
-43.51076
 11
-40.550185
 21
-55.177427
  0
LINE
  8
別途部材
  6
CONTINUOUS
 10
-25.550185
 20
-43.51076
 11
-23.050185
 21
-43.51076
  0
ENDBLK
  0
BLOCK
  2
*DIM_0017
 70
    65
 10
0.0
 20
0.0
  0
LINE
  8
寸法
  6
CONTINUOUS
 10
7.349845
 20
-61.677663
 11
22.003845
 21
-61.677663
  0
LINE
  8
寸法
  6
CONTINUOUS
 10
5.283148
 20
-55.177427
 11
22.003845
 21
-55.177427
  0
LINE
  8
寸法
  6
CONTINUOUS
 10
22.003845
 20
-61.677663
 11
22.003845
 21
-55.177427
  0
POINT
  8
寸法
 10
22.003845
 20
-61.677663
  0
POINT
  8
寸法
 10
22.003845
 20
-55.177427
  0
TEXT
  7
TextStyle03
  8
寸法
  6
CONTINUOUS
 10
21.625
 20
-60.8875
  1
195
 40
3.0
 50
90.0
 72
     5
 11
21.625
 21
-56.0125
  0
ENDBLK
  0
BLOCK
  2
*DIM_0018
 70
    65
 10
0.0
 20
0.0
  0
LINE
  8
寸法
  6
CONTINUOUS
 10
-18.928633
 20
-43.51076
 11
22.003845
 21
-43.51076
  0
LINE
  8
寸法
  6
CONTINUOUS
 10
22.003845
 20
-55.177427
 11
22.003845
 21
-43.51076
  0
POINT
  8
寸法
 10
22.003845
 20
-43.51076
  0
TEXT
  7
TextStyle03
  8
寸法
  6
CONTINUOUS
 10
21.625
 20
-51.7875
  1
350
 40
3.0
 50
90.0
 72
     5
 11
21.625
 21
-46.9125
  0
ENDBLK
  0
BLOCK
  2
*DIM_0019
 70
    65
 10
0.0
 20
0.0
  0
LINE
  8
寸法
  6
BYBLOCK
 62
     0
 10
-3.383515
 20
23.946222
 11
-3.383515
 21
20.92118
  0
LINE
  8
寸法
  6
BYBLOCK
 62
     0
 10
-1.383515
 20
20.92118
 11
-3.383515
 21
20.92118
  0
POINT
  8
寸法
 62
     0
 10
-1.383515
 20
20.92118
  0
POINT
  8
寸法
 62
     0
 10
-3.383515
 20
20.92118
  0
TEXT
  7
TextStyle03
  8
寸法
  6
CONTINUOUS
 62
     0
 10
-5.29375
 20
17.15
  1
60
 40
3.0
 72
     5
 11
-2.10625
 21
17.15
  0
ENDBLK
  0
BLOCK
  2
*DIM_0020
 70
    65
 10
0.0
 20
0.0
  0
LINE
  8
寸法
  6
CONTINUOUS
 10
-82.71685
 20
23.946222
 11
-82.71685
 21
20.92118
  0
LINE
  8
寸法
  6
CONTINUOUS
 10
-84.71685
 20
20.92118
 11
-82.71685
 21
20.92118
  0
POINT
  8
寸法
 10
-84.71685
 20
20.92118
  0
POINT
  8
寸法
 10
-82.71685
 20
20.92118
  0
TEXT
  7
TextStyle03
  8
寸法
  6
CONTINUOUS
 10
-83.94375
 20
17.125
  1
60
 40
3.0
 72
     5
 11
-80.75625
 21
17.125
  0
ENDBLK
  0
BLOCK
  2
*DIM_0021
 70
    65
 10
0.0
 20
0.0
  0
LINE
  8
寸法
  6
CONTINUOUS
 10
104.705092
 20
-24.101
 11
104.705092
 21
-17.435977
  0
LINE
  8
寸法
  6
CONTINUOUS
 10
146.215093
 20
-24.101
 11
146.215093
 21
-17.435977
  0
LINE
  8
寸法
  6
CONTINUOUS
 10
104.705092
 20
-17.435977
 11
146.215093
 21
-17.435977
  0
POINT
  8
寸法
 10
104.705092
 20
-17.435977
  0
POINT
  8
寸法
 10
146.215093
 20
-17.435977
  0
TEXT
  7
TextStyle03
  8
寸法
  6
CONTINUOUS
 10
120.48125
 20
-17.075
  1
1245.3
 40
3.0
 72
     5
 11
130.41875
 21
-17.075
  0
ENDBLK
  0
BLOCK
  2
*DIM_0022
 70
    65
 10
0.0
 20
0.0
  0
LINE
  8
寸法
  6
CONTINUOUS
 10
151.215093
 20
-29.101
 11
163.304138
 21
-29.101
  0
LINE
  8
寸法
  6
CONTINUOUS
 10
151.215093
 20
-72.967667
 11
163.304138
 21
-72.967667
  0
LINE
  8
寸法
  6
CONTINUOUS
 10
163.304138
 20
-29.101
 11
163.304138
 21
-72.967667
  0
POINT
  8
寸法
 10
163.304138
 20
-29.101
  0
POINT
  8
寸法
 10
163.304138
 20
-72.967667
  0
TEXT
  7
TextStyle03
  8
寸法
  6
CONTINUOUS
 10
162.925
 20
-54.33125
  1
1316
 40
3.0
 50
90.0
 72
     5
 11
162.925
 21
-47.76875
  0
ENDBLK
  0
BLOCK
  2
*GRP_0023
 70
    65
 10
0.0
 20
0.0
  0
LINE
  8
ボルト／ビス
  6
CONTINUOUS
 10
-0.716853
 20
-55.177427
 11
-0.716853
 21
-54.71076
  0
LINE
  8
ボルト／ビス
  6
CONTINUOUS
 10
-0.350185
 20
-55.177427
 11
-0.350185
 21
-55.11076
  0
LINE
  8
ボルト／ビス
  6
CONTINUOUS
 10
-0.350185
 20
-55.11076
 11
-1.08352
 21
-55.11076
  0
LINE
  8
ボルト／ビス
  6
CONTINUOUS
 10
-1.08352
 20
-55.11076
 11
-1.08352
 21
-55.177427
  0
LINE
  8
ボルト／ビス
  6
CONTINUOUS
 10
-0.350185
 20
-55.177427
 11
-1.08352
 21
-55.177427
  0
LINE
  8
ボルト／ビス
  6
CONTINUOUS
 10
-0.416853
 20
-55.077427
 11
-0.416853
 21
-55.11076
  0
LINE
  8
ボルト／ビス
  6
CONTINUOUS
 10
-0.416853
 20
-55.077427
 11
-1.016853
 21
-55.077427
  0
LINE
  8
ボルト／ビス
  6
CONTINUOUS
 10
-1.016853
 20
-55.077427
 11
-1.016853
 21
-55.11076
  0
LINE
  8
ボルト／ビス
  6
CONTINUOUS
 62
    64
 10
-0.556477
 20
-54.877427
 11
-0.524402
 21
-54.889102
  0
ARC
  8
ボルト／ビス
  6
CONTINUOUS
 62
    64
 10
-0.572514
 20
-54.982408
 40
0.104978
 50
90.0
 51
117.278033
  0
ARC
  8
ボルト／ビス
  6
CONTINUOUS
 62
    64
 10
-0.716852
 20
-55.279831
 40
0.402402
 50
76.165015
 51
103.834998
  0
LINE
  8
ボルト／ビス
  6
CONTINUOUS
 62
    64
 10
-0.877228
 20
-54.877427
 11
-0.909303
 21
-54.889102
  0
ARC
  8
ボルト／ビス
  6
CONTINUOUS
 62
    64
 10
-0.861189
 20
-54.982408
 40
0.104978
 50
62.721967
 51
90.0
  0
LINE
  8
ボルト／ビス
  6
CONTINUOUS
 62
    64
 10
-0.556477
 20
-54.877427
 11
-0.877228
 21
-54.877427
  0
LINE
  8
ボルト／ビス
  6
CONTINUOUS
 62
    64
 10
-0.909303
 20
-54.889102
 11
-0.909303
 21
-55.01076
  0
LINE
  8
ボルト／ビス
  6
CONTINUOUS
 62
    64
 10
-0.813077
 20
-54.889102
 11
-0.813077
 21
-55.01076
  0
LINE
  8
ボルト／ビス
  6
CONTINUOUS
 62
    64
 10
-0.524402
 20
-54.889102
 11
-0.524402
 21
-55.01076
  0
LINE
  8
ボルト／ビス
  6
CONTINUOUS
 62
    64
 10
-0.620627
 20
-54.889102
 11
-0.620627
 21
-55.01076
  0
LINE
  8
ボルト／ビス
  6
CONTINUOUS
 10
-0.524402
 20
-55.01076
 11
-0.909303
 21
-55.01076
  0
LINE
  8
ボルト／ビス
  6
CONTINUOUS
 10
-0.516853
 20
-55.01076
 11
-0.516853
 21
-55.077427
  0
LINE
  8
ボルト／ビス
  6
CONTINUOUS
 10
-0.516853
 20
-55.01076
 11
-0.916853
 21
-55.01076
  0
LINE
  8
ボルト／ビス
  6
CONTINUOUS
 10
-0.916853
 20
-55.01076
 11
-0.916853
 21
-55.077427
  0
ENDBLK
  0
BLOCK
  2
*GRP_0024
 70
    65
 10
0.0
 20
0.0
  0
LINE
  8
ボルト／ビス
  6
CONTINUOUS
 10
-85.383522
 20
-55.177427
 11
-85.383522
 21
-54.71076
  0
LINE
  8
ボルト／ビス
  6
CONTINUOUS
 10
-85.016855
 20
-55.177427
 11
-85.016855
 21
-55.11076
  0
LINE
  8
ボルト／ビス
  6
CONTINUOUS
 10
-85.016855
 20
-55.11076
 11
-85.75019
 21
-55.11076
  0
LINE
  8
ボルト／ビス
  6
CONTINUOUS
 10
-85.75019
 20
-55.11076
 11
-85.75019
 21
-55.177427
  0
LINE
  8
ボルト／ビス
  6
CONTINUOUS
 10
-85.016855
 20
-55.177427
 11
-85.75019
 21
-55.177427
  0
LINE
  8
ボルト／ビス
  6
CONTINUOUS
 10
-85.083522
 20
-55.077427
 11
-85.083522
 21
-55.11076
  0
LINE
  8
ボルト／ビス
  6
CONTINUOUS
 10
-85.083522
 20
-55.077427
 11
-85.683522
 21
-55.077427
  0
LINE
  8
ボルト／ビス
  6
CONTINUOUS
 10
-85.683522
 20
-55.077427
 11
-85.683522
 21
-55.11076
  0
LINE
  8
ボルト／ビス
  6
CONTINUOUS
 62
    64
 10
-85.223147
 20
-54.877427
 11
-85.191072
 21
-54.889102
  0
ARC
  8
ボルト／ビス
  6
CONTINUOUS
 62
    64
 10
-85.239184
 20
-54.982408
 40
0.104978
 50
90.0
 51
117.278033
  0
ARC
  8
ボルト／ビス
  6
CONTINUOUS
 62
    64
 10
-85.383522
 20
-55.279831
 40
0.402402
 50
76.165015
 51
103.834998
  0
LINE
  8
ボルト／ビス
  6
CONTINUOUS
 62
    64
 10
-85.543898
 20
-54.877427
 11
-85.575972
 21
-54.889102
  0
ARC
  8
ボルト／ビス
  6
CONTINUOUS
 62
    64
 10
-85.527859
 20
-54.982408
 40
0.104978
 50
62.721967
 51
90.0
  0
LINE
  8
ボルト／ビス
  6
CONTINUOUS
 62
    64
 10
-85.223147
 20
-54.877427
 11
-85.543898
 21
-54.877427
  0
LINE
  8
ボルト／ビス
  6
CONTINUOUS
 62
    64
 10
-85.575972
 20
-54.889102
 11
-85.575972
 21
-55.01076
  0
LINE
  8
ボルト／ビス
  6
CONTINUOUS
 62
    64
 10
-85.479748
 20
-54.889102
 11
-85.479748
 21
-55.01076
  0
LINE
  8
ボルト／ビス
  6
CONTINUOUS
 62
    64
 10
-85.191072
 20
-54.889102
 11
-85.191072
 21
-55.01076
  0
LINE
  8
ボルト／ビス
  6
CONTINUOUS
 62
    64
 10
-85.287298
 20
-54.889102
 11
-85.287298
 21
-55.01076
  0
LINE
  8
ボルト／ビス
  6
CONTINUOUS
 10
-85.191072
 20
-55.01076
 11
-85.575972
 21
-55.01076
  0
LINE
  8
ボルト／ビス
  6
CONTINUOUS
 10
-85.183522
 20
-55.01076
 11
-85.183522
 21
-55.077427
  0
LINE
  8
ボルト／ビス
  6
CONTINUOUS
 10
-85.183522
 20
-55.01076
 11
-85.583522
 21
-55.01076
  0
LINE
  8
ボルト／ビス
  6
CONTINUOUS
 10
-85.583522
 20
-55.01076
 11
-85.583522
 21
-55.077427
  0
ENDBLK
  0
BLOCK
  2
*GRP_0025
 70
    65
 10
0.0
 20
0.0
  0
LINE
  8
ボルト／ビス
  6
CONTINUOUS
 10
148.592527
 20
28.886365
 11
148.12586
 21
28.886365
  0
LINE
  8
ボルト／ビス
  6
CONTINUOUS
 10
148.592527
 20
29.253032
 11
148.52586
 21
29.253032
  0
LINE
  8
ボルト／ビス
  6
CONTINUOUS
 10
148.52586
 20
29.253032
 11
148.52586
 21
28.519698
  0
LINE
  8
ボルト／ビス
  6
CONTINUOUS
 10
148.52586
 20
28.519698
 11
148.592527
 21
28.519698
  0
LINE
  8
ボルト／ビス
  6
CONTINUOUS
 10
148.592527
 20
29.253032
 11
148.592527
 21
28.519698
  0
LINE
  8
ボルト／ビス
  6
CONTINUOUS
 10
148.492527
 20
29.186365
 11
148.52586
 21
29.186365
  0
LINE
  8
ボルト／ビス
  6
CONTINUOUS
 10
148.492527
 20
29.186365
 11
148.492527
 21
28.586365
  0
LINE
  8
ボルト／ビス
  6
CONTINUOUS
 10
148.492527
 20
28.586365
 11
148.52586
 21
28.586365
  0
LINE
  8
ボルト／ビス
  6
CONTINUOUS
 62
    64
 10
148.292527
 20
29.04674
 11
148.304203
 21
29.078815
  0
ARC
  8
ボルト／ビス
  6
CONTINUOUS
 62
    64
 10
148.397507
 20
29.030702
 40
0.104978
 50
180.0
 51
207.278033
  0
ARC
  8
ボルト／ビス
  6
CONTINUOUS
 62
    64
 10
148.694931
 20
28.886364
 40
0.402402
 50
166.165015
 51
193.834998
  0
LINE
  8
ボルト／ビス
  6
CONTINUOUS
 62
    64
 10
148.292527
 20
28.72599
 11
148.304203
 21
28.693915
  0
ARC
  8
ボルト／ビス
  6
CONTINUOUS
 62
    64
 10
148.397507
 20
28.742027
 40
0.104978
 50
152.721967
 51
180.0
  0
LINE
  8
ボルト／ビス
  6
CONTINUOUS
 62
    64
 10
148.292527
 20
29.04674
 11
148.292527
 21
28.72599
  0
LINE
  8
ボルト／ビス
  6
CONTINUOUS
 62
    64
 10
148.304203
 20
28.693915
 11
148.42586
 21
28.693915
  0
LINE
  8
ボルト／ビス
  6
CONTINUOUS
 62
    64
 10
148.304203
 20
28.79014
 11
148.42586
 21
28.79014
  0
LINE
  8
ボルト／ビス
  6
CONTINUOUS
 62
    64
 10
148.304203
 20
29.078815
 11
148.42586
 21
29.078815
  0
LINE
  8
ボルト／ビス
  6
CONTINUOUS
 62
    64
 10
148.304203
 20
28.98259
 11
148.42586
 21
28.98259
  0
LINE
  8
ボルト／ビス
  6
CONTINUOUS
 10
148.42586
 20
29.078815
 11
148.42586
 21
28.693915
  0
LINE
  8
ボルト／ビス
  6
CONTINUOUS
 10
148.42586
 20
29.086365
 11
148.492527
 21
29.086365
  0
LINE
  8
ボルト／ビス
  6
CONTINUOUS
 10
148.42586
 20
29.086365
 11
148.42586
 21
28.686365
  0
LINE
  8
ボルト／ビス
  6
CONTINUOUS
 10
148.42586
 20
28.686365
 11
148.492527
 21
28.686365
  0
ENDBLK
  0
BLOCK
  2
*GRP_0026
 70
    65
 10
0.0
 20
0.0
  0
LINE
  8
ボルト／ビス
  6
CONTINUOUS
 10
148.592527
 20
73.553035
 11
148.12586
 21
73.553035
  0
LINE
  8
ボルト／ビス
  6
CONTINUOUS
 10
148.592527
 20
73.919702
 11
148.52586
 21
73.919702
  0
LINE
  8
ボルト／ビス
  6
CONTINUOUS
 10
148.52586
 20
73.919702
 11
148.52586
 21
73.186368
  0
LINE
  8
ボルト／ビス
  6
CONTINUOUS
 10
148.52586
 20
73.186368
 11
148.592527
 21
73.186368
  0
LINE
  8
ボルト／ビス
  6
CONTINUOUS
 10
148.592527
 20
73.919702
 11
148.592527
 21
73.186368
  0
LINE
  8
ボルト／ビス
  6
CONTINUOUS
 10
148.492527
 20
73.853035
 11
148.52586
 21
73.853035
  0
LINE
  8
ボルト／ビス
  6
CONTINUOUS
 10
148.492527
 20
73.853035
 11
148.492527
 21
73.253035
  0
LINE
  8
ボルト／ビス
  6
CONTINUOUS
 10
148.492527
 20
73.253035
 11
148.52586
 21
73.253035
  0
LINE
  8
ボルト／ビス
  6
CONTINUOUS
 62
    64
 10
148.292527
 20
73.71341
 11
148.304203
 21
73.745485
  0
ARC
  8
ボルト／ビス
  6
CONTINUOUS
 62
    64
 10
148.397507
 20
73.697372
 40
0.104978
 50
180.0
 51
207.278033
  0
ARC
  8
ボルト／ビス
  6
CONTINUOUS
 62
    64
 10
148.694931
 20
73.553034
 40
0.402402
 50
166.165015
 51
193.834998
  0
LINE
  8
ボルト／ビス
  6
CONTINUOUS
 62
    64
 10
148.292527
 20
73.39266
 11
148.304203
 21
73.360585
  0
ARC
  8
ボルト／ビス
  6
CONTINUOUS
 62
    64
 10
148.397507
 20
73.408697
 40
0.104978
 50
152.721967
 51
180.0
  0
LINE
  8
ボルト／ビス
  6
CONTINUOUS
 62
    64
 10
148.292527
 20
73.71341
 11
148.292527
 21
73.39266
  0
LINE
  8
ボルト／ビス
  6
CONTINUOUS
 62
    64
 10
148.304203
 20
73.360585
 11
148.42586
 21
73.360585
  0
LINE
  8
ボルト／ビス
  6
CONTINUOUS
 62
    64
 10
148.304203
 20
73.45681
 11
148.42586
 21
73.45681
  0
LINE
  8
ボルト／ビス
  6
CONTINUOUS
 62
    64
 10
148.304203
 20
73.745485
 11
148.42586
 21
73.745485
  0
LINE
  8
ボルト／ビス
  6
CONTINUOUS
 62
    64
 10
148.304203
 20
73.64926
 11
148.42586
 21
73.64926
  0
LINE
  8
ボルト／ビス
  6
CONTINUOUS
 10
148.42586
 20
73.745485
 11
148.42586
 21
73.360585
  0
LINE
  8
ボルト／ビス
  6
CONTINUOUS
 10
148.42586
 20
73.753035
 11
148.492527
 21
73.753035
  0
LINE
  8
ボルト／ビス
  6
CONTINUOUS
 10
148.42586
 20
73.753035
 11
148.42586
 21
73.353035
  0
LINE
  8
ボルト／ビス
  6
CONTINUOUS
 10
148.42586
 20
73.353035
 11
148.492527
 21
73.353035
  0
ENDBLK
  0
BLOCK
  2
*GRP_0027
 70
    65
 10
0.0
 20
0.0
  0
LINE
  8
ボルト／ビス
  6
DOT
 10
147.722322
 20
76.799265
 11
147.39234
 21
77.12925
  0
LINE
  8
ボルト／ビス
  6
DOT
 10
147.981597
 20
77.058538
 11
147.934455
 21
77.10568
  0
LINE
  8
ボルト／ビス
  6
DOT
 10
147.934455
 20
77.10568
 11
147.41591
 21
76.587133
  0
LINE
  8
ボルト／ビス
  6
DOT
 10
147.41591
 20
76.587133
 11
147.46305
 21
76.539992
  0
LINE
  8
ボルト／ビス
  6
DOT
 10
147.981597
 20
77.058538
 11
147.46305
 21
76.539992
  0
LINE
  8
ボルト／ビス
  6
DOT
 10
147.863745
 20
77.082107
 11
147.887315
 21
77.058538
  0
LINE
  8
ボルト／ビス
  6
DOT
 10
147.863745
 20
77.082107
 11
147.43948
 21
76.657845
  0
LINE
  8
ボルト／ビス
  6
DOT
 10
147.43948
 20
76.657845
 11
147.46305
 21
76.634275
  0
LINE
  8
ボルト／ビス
  6
DOT
 62
    64
 10
147.623593
 20
77.1248
 11
147.65453
 21
77.139225
  0
ARC
  8
ボルト／ビス
  6
DOT
 62
    64
 10
147.686483
 20
77.039225
 40
0.104978
 50
135.0
 51
162.278033
  0
ARC
  8
ボルト／ビス
  6
DOT
 62
    64
 10
147.794731
 20
76.726853
 40
0.402402
 50
121.165015
 51
148.834998
  0
LINE
  8
ボルト／ビス
  6
DOT
 62
    64
 10
147.39679
 20
76.897995
 11
147.382365
 21
76.86706
  0
ARC
  8
ボルト／ビス
  6
DOT
 62
    64
 10
147.482359
 20
76.835101
 40
0.104978
 50
107.721967
 51
135.0
  0
LINE
  8
ボルト／ビス
  6
DOT
 62
    64
 10
147.623593
 20
77.1248
 11
147.39679
 21
76.897995
  0
LINE
  8
ボルト／ビス
  6
DOT
 62
    64
 10
147.382365
 20
76.86706
 11
147.46839
 21
76.781035
  0
LINE
  8
ボルト／ビス
  6
DOT
 62
    64
 10
147.450405
 20
76.9351
 11
147.53643
 21
76.849075
  0
LINE
  8
ボルト／ビス
  6
DOT
 62
    64
 10
147.65453
 20
77.139225
 11
147.740555
 21
77.0532
  0
LINE
  8
ボルト／ビス
  6
DOT
 62
    64
 10
147.586487
 20
77.071183
 11
147.672513
 21
76.985158
  0
LINE
  8
ボルト／ビス
  6
DOT
 10
147.740555
 20
77.0532
 11
147.46839
 21
76.781035
  0
LINE
  8
ボルト／ビス
  6
DOT
 10
147.745893
 20
77.058538
 11
147.793035
 21
77.011398
  0
LINE
  8
ボルト／ビス
  6
DOT
 10
147.745893
 20
77.058538
 11
147.46305
 21
76.775695
  0
LINE
  8
ボルト／ビス
  6
DOT
 10
147.46305
 20
76.775695
 11
147.51019
 21
76.728555
  0
ENDBLK
  0
BLOCK
  2
*GRP_0028
 70
    65
 10
0.0
 20
0.0
  0
LINE
  8
ボルト／ビス
  6
DOT
 10
116.138215
 20
45.21516
 11
115.808232
 21
45.545145
  0
LINE
  8
ボルト／ビス
  6
DOT
 10
116.39749
 20
45.474432
 11
116.350347
 21
45.521575
  0
LINE
  8
ボルト／ビス
  6
DOT
 10
116.350347
 20
45.521575
 11
115.831803
 21
45.003027
  0
LINE
  8
ボルト／ビス
  6
DOT
 10
115.831803
 20
45.003027
 11
115.878943
 21
44.955888
  0
LINE
  8
ボルト／ビス
  6
DOT
 10
116.39749
 20
45.474432
 11
115.878943
 21
44.955888
  0
LINE
  8
ボルト／ビス
  6
DOT
 10
116.279637
 20
45.498003
 11
116.303207
 21
45.474432
  0
LINE
  8
ボルト／ビス
  6
DOT
 10
116.279637
 20
45.498003
 11
115.855372
 21
45.07374
  0
LINE
  8
ボルト／ビス
  6
DOT
 10
115.855372
 20
45.07374
 11
115.878943
 21
45.05017
  0
LINE
  8
ボルト／ビス
  6
DOT
 62
    64
 10
116.039485
 20
45.540695
 11
116.070422
 21
45.55512
  0
ARC
  8
ボルト／ビス
  6
DOT
 62
    64
 10
116.102376
 20
45.455119
 40
0.104978
 50
135.0
 51
162.278033
  0
ARC
  8
ボルト／ビス
  6
DOT
 62
    64
 10
116.210624
 20
45.142747
 40
0.402402
 50
121.165015
 51
148.834998
  0
LINE
  8
ボルト／ビス
  6
DOT
 62
    64
 10
115.812682
 20
45.31389
 11
115.798258
 21
45.282955
  0
ARC
  8
ボルト／ビス
  6
DOT
 62
    64
 10
115.898252
 20
45.250995
 40
0.104978
 50
107.721967
 51
135.0
  0
LINE
  8
ボルト／ビス
  6
DOT
 62
    64
 10
116.039485
 20
45.540695
 11
115.812682
 21
45.31389
  0
LINE
  8
ボルト／ビス
  6
DOT
 62
    64
 10
115.798258
 20
45.282955
 11
115.884282
 21
45.19693
  0
LINE
  8
ボルト／ビス
  6
DOT
 62
    64
 10
115.866297
 20
45.350995
 11
115.952323
 21
45.26497
  0
LINE
  8
ボルト／ビス
  6
DOT
 62
    64
 10
116.070422
 20
45.55512
 11
116.156447
 21
45.469095
  0
LINE
  8
ボルト／ビス
  6
DOT
 62
    64
 10
116.00238
 20
45.487077
 11
116.088405
 21
45.401052
  0
LINE
  8
ボルト／ビス
  6
DOT
 10
116.156447
 20
45.469095
 11
115.884282
 21
45.19693
  0
LINE
  8
ボルト／ビス
  6
DOT
 10
116.161785
 20
45.474432
 11
116.208928
 21
45.427292
  0
LINE
  8
ボルト／ビス
  6
DOT
 10
116.161785
 20
45.474432
 11
115.878943
 21
45.19159
  0
LINE
  8
ボルト／ビス
  6
DOT
 10
115.878943
 20
45.19159
 11
115.926082
 21
45.14445
  0
ENDBLK
  0
ENDSEC
  0
SECTION
  2
ENTITIES
  0
POLYLINE
  8
通り芯
  6
CONTINUOUS
 66
     1
 70
     1
  0
VERTEX
  8
通り芯
 10
-210.0
 20
-148.5
  0
VERTEX
  8
通り芯
 10
210.0
 20
-148.5
  0
VERTEX
  8
通り芯
 10
210.0
 20
148.5
  0
VERTEX
  8
通り芯
 10
-210.0
 20
148.5
  0
SEQEND
  0
INSERT
  2
*GRP_0001
  8
型材断面
  6
CONTINUOUS
 10
0.0
 20
0.0
  0
LINE
  8
型材断面
  6
CONTINUOUS
 62
    47
 10
152.025978
 20
73.933063
 11
152.025978
 21
74.653275
  0
LINE
  8
型材断面
  6
CONTINUOUS
 62
    47
 10
150.732657
 20
74.609913
 11
150.722658
 21
74.619912
  0
LINE
  8
型材断面
  6
CONTINUOUS
 62
    47
 10
150.732657
 20
74.609913
 11
150.742657
 21
74.619912
  0
LINE
  8
型材断面
  6
CONTINUOUS
 62
    47
 10
151.374887
 20
74.609913
 11
151.364888
 21
74.619912
  0
LINE
  8
型材断面
  6
CONTINUOUS
 62
    47
 10
151.374887
 20
74.609913
 11
151.384887
 21
74.619912
  0
LINE
  8
型材断面
  6
CONTINUOUS
 62
    47
 10
151.792672
 20
74.619912
 11
151.384887
 21
74.619912
  0
LINE
  8
型材断面
  6
CONTINUOUS
 62
    47
 10
151.364888
 20
74.619912
 11
150.742657
 21
74.619912
  0
LINE
  8
型材断面
  6
CONTINUOUS
 62
    47
 10
155.426093
 20
76.119737
 11
155.09276
 21
76.119737
  0
LINE
  8
型材断面
  6
CONTINUOUS
 62
    47
 10
154.426093
 20
74.186578
 11
154.426093
 21
73.58973
  0
LINE
  8
型材断面
  6
CONTINUOUS
 62
    47
 10
154.426078
 20
74.41973
 11
154.59276
 21
76.61973
  0
LINE
  8
型材断面
  6
CONTINUOUS
 62
    47
 10
155.09276
 20
76.61973
 11
154.59276
 21
76.61973
  0
LINE
  8
型材断面
  6
CONTINUOUS
 62
    47
 10
151.859332
 20
75.886398
 11
152.025978
 21
75.886398
  0
LINE
  8
型材断面
  6
CONTINUOUS
 62
    47
 10
152.292635
 20
75.886398
 11
152.159317
 21
75.886398
  0
LINE
  8
型材断面
  6
CONTINUOUS
 62
    47
 10
151.792672
 20
74.619912
 11
151.859332
 21
75.893082
  0
LINE
  8
型材断面
  6
CONTINUOUS
 62
    47
 10
152.292635
 20
74.41973
 11
154.426093
 21
74.41973
  0
LINE
  8
型材断面
  6
CONTINUOUS
 62
    47
 10
150.722658
 20
74.619912
 11
149.592525
 21
74.619912
  0
LINE
  8
型材断面
  6
CONTINUOUS
 62
    47
 10
152.292635
 20
75.886398
 11
152.292635
 21
51.219702
  0
LINE
  8
型材断面
  6
CONTINUOUS
 10
151.859332
 20
75.886398
 11
151.859332
 21
51.219702
  0
LINE
  8
型材断面
  6
CONTINUOUS
 10
151.792672
 20
74.619912
 11
151.792672
 21
51.219702
  0
LINE
  8
型材断面
  6
CONTINUOUS
 62
    47
 10
152.159317
 20
75.886398
 11
152.159317
 21
51.219702
  0
LINE
  8
型材断面
  6
CONTINUOUS
 62
    47
 10
152.025978
 20
75.886398
 11
152.025978
 21
51.219702
  0
LINE
  8
型材断面
  6
CONTINUOUS
 10
154.426093
 20
74.41973
 11
154.426093
 21
51.219702
  0
LINE
  8
型材断面
  6
CONTINUOUS
 10
154.59276
 20
76.61973
 11
154.59276
 21
51.219702
  0
LINE
  8
型材断面
  6
CONTINUOUS
 10
155.09276
 20
76.61973
 11
155.09276
 21
51.219702
  0
LINE
  8
型材断面
  6
CONTINUOUS
 10
155.426093
 20
76.119737
 11
155.426093
 21
51.219702
  0
LINE
  8
型材断面
  6
CONTINUOUS
 62
    47
 10
152.025978
 20
28.506343
 11
152.025978
 21
27.786127
  0
LINE
  8
型材断面
  6
CONTINUOUS
 62
    47
 10
150.732657
 20
27.829493
 11
150.722658
 21
27.819492
  0
LINE
  8
型材断面
  6
CONTINUOUS
 62
    47
 10
150.732657
 20
27.829493
 11
150.742657
 21
27.819492
  0
LINE
  8
型材断面
  6
CONTINUOUS
 62
    47
 10
151.374887
 20
27.829493
 11
151.364888
 21
27.819492
  0
LINE
  8
型材断面
  6
CONTINUOUS
 62
    47
 10
151.374887
 20
27.829493
 11
151.384887
 21
27.819492
  0
LINE
  8
型材断面
  6
CONTINUOUS
 62
    47
 10
151.792672
 20
27.819492
 11
151.384887
 21
27.819492
  0
LINE
  8
型材断面
  6
CONTINUOUS
 62
    47
 10
151.364888
 20
27.819492
 11
150.742657
 21
27.819492
  0
LINE
  8
型材断面
  6
CONTINUOUS
 62
    47
 10
155.426093
 20
26.319665
 11
155.09276
 21
26.319665
  0
LINE
  8
型材断面
  6
CONTINUOUS
 62
    47
 10
154.426093
 20
28.252828
 11
154.426093
 21
28.849673
  0
LINE
  8
型材断面
  6
CONTINUOUS
 62
    47
 10
154.426078
 20
28.019672
 11
154.59276
 21
25.819672
  0
LINE
  8
型材断面
  6
CONTINUOUS
 62
    47
 10
155.09276
 20
25.819672
 11
154.59276
 21
25.819672
  0
LINE
  8
型材断面
  6
CONTINUOUS
 62
    47
 10
151.859332
 20
26.553008
 11
152.025978
 21
26.553008
  0
LINE
  8
型材断面
  6
CONTINUOUS
 62
    47
 10
152.292635
 20
26.553008
 11
152.159317
 21
26.553008
  0
LINE
  8
型材断面
  6
CONTINUOUS
 62
    47
 10
151.792672
 20
27.819492
 11
151.859332
 21
26.54632
  0
LINE
  8
型材断面
  6
CONTINUOUS
 62
    47
 10
152.292635
 20
28.019672
 11
154.426093
 21
28.019672
  0
LINE
  8
型材断面
  6
CONTINUOUS
 62
    47
 10
150.722658
 20
27.819492
 11
149.592525
 21
27.819492
  0
LINE
  8
型材断面
  6
CONTINUOUS
 62
    47
 10
152.292635
 20
26.553008
 11
152.292635
 21
51.219702
  0
LINE
  8
型材断面
  6
CONTINUOUS
 10
151.859332
 20
26.553008
 11
151.859332
 21
51.219702
  0
LINE
  8
型材断面
  6
CONTINUOUS
 10
151.792672
 20
27.819492
 11
151.792672
 21
51.219702
  0
LINE
  8
型材断面
  6
CONTINUOUS
 62
    47
 10
152.159317
 20
26.553008
 11
152.159317
 21
51.219702
  0
LINE
  8
型材断面
  6
CONTINUOUS
 62
    47
 10
152.025978
 20
26.553008
 11
152.025978
 21
51.219702
  0
LINE
  8
型材断面
  6
CONTINUOUS
 10
154.426093
 20
28.019672
 11
154.426093
 21
51.219702
  0
LINE
  8
型材断面
  6
CONTINUOUS
 10
154.59276
 20
25.819672
 11
154.59276
 21
51.219702
  0
LINE
  8
型材断面
  6
CONTINUOUS
 10
155.09276
 20
25.819672
 11
155.09276
 21
51.219702
  0
LINE
  8
型材断面
  6
CONTINUOUS
 10
155.426093
 20
26.319665
 11
155.426093
 21
51.219702
  0
LINE
  8
型材断面
  6
DOT
 62
    47
 10
150.418858
 20
74.640167
 11
150.928125
 21
75.149435
  0
LINE
  8
型材断面
  6
DOT
 62
    47
 10
149.982948
 20
76.033288
 11
149.982948
 21
76.04743
  0
LINE
  8
型材断面
  6
DOT
 62
    47
 10
149.982948
 20
76.033288
 11
149.997088
 21
76.033288
  0
LINE
  8
型材断面
  6
DOT
 62
    47
 10
150.437073
 20
75.579162
 11
150.437073
 21
75.593303
  0
LINE
  8
型材断面
  6
DOT
 62
    47
 10
150.437073
 20
75.579162
 11
150.451215
 21
75.579162
  0
LINE
  8
型材断面
  6
DOT
 62
    47
 10
150.739562
 20
75.290812
 11
150.451215
 21
75.579162
  0
LINE
  8
型材断面
  6
DOT
 62
    47
 10
150.437073
 20
75.593303
 11
149.997088
 21
76.033288
  0
LINE
  8
型材断面
  6
DOT
 62
    47
 10
151.682237
 20
76.13922
 11
151.800073
 21
76.021383
  0
LINE
  8
型材断面
  6
DOT
 62
    47
 10
150.739562
 20
75.290812
 11
151.686965
 21
76.143947
  0
LINE
  8
型材断面
  6
DOT
 62
    47
 10
149.982948
 20
76.04743
 11
149.183822
 21
76.846552
  0
LINE
  8
型材断面
  6
DOT
 10
151.682237
 20
76.13922
 11
134.24025
 21
58.697233
  0
LINE
  8
型材断面
  6
DOT
 10
150.739562
 20
75.290812
 11
134.193115
 21
58.744368
  0
LINE
  8
型材断面
  6
DOT
 62
    47
 10
151.800073
 20
76.021383
 11
134.358085
 21
58.579398
  0
LINE
  8
型材断面
  6
DOT
 62
    47
 10
118.297315
 20
42.518625
 11
117.788047
 21
42.009358
  0
LINE
  8
型材断面
  6
DOT
 62
    47
 10
116.904195
 20
42.954535
 11
116.890052
 21
42.954535
  0
LINE
  8
型材断面
  6
DOT
 62
    47
 10
116.904195
 20
42.954535
 11
116.904195
 21
42.940393
  0
LINE
  8
型材断面
  6
DOT
 62
    47
 10
117.35832
 20
42.500408
 11
117.344177
 21
42.500408
  0
LINE
  8
型材断面
  6
DOT
 62
    47
 10
117.35832
 20
42.500408
 11
117.35832
 21
42.486268
  0
LINE
  8
型材断面
  6
DOT
 62
    47
 10
117.646667
 20
42.19792
 11
117.35832
 21
42.486268
  0
LINE
  8
型材断面
  6
DOT
 62
    47
 10
117.344177
 20
42.500408
 11
116.904195
 21
42.940393
  0
LINE
  8
型材断面
  6
DOT
 62
    47
 10
116.798263
 20
41.255245
 11
116.916098
 21
41.137407
  0
LINE
  8
型材断面
  6
DOT
 62
    47
 10
117.646667
 20
42.19792
 11
116.793535
 21
41.250518
  0
LINE
  8
型材断面
  6
DOT
 62
    47
 10
116.890052
 20
42.954535
 11
116.090927
 21
43.75366
  0
LINE
  8
型材断面
  6
DOT
 10
116.798263
 20
41.255245
 11
134.24025
 21
58.697233
  0
LINE
  8
型材断面
  6
DOT
 10
117.646667
 20
42.19792
 11
134.193115
 21
58.744368
  0
LINE
  8
型材断面
  6
DOT
 62
    47
 10
116.916098
 20
41.137407
 11
134.358085
 21
58.579398
  0
ARC
  8
型材断面
  6
DASHDOT
 10
152.075966
 20
76.226581
 40
49.673598
 50
224.942338
 51
269.942337
  0
LINE
  8
型材断面
  6
DASHDOT
 10
-43.050183
 20
-66.258275
 11
-43.050183
 21
72.886368
  0
LINE
  8
型材断面
  6
CONTINUOUS
 62
    47
 10
-0.336825
 20
-58.610877
 11
0.38339
 21
-58.610877
  0
LINE
  8
型材断面
  6
CONTINUOUS
 62
    47
 10
0.340025
 20
-57.317558
 11
0.350025
 21
-57.307557
  0
LINE
  8
型材断面
  6
CONTINUOUS
 62
    47
 10
0.340025
 20
-57.317558
 11
0.350025
 21
-57.327557
  0
LINE
  8
型材断面
  6
CONTINUOUS
 62
    47
 10
0.340025
 20
-57.95979
 11
0.350025
 21
-57.94979
  0
LINE
  8
型材断面
  6
CONTINUOUS
 62
    47
 10
0.340025
 20
-57.95979
 11
0.350025
 21
-57.96979
  0
LINE
  8
型材断面
  6
CONTINUOUS
 62
    47
 10
0.350025
 20
-58.377575
 11
0.350025
 21
-57.96979
  0
LINE
  8
型材断面
  6
CONTINUOUS
 62
    47
 10
0.350025
 20
-57.94979
 11
0.350025
 21
-57.327557
  0
LINE
  8
型材断面
  6
CONTINUOUS
 62
    47
 10
1.849853
 20
-62.010995
 11
1.849853
 21
-61.677663
  0
LINE
  8
型材断面
  6
CONTINUOUS
 62
    47
 10
-0.08331
 20
-61.010992
 11
-0.680155
 21
-61.010992
  0
LINE
  8
型材断面
  6
CONTINUOUS
 62
    47
 10
0.149845
 20
-61.01098
 11
2.349845
 21
-61.177663
  0
LINE
  8
型材断面
  6
CONTINUOUS
 62
    47
 10
2.349845
 20
-61.677663
 11
2.349845
 21
-61.177663
  0
LINE
  8
型材断面
  6
CONTINUOUS
 62
    47
 10
1.61651
 20
-58.444232
 11
1.61651
 21
-58.610877
  0
LINE
  8
型材断面
  6
CONTINUOUS
 62
    47
 10
1.61651
 20
-58.877538
 11
1.61651
 21
-58.74422
  0
LINE
  8
型材断面
  6
CONTINUOUS
 62
    47
 10
0.350025
 20
-58.377575
 11
1.623198
 21
-58.444232
  0
LINE
  8
型材断面
  6
CONTINUOUS
 62
    47
 10
0.149845
 20
-58.877538
 11
0.149845
 21
-61.010992
  0
LINE
  8
型材断面
  6
CONTINUOUS
 62
    47
 10
0.350025
 20
-57.307557
 11
0.350025
 21
-56.177427
  0
LINE
  8
型材断面
  6
CONTINUOUS
 62
    47
 10
1.61651
 20
-58.74422
 11
-43.050183
 21
-58.74422
  0
LINE
  8
型材断面
  6
CONTINUOUS
 10
0.350025
 20
-58.377575
 11
-43.050183
 21
-58.377575
  0
LINE
  8
型材断面
  6
CONTINUOUS
 10
1.61651
 20
-58.444232
 11
-43.050183
 21
-58.444232
  0
LINE
  8
型材断面
  6
CONTINUOUS
 62
    47
 10
1.61651
 20
-58.877538
 11
-43.050183
 21
-58.877538
  0
LINE
  8
型材断面
  6
CONTINUOUS
 62
    47
 10
1.61651
 20
-58.610877
 11
-43.050183
 21
-58.610877
  0
LINE
  8
型材断面
  6
CONTINUOUS
 10
2.349845
 20
-61.677663
 11
-43.050183
 21
-61.677663
  0
LINE
  8
型材断面
  6
CONTINUOUS
 10
2.349845
 20
-61.177663
 11
-43.050183
 21
-61.177663
  0
LINE
  8
型材断面
  6
CONTINUOUS
 10
1.849853
 20
-62.010995
 11
-43.050183
 21
-62.010995
  0
LINE
  8
型材断面
  6
CONTINUOUS
 10
0.149845
 20
-61.010992
 11
-43.050183
 21
-61.010992
  0
LINE
  8
型材断面
  6
CONTINUOUS
 10
0.68315
 20
27.48637
 11
2.349845
 21
25.819675
  0
LINE
  8
型材断面
  6
CONTINUOUS
 10
2.349845
 20
25.819675
 11
2.349845
 21
39.553035
  0
LINE
  8
型材断面
  6
CONTINUOUS
 10
1.61651
 20
26.553008
 11
1.61651
 21
39.553035
  0
LINE
  8
型材断面
  6
CONTINUOUS
 10
0.68315
 20
74.953035
 11
2.349845
 21
76.61973
  0
LINE
  8
型材断面
  6
CONTINUOUS
 10
2.349845
 20
39.553035
 11
2.349845
 21
76.61973
  0
LINE
  8
型材断面
  6
CONTINUOUS
 10
1.61651
 20
39.553035
 11
1.61651
 21
75.886395
  0
LINE
  8
型材断面
  6
DASHDOT
 10
-1.383518
 20
-66.258275
 11
-1.383518
 21
72.886368
  0
LINE
  8
型材断面
  6
CONTINUOUS
 62
    47
 10
-85.763543
 20
-58.610877
 11
-86.483755
 21
-58.610877
  0
LINE
  8
型材断面
  6
CONTINUOUS
 62
    47
 10
-86.440392
 20
-57.317558
 11
-86.450392
 21
-57.307557
  0
LINE
  8
型材断面
  6
CONTINUOUS
 62
    47
 10
-86.440392
 20
-57.317558
 11
-86.450392
 21
-57.327557
  0
LINE
  8
型材断面
  6
CONTINUOUS
 62
    47
 10
-86.440392
 20
-57.95979
 11
-86.450392
 21
-57.94979
  0
LINE
  8
型材断面
  6
CONTINUOUS
 62
    47
 10
-86.440392
 20
-57.95979
 11
-86.450392
 21
-57.96979
  0
LINE
  8
型材断面
  6
CONTINUOUS
 62
    47
 10
-86.450392
 20
-58.377575
 11
-86.450392
 21
-57.96979
  0
LINE
  8
型材断面
  6
CONTINUOUS
 62
    47
 10
-86.450392
 20
-57.94979
 11
-86.450392
 21
-57.327557
  0
LINE
  8
型材断面
  6
CONTINUOUS
 62
    47
 10
-87.95022
 20
-62.010995
 11
-87.95022
 21
-61.677663
  0
LINE
  8
型材断面
  6
CONTINUOUS
 62
    47
 10
-86.017058
 20
-61.010992
 11
-85.42021
 21
-61.010992
  0
LINE
  8
型材断面
  6
CONTINUOUS
 62
    47
 10
-86.25021
 20
-61.01098
 11
-88.45021
 21
-61.177663
  0
LINE
  8
型材断面
  6
CONTINUOUS
 62
    47
 10
-88.45021
 20
-61.677663
 11
-88.45021
 21
-61.177663
  0
LINE
  8
型材断面
  6
CONTINUOUS
 62
    47
 10
-87.716878
 20
-58.444232
 11
-87.716878
 21
-58.610877
  0
LINE
  8
型材断面
  6
CONTINUOUS
 62
    47
 10
-87.716878
 20
-58.877538
 11
-87.716878
 21
-58.74422
  0
LINE
  8
型材断面
  6
CONTINUOUS
 62
    47
 10
-86.450392
 20
-58.377575
 11
-87.723565
 21
-58.444232
  0
LINE
  8
型材断面
  6
CONTINUOUS
 62
    47
 10
-86.25021
 20
-58.877538
 11
-86.25021
 21
-61.010992
  0
LINE
  8
型材断面
  6
CONTINUOUS
 62
    47
 10
-86.450392
 20
-57.307557
 11
-86.450392
 21
-56.177427
  0
LINE
  8
型材断面
  6
CONTINUOUS
 62
    47
 10
-87.716878
 20
-58.74422
 11
-43.050183
 21
-58.74422
  0
LINE
  8
型材断面
  6
CONTINUOUS
 10
-86.450392
 20
-58.377575
 11
-43.050183
 21
-58.377575
  0
LINE
  8
型材断面
  6
CONTINUOUS
 10
-87.716878
 20
-58.444232
 11
-43.050183
 21
-58.444232
  0
LINE
  8
型材断面
  6
CONTINUOUS
 62
    47
 10
-87.716878
 20
-58.877538
 11
-43.050183
 21
-58.877538
  0
LINE
  8
型材断面
  6
CONTINUOUS
 62
    47
 10
-87.716878
 20
-58.610877
 11
-43.050183
 21
-58.610877
  0
LINE
  8
型材断面
  6
CONTINUOUS
 10
-88.45021
 20
-61.677663
 11
-43.050183
 21
-61.677663
  0
LINE
  8
型材断面
  6
CONTINUOUS
 10
-88.45021
 20
-61.177663
 11
-43.050183
 21
-61.177663
  0
LINE
  8
型材断面
  6
CONTINUOUS
 10
-87.95022
 20
-62.010995
 11
-43.050183
 21
-62.010995
  0
LINE
  8
型材断面
  6
CONTINUOUS
 10
-86.25021
 20
-61.010992
 11
-43.050183
 21
-61.010992
  0
LINE
  8
型材断面
  6
CONTINUOUS
 10
-86.783515
 20
27.48637
 11
-88.45021
 21
25.819675
  0
LINE
  8
型材断面
  6
CONTINUOUS
 10
-88.45021
 20
25.819675
 11
-88.45021
 21
39.553035
  0
LINE
  8
型材断面
  6
CONTINUOUS
 10
-87.716878
 20
26.553008
 11
-87.716878
 21
39.553035
  0
LINE
  8
型材断面
  6
CONTINUOUS
 10
-88.45021
 20
25.819675
 11
-74.71685
 21
25.819675
  0
LINE
  8
型材断面
  6
CONTINUOUS
 10
-87.716878
 20
26.553008
 11
-74.71685
 21
26.553008
  0
LINE
  8
型材断面
  6
DASHDOT
 10
-84.71685
 20
29.553035
 11
159.10577
 21
29.553035
  0
LINE
  8
型材断面
  6
CONTINUOUS
 10
-86.783515
 20
74.953035
 11
-88.45021
 21
76.61973
  0
LINE
  8
型材断面
  6
CONTINUOUS
 10
-88.45021
 20
76.61973
 11
-74.71685
 21
76.61973
  0
LINE
  8
型材断面
  6
CONTINUOUS
 10
-87.716878
 20
75.886398
 11
-74.71685
 21
75.886398
  0
LINE
  8
型材断面
  6
DASHDOT
 10
-84.71685
 20
72.886368
 11
159.10577
 21
72.886368
  0
LINE
  8
型材断面
  6
DASHDOT
 10
-84.71685
 20
51.219702
 11
159.10577
 21
51.219702
  0
LINE
  8
型材断面
  6
DASHDOT
 10
-84.71685
 20
-66.258275
 11
-84.71685
 21
72.886368
  0
LINE
  8
型材断面
  6
CONTINUOUS
 10
-88.45021
 20
39.553035
 11
-88.45021
 21
76.61973
  0
LINE
  8
型材断面
  6
CONTINUOUS
 10
-87.716878
 20
39.553035
 11
-87.716878
 21
75.886398
  0
LINE
  8
型材断面
  6
CONTINUOUS
 10
2.349845
 20
25.819675
 11
-74.71685
 21
25.819675
  0
LINE
  8
型材断面
  6
CONTINUOUS
 10
1.61651
 20
26.553008
 11
-74.71685
 21
26.553008
  0
LINE
  8
型材断面
  6
CONTINUOUS
 10
2.349845
 20
76.61973
 11
-74.71685
 21
76.61973
  0
LINE
  8
型材断面
  6
CONTINUOUS
 10
1.61651
 20
75.886398
 11
-74.71685
 21
75.886398
  0
LINE
  8
型材断面
  6
DOT
 10
-41.800183
 20
29.553035
 11
-41.800183
 21
72.886368
  0
LINE
  8
型材断面
  6
DOT
 10
-44.300183
 20
29.553035
 11
-44.300183
 21
72.886368
  0
LINE
  8
型材断面
  6
CONTINUOUS
 10
-87.346977
 20
51.219702
 11
-89.937485
 21
52.715332
  0
LINE
  8
型材断面
  6
CONTINUOUS
 10
-87.346977
 20
51.219702
 11
-89.937485
 21
49.724072
  0
LINE
  8
型材断面
  6
CONTINUOUS
 10
-89.937485
 20
49.724072
 11
-89.937485
 21
52.715332
  0
LINE
  8
型材断面
  6
CONTINUOUS
 10
-68.05018
 20
75.516497
 11
-69.54581
 21
78.107005
  0
LINE
  8
型材断面
  6
CONTINUOUS
 10
-68.05018
 20
75.516497
 11
-66.55455
 21
78.107005
  0
LINE
  8
型材断面
  6
CONTINUOUS
 10
-66.55455
 20
78.107005
 11
-69.54581
 21
78.107005
  0
LINE
  8
型材断面
  6
CONTINUOUS
 10
-125.569055
 20
110.86384
 11
-124.973
 21
108.273332
  0
LINE
  8
型材断面
  6
CONTINUOUS
 10
-125.569055
 20
110.86384
 11
-126.165113
 21
108.273332
  0
LINE
  8
型材断面
  6
CONTINUOUS
 10
-126.165113
 20
108.273332
 11
-124.973
 21
108.273332
  0
LINE
  8
型材断面
  6
CONTINUOUS
 10
-131.591643
 20
104.99444
 11
-85.349865
 21
104.99444
  0
LINE
  8
型材断面
  6
CONTINUOUS
 10
-125.569055
 20
117.393715
 11
-127.064685
 21
114.803207
  0
LINE
  8
型材断面
  6
CONTINUOUS
 10
-125.569055
 20
117.393715
 11
-124.073425
 21
114.803207
  0
LINE
  8
型材断面
  6
CONTINUOUS
 10
-124.073425
 20
114.803207
 11
-127.064685
 21
114.803207
  0
LINE
  8
型材断面
  6
CONTINUOUS
 10
-131.591643
 20
113.864612
 11
-85.349865
 21
113.864612
  0
LINE
  8
型材断面
  6
CONTINUOUS
 10
-131.591643
 20
99.206408
 11
-85.349865
 21
99.206408
  0
LINE
  8
型材断面
  6
CONTINUOUS
 10
-68.05018
 20
26.922907
 11
-69.54581
 21
24.3324
  0
LINE
  8
型材断面
  6
CONTINUOUS
 10
-68.05018
 20
26.922907
 11
-66.55455
 21
24.3324
  0
LINE
  8
型材断面
  6
CONTINUOUS
 10
-66.55455
 20
24.3324
 11
-69.54581
 21
24.3324
  0
LINE
  8
型材断面
  6
CONTINUOUS
 10
1.246613
 20
51.219702
 11
3.83712
 21
52.715332
  0
LINE
  8
型材断面
  6
CONTINUOUS
 10
1.246613
 20
51.219702
 11
3.83712
 21
49.724072
  0
LINE
  8
型材断面
  6
CONTINUOUS
 10
3.83712
 20
49.724072
 11
3.83712
 21
52.715332
  0
LINE
  8
型材断面
  6
CONTINUOUS
 10
-18.050185
 20
75.516497
 11
-16.554555
 21
78.107005
  0
LINE
  8
型材断面
  6
CONTINUOUS
 10
-18.050185
 20
75.516497
 11
-19.545815
 21
78.107005
  0
LINE
  8
型材断面
  6
CONTINUOUS
 10
-19.545815
 20
78.107005
 11
-16.554555
 21
78.107005
  0
LINE
  8
型材断面
  6
CONTINUOUS
 10
-18.050185
 20
26.922907
 11
-16.554555
 21
24.3324
  0
LINE
  8
型材断面
  6
CONTINUOUS
 10
-18.050185
 20
26.922907
 11
-19.545815
 21
24.3324
  0
LINE
  8
型材断面
  6
CONTINUOUS
 10
-19.545815
 20
24.3324
 11
-16.554555
 21
24.3324
  0
POLYLINE
  8
型材断面
  6
DASHDOT
 66
     1
  0
VERTEX
  8
型材断面
 10
-84.716848
 20
29.553035
  0
VERTEX
  8
型材断面
 10
-43.050183
 20
72.886368
  0
VERTEX
  8
型材断面
 10
-1.383515
 20
29.553035
  0
SEQEND
  0
LINE
  8
型材断面
  6
CONTINUOUS
 10
-3.383515
 20
26.946222
 11
-3.979572
 21
24.355717
  0
LINE
  8
型材断面
  6
CONTINUOUS
 10
-3.383515
 20
26.946222
 11
-2.787457
 21
24.355717
  0
LINE
  8
型材断面
  6
CONTINUOUS
 10
-2.787457
 20
24.355717
 11
-3.979572
 21
24.355717
  0
LINE
  8
型材断面
  6
CONTINUOUS
 10
-82.71685
 20
26.946222
 11
-82.120792
 21
24.355717
  0
LINE
  8
型材断面
  6
CONTINUOUS
 10
-82.71685
 20
26.946222
 11
-83.312907
 21
24.355717
  0
LINE
  8
型材断面
  6
CONTINUOUS
 10
-83.312907
 20
24.355717
 11
-82.120792
 21
24.355717
  0
POLYLINE
  8
ガラス
  6
CONTINUOUS
 66
     1
 70
     1
  0
VERTEX
  8
ガラス
 10
146.215093
 20
-29.101
  0
VERTEX
  8
ガラス
 10
104.705092
 20
-29.101
  0
VERTEX
  8
ガラス
 10
104.705092
 20
-72.967667
  0
VERTEX
  8
ガラス
 10
146.215093
 20
-72.967667
  0
SEQEND
  0
TEXT
  7
TextStyle03
  8
文字
  6
CONTINUOUS
 10
80.875
 20
94.425
  1
ＮＳコード：ＮＳＨＬ
 40
5.0
 72
     5
 11
136.5
 21
94.425
  0
TEXT
  7
TextStyle03
  8
文字
  6
CONTINUOUS
 10
119.2
 20
30.475
  1
45°
 40
3.0
 72
     5
 11
125.575
 21
30.475
  0
TEXT
  7
TextStyle03
  8
文字
  6
CONTINUOUS
 10
81.225
 20
116.5
  1
シリーズ：ＴＤ１ＨＬ
 40
5.0
 72
     5
 11
136.85
 21
116.5
  0
TEXT
  7
TextStyle03
  8
文字
  6
CONTINUOUS
 10
81.225
 20
110.875
  1
　　　　　（片側開閉）1300×2500タイプ
 40
5.0
 72
     5
 11
187.475
 21
110.875
  0
TEXT
  7
TextStyle03
  8
文字
  6
CONTINUOUS
 10
81.225
 20
105.25
  1
図面名　：外観姿図
 40
5.0
 72
     5
 11
131.225
 21
105.25
  0
TEXT
  7
TextStyle03
  8
文字
  6
CONTINUOUS
 10
81.225
 20
99.625
  1
　　　　　　
 40
5.0
 72
     5
 11
114.35
 21
99.625
  0
TEXT
  7
TextStyle03
  8
文字
  6
CONTINUOUS
 10
-122.8
 20
115.0
  1
は排水穴位置を示す
 40
3.0
 72
     5
 11
-92.8
 21
115.0
  0
TEXT
  7
TextStyle03
  8
文字
  6
CONTINUOUS
 10
-126.525
 20
100.125
  1
アンカー数量　１２ヶ所
 40
3.0
 72
     5
 11
-89.775
 21
100.125
  0
TEXT
  7
TextStyle03
  8
文字
  6
CONTINUOUS
 10
-122.8
 20
109.475
  1
はケーシング位置を示す
 40
3.0
 72
     5
 11
-86.05
 21
109.475
  0
TEXT
  7
TextStyle03
  8
文字
  6
CONTINUOUS
 10
-122.8
 20
106.1
  1
２ヶ所中1ヶ所に設定
 40
3.0
 72
     5
 11
-91.1125
 21
106.1
  0
TEXT
  7
TextStyle03
  8
文字
  6
CONTINUOUS
 10
-122.3
 20
40.125
  1
アンカーピッチ
 40
3.0
 50
90.0
 72
     5
 11
-122.3
 21
63.375
  0
TEXT
  7
TextStyle03
  8
文字
  6
CONTINUOUS
 10
-78.075
 20
110.9
  1
アンカーピッチ
 40
3.0
 72
     5
 11
-54.825
 21
110.9
  0
TEXT
  7
TextStyle03
  8
文字
  6
CONTINUOUS
 10
124.25
 20
-63.675
  1
網入り6.8t
 40
3.0
 72
     5
 11
140.9375
 21
-63.675
  0
TEXT
  7
TextStyle03
  8
文字
  6
CONTINUOUS
 10
130.875
 20
-68.925
  1
×２枚
 40
3.0
 72
     5
 11
140.625
 21
-68.925
  0
INSERT
  2
*DIM_0002
  8
寸法
  6
CONTINUOUS
 10
0.0
 20
0.0
  0
INSERT
  2
*DIM_0003
  8
寸法
  6
CONTINUOUS
 10
0.0
 20
0.0
  0
INSERT
  2
*DIM_0005
  8
寸法
  6
CONTINUOUS
 10
0.0
 20
0.0
  0
INSERT
  2
*DIM_0006
  8
寸法
  6
CONTINUOUS
 10
0.0
 20
0.0
  0
INSERT
  2
*DIM_0007
  8
寸法
  6
CONTINUOUS
 10
0.0
 20
0.0
  0
INSERT
  2
*DIM_0008
  8
寸法
  6
CONTINUOUS
 10
0.0
 20
0.0
  0
INSERT
  2
*DIM_0009
  8
寸法
  6
CONTINUOUS
 10
0.0
 20
0.0
  0
INSERT
  2
*DIM_0010
  8
寸法
  6
CONTINUOUS
 10
0.0
 20
0.0
  0
INSERT
  2
*DIM_0011
  8
寸法
  6
CONTINUOUS
 10
0.0
 20
0.0
  0
INSERT
  2
*DIM_0012
  8
寸法
  6
CONTINUOUS
 10
0.0
 20
0.0
  0
INSERT
  2
*DIM_0013
  8
寸法
  6
CONTINUOUS
 10
0.0
 20
0.0
  0
INSERT
  2
*DIM_0014
  8
寸法
  6
CONTINUOUS
 10
0.0
 20
0.0
  0
INSERT
  2
*DIM_0015
  8
寸法
  6
CONTINUOUS
 10
0.0
 20
0.0
  0
INSERT
  2
*DIM_0017
  8
寸法
  6
CONTINUOUS
 10
0.0
 20
0.0
  0
INSERT
  2
*DIM_0018
  8
寸法
  6
CONTINUOUS
 10
0.0
 20
0.0
  0
INSERT
  2
*DIM_0019
  8
寸法
  6
CONTINUOUS
 10
0.0
 20
0.0
  0
INSERT
  2
*DIM_0020
  8
寸法
  6
CONTINUOUS
 10
0.0
 20
0.0
  0
INSERT
  2
*DIM_0021
  8
寸法
  6
CONTINUOUS
 10
0.0
 20
0.0
  0
INSERT
  2
*DIM_0022
  8
寸法
  6
CONTINUOUS
 10
0.0
 20
0.0
  0
LINE
  8
別途部材
  6
CONTINUOUS
 62
    96
 10
148.592525
 20
74.553035
 11
149.592525
 21
74.953035
  0
LINE
  8
別途部材
  6
CONTINUOUS
 62
    96
 10
148.592525
 20
74.553035
 11
148.592525
 21
51.2197
  0
LINE
  8
別途部材
  6
CONTINUOUS
 10
149.592525
 20
74.953035
 11
149.592525
 21
51.2197
  0
LINE
  8
別途部材
  6
CONTINUOUS
 62
    96
 10
148.592525
 20
27.886368
 11
149.592525
 21
27.486368
  0
LINE
  8
別途部材
  6
CONTINUOUS
 62
    96
 10
148.592525
 20
27.886368
 11
148.592525
 21
51.2197
  0
LINE
  8
別途部材
  6
CONTINUOUS
 10
149.592525
 20
27.486368
 11
149.592525
 21
51.2197
  0
ARC
  8
別途部材
  6
CONTINUOUS
 10
162.878239
 20
51.219702
 40
25.952381
 50
123.39849
 51
236.60151
  0
INSERT
  2
*GRP_0004
  8
別途部材
  6
CONTINUOUS
 10
0.0
 20
0.0
  0
LINE
  8
別途部材
  6
DOT
 62
    96
 10
148.429428
 20
77.506372
 11
149.419377
 21
77.082107
  0
LINE
  8
別途部材
  6
DOT
 62
    96
 10
148.429428
 20
77.506372
 11
131.930268
 21
61.007213
  0
LINE
  8
別途部材
  6
DOT
 10
149.419377
 20
77.082107
 11
132.637375
 21
60.300105
  0
LINE
  8
別途部材
  6
DOT
 62
    96
 10
115.43111
 20
44.508052
 11
115.855372
 21
43.518105
  0
LINE
  8
別途部材
  6
DOT
 62
    96
 10
115.43111
 20
44.508052
 11
131.930268
 21
61.007213
  0
LINE
  8
別途部材
  6
DOT
 10
115.855372
 20
43.518105
 11
132.637375
 21
60.300105
  0
ARC
  8
別途部材
  6
DOT
 10
142.031793
 20
50.905687
 40
25.952381
 50
78.39849
 51
191.60151
  0
LINE
  8
別途部材
  6
CONTINUOUS
 10
0.683152
 20
27.486368
 11
0.283152
 21
27.886368
  0
LINE
  8
別途部材
  6
CONTINUOUS
 10
-1.383515
 20
29.553035
 11
-9.44277
 21
37.612292
  0
LINE
  8
別途部材
  6
CONTINUOUS
 10
0.283152
 20
27.886368
 11
0.283152
 21
51.219702
  0
LINE
  8
別途部材
  6
CONTINUOUS
 10
0.683152
 20
27.486368
 11
0.683152
 21
51.219702
  0
LINE
  8
別途部材
  6
CONTINUOUS
 10
0.683152
 20
74.953038
 11
0.283152
 21
74.553038
  0
LINE
  8
別途部材
  6
CONTINUOUS
 10
-1.383515
 20
72.88637
 11
-9.44277
 21
64.827112
  0
LINE
  8
別途部材
  6
CONTINUOUS
 10
0.283152
 20
74.553038
 11
0.283152
 21
51.219702
  0
LINE
  8
別途部材
  6
CONTINUOUS
 10
0.683152
 20
74.953038
 11
0.683152
 21
51.219702
  0
LINE
  8
別途部材
  6
CONTINUOUS
 10
0.683152
 20
74.953038
 11
-43.050183
 21
74.953038
  0
LINE
  8
別途部材
  6
CONTINUOUS
 10
0.283152
 20
74.553038
 11
-43.050183
 21
74.553038
  0
LINE
  8
別途部材
  6
CONTINUOUS
 10
0.283152
 20
27.886368
 11
-43.050183
 21
27.886368
  0
LINE
  8
別途部材
  6
CONTINUOUS
 10
0.683152
 20
27.486368
 11
-43.050183
 21
27.486368
  0
LINE
  8
別途部材
  6
CONTINUOUS
 10
-86.783518
 20
27.486368
 11
-86.383518
 21
27.886368
  0
LINE
  8
別途部材
  6
CONTINUOUS
 10
-84.71685
 20
29.553035
 11
-76.657595
 21
37.612292
  0
LINE
  8
別途部材
  6
CONTINUOUS
 10
-86.383518
 20
27.886368
 11
-86.383518
 21
51.219702
  0
LINE
  8
別途部材
  6
CONTINUOUS
 10
-86.783518
 20
27.486368
 11
-86.783518
 21
51.219702
  0
LINE
  8
別途部材
  6
CONTINUOUS
 10
-86.783518
 20
74.953038
 11
-86.383518
 21
74.553038
  0
LINE
  8
別途部材
  6
CONTINUOUS
 10
-84.71685
 20
72.88637
 11
-76.657595
 21
64.827112
  0
LINE
  8
別途部材
  6
CONTINUOUS
 10
-86.383518
 20
74.553038
 11
-86.383518
 21
51.219702
  0
LINE
  8
別途部材
  6
CONTINUOUS
 10
-86.783518
 20
74.953038
 11
-86.783518
 21
51.219702
  0
LINE
  8
別途部材
  6
CONTINUOUS
 10
-86.783518
 20
74.953038
 11
-43.050183
 21
74.953038
  0
LINE
  8
別途部材
  6
CONTINUOUS
 10
-86.383518
 20
74.553038
 11
-43.050183
 21
74.553038
  0
LINE
  8
別途部材
  6
CONTINUOUS
 10
-86.383518
 20
27.886368
 11
-43.050183
 21
27.886368
  0
LINE
  8
別途部材
  6
CONTINUOUS
 10
-86.783518
 20
27.486368
 11
-43.050183
 21
27.486368
  0
INSERT
  2
*GRP_0016
  8
別途部材
  6
CONTINUOUS
 10
0.0
 20
0.0
  0
INSERT
  2
*GRP_0023
  8
別途部材
  6
DOT
 10
0.0
 20
0.0
  0
INSERT
  2
*GRP_0024
  8
別途部材
  6
DOT
 10
0.0
 20
0.0
  0
INSERT
  2
*GRP_0025
  8
別途部材
  6
DOT
 10
0.0
 20
0.0
  0
INSERT
  2
*GRP_0026
  8
別途部材
  6
DOT
 10
0.0
 20
0.0
  0
INSERT
  2
*GRP_0027
  8
別途部材
  6
DOT
 10
0.0
 20
0.0
  0
INSERT
  2
*GRP_0028
  8
別途部材
  6
DOT
 10
0.0
 20
0.0
  0
ENDSEC
  0
EOF
