  0
SECTION
  2
HEADER
  9
$EXTMIN
 10
-210.0
 20
-148.5
  9
$EXTMAX
 10
210.0
 20
148.5
  9
$PDMODE
 70
    32
  9
$PDSIZE
 40
1.5
  9
$LTSCALE
 40
10.0
  0
ENDSEC
  0
SECTION
  2
TABLES
  0
TABLE
  2
LTYPE
 70
    15
  0
LTYPE
  2
CONTINUOUS
 70
    64
  3
実線
 72
    65
 73
     0
 40
0.0
  0
LTYPE
  2
DASHED
 70
    64
  3
破線A
 72
    65
 73
     2
 40
0.6
 49
0.4
 49
-0.2
  0
LTYPE
  2
DASHEDX2
 70
    64
  3
破線B
 72
    65
 73
     2
 40
1.3
 49
0.9
 49
-0.4
  0
LTYPE
  2
DASHDOT
 70
    64
  3
１点鎖線A
 72
    65
 73
     4
 40
0.5375
 49
0.375
 49
-0.05
 49
0.0625
 49
-0.05
  0
LTYPE
  2
DASHDOTX2
 70
    64
  3
１点鎖線B
 72
    65
 73
     4
 40
1.075
 49
0.75
 49
-0.1
 49
0.125
 49
-0.1
  0
LTYPE
  2
DIVIDE2
 70
    64
  3
２点鎖線A
 72
    65
 73
     6
 40
0.5125
 49
0.3
 49
-0.0375
 49
0.05
 49
-0.0375
 49
0.05
 49
-0.0375
  0
LTYPE
  2
DIVIDE
 70
    64
  3
２点鎖線B
 72
    65
 73
     6
 40
1.05
 49
0.55
 49
-0.1
 49
0.1
 49
-0.1
 49
0.1
 49
-0.1
  0
LTYPE
  2
DOT
 70
    64
  3
点線A
 72
    65
 73
     2
 40
0.1125
 49
0.0625
 49
-0.05
  0
LTYPE
  2
DOTX2
 70
    64
  3
点線B
 72
    65
 73
     2
 40
0.275
 49
0.15
 49
-0.125
  0
LTYPE
  2
CONTINUOUS
 70
    64
  3
実線
 72
    65
 73
     0
 40
0.0
  0
LTYPE
  2
CONTINUOUS
 70
    64
  3
実線
 72
    65
 73
     0
 40
0.0
  0
LTYPE
  2
CONTINUOUS
 70
    64
  3
実線
 72
    65
 73
     0
 40
0.0
  0
LTYPE
  2
CONTINUOUS
 70
    64
  3
実線
 72
    65
 73
     0
 40
0.0
  0
LTYPE
  2
CONTINUOUS
 70
    64
  3
実線
 72
    65
 73
     0
 40
0.0
  0
LTYPE
  2
CONTINUOUS
 70
    64
  3
実線
 72
    65
 73
     0
 40
0.0
  0
ENDTAB
  0
TABLE
  2
LAYER
 70
    34
  0
LAYER
  2
通り芯
 70
     0
 62
    15
  6
CONTINUOUS
  0
LAYER
  2
補助線
 70
     0
 62
    16
  6
DOT
  0
LAYER
  2
躯体
 70
     0
 62
    31
  6
CONTINUOUS
  0
LAYER
  2
型材
 70
     0
 62
    32
  6
CONTINUOUS
  0
LAYER
  2
型材断面
 70
     0
 62
    47
  6
CONTINUOUS
  0
LAYER
  2
ガラス
 70
     0
 62
    48
  6
CONTINUOUS
  0
LAYER
  2
ゴム等
 70
     0
 62
    63
  6
CONTINUOUS
  0
LAYER
  2
ボルト／ビス
 70
     0
 62
    64
  6
CONTINUOUS
  0
LAYER
  2
文字
 70
     0
 62
    79
  6
CONTINUOUS
  0
LAYER
  2
寸法
 70
     0
 62
    80
  6
CONTINUOUS
  0
LAYER
  2
ﾊｯﾁﾝｸﾞ
 70
     0
 62
    95
  6
CONTINUOUS
  0
LAYER
  2
別途部材
 70
     0
 62
    96
  6
CONTINUOUS
  0
LAYER
  2
曲げ物
 70
     0
 62
   111
  6
CONTINUOUS
  0
LAYER
  2
鉄骨等
 70
     0
 62
   112
  6
CONTINUOUS
  0
LAYER
  2
St
 70
     0
 62
   127
  6
CONTINUOUS
  0
LAYER
  2
その他部品等
 70
     0
 62
   128
  6
CONTINUOUS
  0
LAYER
  2
ｶﾞｽｹｯﾄ
 70
     0
 62
   143
  6
CONTINUOUS
  0
LAYER
  2
ｽｹｯﾁ
 70
     0
 62
    14
  6
CONTINUOUS
  0
LAYER
  2
0
 70
     0
 62
    17
  6
CONTINUOUS
  0
LAYER
  2
1
 70
     0
 62
    30
  6
CONTINUOUS
  0
LAYER
  2
4
 70
     0
 62
    33
  6
CONTINUOUS
  0
LAYER
  2
ﾚｲﾔ3
 70
     0
 62
    46
  6
CONTINUOUS
  0
LAYER
  2
外形線
 70
     0
 62
    49
  6
CONTINUOUS
  0
LAYER
  2
部品
 70
     0
 62
    14
  6
CONTINUOUS
  0
LAYER
  2
サッシ芯
 70
     0
 62
    17
  6
DASHDOTX2
  0
LAYER
  2
寸法線
 70
     0
 62
    62
  6
CONTINUOUS
  0
LAYER
  2
姿図外形線
 70
     0
 62
    65
  6
CONTINUOUS
  0
LAYER
  2
姿補助線
 70
     0
 62
    30
  6
CONTINUOUS
  0
LAYER
  2
透視線
 70
     0
 62
    78
  6
DOT
  0
LAYER
  2
用紙
 70
     0
 62
    81
  6
CONTINUOUS
  0
LAYER
  2
実線図枠
 70
     0
 62
    94
  6
CONTINUOUS
  0
LAYER
  2
補助図枠
 70
     0
 62
    97
  6
CONTINUOUS
  0
LAYER
  2
建具記号
 70
     0
 62
   110
  6
CONTINUOUS
  0
LAYER
  2
補助文字
 70
     0
 62
   113
  6
CONTINUOUS
  0
ENDTAB
  0
TABLE
  2
STYLE
 70
    10
  0
STYLE
  2
STANDARD
 70
     0
 40
1.0
 41
1.0
 42
1.0
 50
0.0
 71
     0
  3
TXT
  4
BIGFONT
  0
STYLE
  2
TATE
 70
     4
 40
1.0
 41
1.0
 42
1.0
 50
0.0
 71
     0
  3
TXT
  4
BIGFONT
  0
STYLE
  2
TextStyle03
 70
     0
 40
1.0
 41
1.0
 42
1.0
 50
0.0
 71
     0
  3
MONOTXT
  4
BIGFONT
  0
STYLE
  2
TextStyle04
 70
     0
 40
1.0
 41
1.0
 42
1.0
 50
0.0
 71
     0
  3
MONOTXT
  4
BIGFONT
  0
STYLE
  2
TextStyle05
 70
     0
 40
1.0
 41
1.0
 42
1.0
 50
0.0
 71
     0
  3
MONOTXT
  4
BIGFONT
  0
STYLE
  2
TextStyle06
 70
     0
 40
1.0
 41
1.0
 42
1.0
 50
0.0
 71
     0
  3
MONOTXT
  4
BIGFONT
  0
STYLE
  2
TextStyle07
 70
     0
 40
1.0
 41
1.0
 42
1.0
 50
0.0
 71
     0
  3
MONOTXT
  4
BIGFONT
  0
STYLE
  2
TextStyle08
 70
     0
 40
1.0
 41
1.0
 42
1.0
 50
0.0
 71
     0
  3
MONOTXT
  4
BIGFONT
  0
STYLE
  2
TextStyle09
 70
     0
 40
1.0
 41
1.0
 42
1.0
 50
0.0
 71
     0
  3
MONOTXT
  4
BIGFONT
  0
STYLE
  2
TextStyle10
 70
     0
 40
1.0
 41
1.0
 42
1.0
 50
0.0
 71
     0
  3
MONOTXT
  4
BIGFONT
  0
ENDTAB
  0
ENDSEC
  0
SECTION
  2
BLOCKS
  0
BLOCK
  2
*GRP_0001
 70
    65
 10
0.0
 20
0.0
  0
LINE
  8
型材断面
  6
CONTINUOUS
 10
195.0
 20
133.5
 11
195.0
 21
-133.5
  0
LINE
  8
型材断面
  6
CONTINUOUS
 10
195.0
 20
-133.5
 11
-185.0
 21
-133.5
  0
LINE
  8
型材断面
  6
CONTINUOUS
 10
-185.0
 20
-133.5
 11
-185.0
 21
133.5
  0
LINE
  8
型材断面
  6
CONTINUOUS
 10
195.0
 20
133.5
 11
-185.0
 21
133.5
  0
LINE
  8
型材断面
  6
CONTINUOUS
 10
145.0
 20
-133.5
 11
145.0
 21
-118.5
  0
LINE
  8
型材断面
  6
CONTINUOUS
 10
195.0
 20
-118.5
 11
145.0
 21
-118.5
  0
ENDBLK
  0
BLOCK
  2
*DIM_0002
 70
    65
 10
0.0
 20
0.0
  0
LINE
  8
寸法
  6
CONTINUOUS
 10
2.349845
 20
-60.327663
 11
2.349845
 21
-31.074888
  0
LINE
  8
寸法
  6
CONTINUOUS
 10
-1.383518
 20
-31.074888
 11
2.349845
 21
-31.074888
  0
POINT
  8
寸法
 10
-1.383518
 20
-31.074888
  0
POINT
  8
寸法
 10
2.349845
 20
-31.074888
  0
TEXT
  7
TextStyle03
  8
寸法
  6
CONTINUOUS
 10
-1.9625
 20
-30.7
  1
112
 40
3.0
 72
     5
 11
2.9125
 21
-30.7
  0
ENDBLK
  0
BLOCK
  2
*DIM_0003
 70
    65
 10
0.0
 20
0.0
  0
LINE
  8
寸法
  6
CONTINUOUS
 10
-88.45021
 20
-60.327663
 11
-88.45021
 21
-31.074888
  0
LINE
  8
寸法
  6
CONTINUOUS
 10
-84.71685
 20
-31.074888
 11
-88.45021
 21
-31.074888
  0
POINT
  8
寸法
 10
-84.71685
 20
-31.074888
  0
POINT
  8
寸法
 10
-88.45021
 20
-31.074888
  0
TEXT
  7
TextStyle03
  8
寸法
  6
CONTINUOUS
 10
-89.0375
 20
-30.7
  1
112
 40
3.0
 72
     5
 11
-84.1625
 21
-30.7
  0
ENDBLK
  0
BLOCK
  2
*DIM_0004
 70
    65
 10
0.0
 20
0.0
  0
LINE
  8
寸法
  6
BYBLOCK
 62
     0
 10
-68.05018
 20
33.365232
 11
-68.05018
 21
28.19975
  0
LINE
  8
寸法
  6
BYBLOCK
 62
     0
 10
-18.050185
 20
33.365232
 11
-18.050185
 21
28.19975
  0
LINE
  8
寸法
  6
BYBLOCK
 62
     0
 10
-68.05018
 20
28.19975
 11
-18.050185
 21
28.19975
  0
POINT
  8
寸法
 62
     0
 10
-68.05018
 20
28.19975
  0
POINT
  8
寸法
 62
     0
 10
-18.050185
 20
28.19975
  0
TEXT
  7
TextStyle03
  8
寸法
  6
CONTINUOUS
 62
     0
 10
-46.30625
 20
28.55
  1
1500
 40
3.0
 72
     5
 11
-39.74375
 21
28.55
  0
ENDBLK
  0
BLOCK
  2
*DIM_0005
 70
    65
 10
0.0
 20
0.0
  0
LINE
  8
寸法
  6
BYBLOCK
 62
     0
 10
-3.383515
 20
31.38855
 11
-3.383515
 21
28.363508
  0
LINE
  8
寸法
  6
BYBLOCK
 62
     0
 10
-1.383515
 20
28.363508
 11
-3.383515
 21
28.363508
  0
POINT
  8
寸法
 62
     0
 10
-1.383515
 20
28.363508
  0
POINT
  8
寸法
 62
     0
 10
-3.383515
 20
28.363508
  0
TEXT
  7
TextStyle03
  8
寸法
  6
CONTINUOUS
 62
     0
 10
-5.24375
 20
24.575
  1
60
 40
3.0
 72
     5
 11
-2.05625
 21
24.575
  0
ENDBLK
  0
BLOCK
  2
*DIM_0006
 70
    65
 10
0.0
 20
0.0
  0
LINE
  8
寸法
  6
BYBLOCK
 62
     0
 10
-82.71685
 20
31.38855
 11
-82.71685
 21
28.363508
  0
LINE
  8
寸法
  6
BYBLOCK
 62
     0
 10
-84.71685
 20
28.363508
 11
-82.71685
 21
28.363508
  0
POINT
  8
寸法
 62
     0
 10
-84.71685
 20
28.363508
  0
POINT
  8
寸法
 62
     0
 10
-82.71685
 20
28.363508
  0
TEXT
  7
TextStyle03
  8
寸法
  6
CONTINUOUS
 62
     0
 10
-84.01875
 20
24.575
  1
60
 40
3.0
 72
     5
 11
-80.83125
 21
24.575
  0
ENDBLK
  0
BLOCK
  2
*DIM_0007
 70
    65
 10
0.0
 20
0.0
  0
LINE
  8
寸法
  6
BYBLOCK
 62
     0
 10
-87.716848
 20
53.66203
 11
-101.009685
 21
53.66203
  0
LINE
  8
寸法
  6
BYBLOCK
 62
     0
 10
-87.716848
 20
40.328695
 11
-101.009685
 21
40.328695
  0
LINE
  8
寸法
  6
BYBLOCK
 62
     0
 10
-101.009685
 20
53.66203
 11
-101.009685
 21
40.328695
  0
POINT
  8
寸法
 62
     0
 10
-101.009685
 20
53.66203
  0
POINT
  8
寸法
 62
     0
 10
-101.009685
 20
40.328695
  0
TEXT
  7
TextStyle03
  8
寸法
  6
CONTINUOUS
 62
     0
 10
-101.425
 20
44.5375
  1
400
 40
3.0
 50
90.0
 72
     5
 11
-101.425
 21
49.4125
  0
ENDBLK
  0
BLOCK
  2
*DIM_0008
 70
    65
 10
0.0
 20
0.0
  0
LINE
  8
寸法
  6
BYBLOCK
 62
     0
 10
-78.050183
 20
59.995363
 11
-78.050183
 21
89.742982
  0
LINE
  8
寸法
  6
BYBLOCK
 62
     0
 10
-54.71685
 20
59.995363
 11
-54.71685
 21
89.742982
  0
LINE
  8
寸法
  6
BYBLOCK
 62
     0
 10
-78.050183
 20
89.742982
 11
-54.71685
 21
89.742982
  0
POINT
  8
寸法
 62
     0
 10
-78.050183
 20
89.742982
  0
POINT
  8
寸法
 62
     0
 10
-54.71685
 20
89.742982
  0
TEXT
  7
TextStyle03
  8
寸法
  6
CONTINUOUS
 62
     0
 10
-68.8125
 20
90.1
  1
700
 40
3.0
 72
     5
 11
-63.9375
 21
90.1
  0
ENDBLK
  0
BLOCK
  2
*DIM_0009
 70
    65
 10
0.0
 20
0.0
  0
LINE
  8
寸法
  6
BYBLOCK
 62
     0
 10
-31.383515
 20
59.995363
 11
-31.383515
 21
89.742982
  0
LINE
  8
寸法
  6
BYBLOCK
 62
     0
 10
-54.71685
 20
89.742982
 11
-31.383515
 21
89.742982
  0
POINT
  8
寸法
 62
     0
 10
-31.383515
 20
89.742982
  0
TEXT
  7
TextStyle03
  8
寸法
  6
CONTINUOUS
 62
     0
 10
-45.4875
 20
90.1
  1
700
 40
3.0
 72
     5
 11
-40.6125
 21
90.1
  0
ENDBLK
  0
BLOCK
  2
*DIM_0010
 70
    65
 10
0.0
 20
0.0
  0
LINE
  8
寸法
  6
BYBLOCK
 62
     0
 10
-8.050183
 20
59.995363
 11
-8.050183
 21
89.742982
  0
LINE
  8
寸法
  6
BYBLOCK
 62
     0
 10
-31.383515
 20
89.742982
 11
-8.050183
 21
89.742982
  0
POINT
  8
寸法
 62
     0
 10
-8.050183
 20
89.742982
  0
TEXT
  7
TextStyle03
  8
寸法
  6
CONTINUOUS
 62
     0
 10
-22.1375
 20
90.1
  1
700
 40
3.0
 72
     5
 11
-17.2625
 21
90.1
  0
ENDBLK
  0
BLOCK
  2
*GRP_0011
 70
    65
 10
0.0
 20
0.0
  0
LINE
  8
別途部材
  6
CONTINUOUS
 62
    96
 10
-86.38352
 20
-55.177427
 11
-86.78352
 21
-56.177427
  0
ARC
  8
別途部材
  6
CONTINUOUS
 10
-74.716855
 20
-61.885763
 40
12.041668
 50
90.0
 51
146.144967
  0
LINE
  8
別途部材
  6
CONTINUOUS
 10
-86.78352
 20
-56.177427
 11
-43.050185
 21
-56.177427
  0
LINE
  8
別途部材
  6
CONTINUOUS
 62
    96
 10
-86.38352
 20
-55.177427
 11
-43.050185
 21
-55.177427
  0
LINE
  8
別途部材
  6
CONTINUOUS
 10
-43.550185
 20
-48.844095
 11
-44.550185
 21
-49.844095
  0
LINE
  8
別途部材
  6
CONTINUOUS
 10
-45.550185
 20
-49.844095
 11
-46.550185
 21
-48.844095
  0
LINE
  8
別途部材
  6
CONTINUOUS
 10
-47.550185
 20
-48.844095
 11
-48.550185
 21
-49.844095
  0
LINE
  8
別途部材
  6
CONTINUOUS
 10
-46.550185
 20
-48.844095
 11
-47.550185
 21
-48.844095
  0
LINE
  8
別途部材
  6
CONTINUOUS
 10
-43.550185
 20
-48.844095
 11
-43.050185
 21
-48.844095
  0
LINE
  8
別途部材
  6
CONTINUOUS
 10
-49.550185
 20
-49.844095
 11
-50.550185
 21
-48.844095
  0
LINE
  8
別途部材
  6
CONTINUOUS
 10
-51.550185
 20
-48.844095
 11
-52.550185
 21
-49.844095
  0
LINE
  8
別途部材
  6
CONTINUOUS
 10
-50.550185
 20
-48.844095
 11
-51.550185
 21
-48.844095
  0
LINE
  8
別途部材
  6
CONTINUOUS
 10
-53.550185
 20
-49.844095
 11
-54.550185
 21
-48.844095
  0
LINE
  8
別途部材
  6
CONTINUOUS
 10
-55.550185
 20
-48.844095
 11
-56.550185
 21
-49.844095
  0
LINE
  8
別途部材
  6
CONTINUOUS
 10
-54.550185
 20
-48.844095
 11
-55.550185
 21
-48.844095
  0
LINE
  8
別途部材
  6
CONTINUOUS
 10
-57.550185
 20
-49.844095
 11
-58.550185
 21
-48.844095
  0
LINE
  8
別途部材
  6
CONTINUOUS
 10
-59.550185
 20
-48.844095
 11
-60.550185
 21
-49.844095
  0
LINE
  8
別途部材
  6
CONTINUOUS
 10
-58.550185
 20
-48.844095
 11
-59.550185
 21
-48.844095
  0
LINE
  8
別途部材
  6
CONTINUOUS
 10
-61.550185
 20
-49.844095
 11
-62.550185
 21
-48.844095
  0
LINE
  8
別途部材
  6
CONTINUOUS
 10
-63.550185
 20
-48.844095
 11
-64.550185
 21
-49.844095
  0
LINE
  8
別途部材
  6
CONTINUOUS
 10
-62.550185
 20
-48.844095
 11
-63.550185
 21
-48.844095
  0
LINE
  8
別途部材
  6
CONTINUOUS
 10
-65.550185
 20
-49.844095
 11
-66.550185
 21
-48.844095
  0
LINE
  8
別途部材
  6
CONTINUOUS
 10
-67.550185
 20
-48.844095
 11
-68.550185
 21
-49.844095
  0
LINE
  8
別途部材
  6
CONTINUOUS
 10
-66.550185
 20
-48.844095
 11
-67.550185
 21
-48.844095
  0
LINE
  8
別途部材
  6
CONTINUOUS
 10
-69.550185
 20
-49.844095
 11
-70.550185
 21
-48.844095
  0
LINE
  8
別途部材
  6
CONTINUOUS
 10
-71.550185
 20
-48.844095
 11
-72.550185
 21
-49.844095
  0
LINE
  8
別途部材
  6
CONTINUOUS
 10
-70.550185
 20
-48.844095
 11
-71.550185
 21
-48.844095
  0
LINE
  8
別途部材
  6
CONTINUOUS
 10
-68.550185
 20
-49.844095
 11
-69.550185
 21
-49.844095
  0
LINE
  8
別途部材
  6
CONTINUOUS
 10
-64.550185
 20
-49.844095
 11
-65.550185
 21
-49.844095
  0
LINE
  8
別途部材
  6
CONTINUOUS
 10
-60.550185
 20
-49.844095
 11
-61.550185
 21
-49.844095
  0
LINE
  8
別途部材
  6
CONTINUOUS
 10
-56.550185
 20
-49.844095
 11
-57.550185
 21
-49.844095
  0
LINE
  8
別途部材
  6
CONTINUOUS
 10
-52.550185
 20
-49.844095
 11
-53.550185
 21
-49.844095
  0
LINE
  8
別途部材
  6
CONTINUOUS
 10
-48.550185
 20
-49.844095
 11
-49.550185
 21
-49.844095
  0
LINE
  8
別途部材
  6
CONTINUOUS
 10
-45.550185
 20
-49.844095
 11
-44.550185
 21
-49.844095
  0
LINE
  8
別途部材
  6
CONTINUOUS
 10
-71.550185
 20
-48.844095
 11
-71.550185
 21
-55.177427
  0
LINE
  8
別途部材
  6
CONTINUOUS
 10
-72.550185
 20
-49.844095
 11
-72.550185
 21
-55.177427
  0
LINE
  8
別途部材
  6
CONTINUOUS
 10
-69.550185
 20
-49.844095
 11
-69.550185
 21
-55.177427
  0
LINE
  8
別途部材
  6
CONTINUOUS
 10
-70.550185
 20
-48.844095
 11
-70.550185
 21
-55.177427
  0
LINE
  8
別途部材
  6
CONTINUOUS
 10
-68.550185
 20
-49.844095
 11
-68.550185
 21
-55.177427
  0
LINE
  8
別途部材
  6
CONTINUOUS
 10
-67.550185
 20
-48.844095
 11
-67.550185
 21
-55.177427
  0
LINE
  8
別途部材
  6
CONTINUOUS
 10
-63.550185
 20
-48.844095
 11
-63.550185
 21
-55.177427
  0
LINE
  8
別途部材
  6
CONTINUOUS
 10
-62.550185
 20
-48.844095
 11
-62.550185
 21
-55.177427
  0
LINE
  8
別途部材
  6
CONTINUOUS
 10
-64.550185
 20
-49.844095
 11
-64.550185
 21
-55.177427
  0
LINE
  8
別途部材
  6
CONTINUOUS
 10
-65.550185
 20
-49.844095
 11
-65.550185
 21
-55.177427
  0
LINE
  8
別途部材
  6
CONTINUOUS
 10
-66.550185
 20
-48.844095
 11
-66.550185
 21
-55.177427
  0
LINE
  8
別途部材
  6
CONTINUOUS
 10
-61.550185
 20
-49.844095
 11
-61.550185
 21
-55.177427
  0
LINE
  8
別途部材
  6
CONTINUOUS
 10
-59.550185
 20
-48.844095
 11
-59.550185
 21
-55.177427
  0
LINE
  8
別途部材
  6
CONTINUOUS
 10
-58.550185
 20
-48.844095
 11
-58.550185
 21
-55.177427
  0
LINE
  8
別途部材
  6
CONTINUOUS
 10
-57.550185
 20
-49.844095
 11
-57.550185
 21
-55.177427
  0
LINE
  8
別途部材
  6
CONTINUOUS
 10
-56.550185
 20
-49.844095
 11
-56.550185
 21
-55.177427
  0
LINE
  8
別途部材
  6
CONTINUOUS
 10
-55.550185
 20
-48.844095
 11
-55.550185
 21
-55.177427
  0
LINE
  8
別途部材
  6
CONTINUOUS
 10
-60.550185
 20
-49.844095
 11
-60.550185
 21
-55.177427
  0
LINE
  8
別途部材
  6
CONTINUOUS
 10
-54.550185
 20
-48.844095
 11
-54.550185
 21
-55.177427
  0
LINE
  8
別途部材
  6
CONTINUOUS
 10
-53.550185
 20
-49.844095
 11
-53.550185
 21
-55.177427
  0
LINE
  8
別途部材
  6
CONTINUOUS
 10
-52.550185
 20
-49.844095
 11
-52.550185
 21
-55.177427
  0
LINE
  8
別途部材
  6
CONTINUOUS
 10
-50.550185
 20
-48.844095
 11
-50.550185
 21
-55.177427
  0
LINE
  8
別途部材
  6
CONTINUOUS
 10
-48.550185
 20
-49.844095
 11
-48.550185
 21
-55.177427
  0
LINE
  8
別途部材
  6
CONTINUOUS
 10
-47.550185
 20
-48.844095
 11
-47.550185
 21
-55.177427
  0
LINE
  8
別途部材
  6
CONTINUOUS
 10
-45.550185
 20
-49.844095
 11
-45.550185
 21
-55.177427
  0
LINE
  8
別途部材
  6
CONTINUOUS
 10
-44.550185
 20
-49.844095
 11
-44.550185
 21
-55.177427
  0
LINE
  8
別途部材
  6
CONTINUOUS
 10
-43.550185
 20
-48.844095
 11
-43.550185
 21
-55.177427
  0
LINE
  8
別途部材
  6
CONTINUOUS
 10
-46.550185
 20
-48.844095
 11
-46.550185
 21
-55.177427
  0
LINE
  8
別途部材
  6
CONTINUOUS
 10
-49.550185
 20
-49.844095
 11
-49.550185
 21
-55.177427
  0
LINE
  8
別途部材
  6
CONTINUOUS
 10
-51.550185
 20
-48.844095
 11
-51.550185
 21
-55.177427
  0
LINE
  8
別途部材
  6
CONTINUOUS
 10
-72.550185
 20
-49.844095
 11
-74.716853
 21
-49.844095
  0
LINE
  8
別途部材
  6
CONTINUOUS
 62
    96
 10
0.283148
 20
-55.177427
 11
0.683148
 21
-56.177427
  0
ARC
  8
別途部材
  6
CONTINUOUS
 10
-11.383516
 20
-61.885763
 40
12.041668
 50
33.855033
 51
90.0
  0
LINE
  8
別途部材
  6
CONTINUOUS
 10
0.683148
 20
-56.177427
 11
-43.050185
 21
-56.177427
  0
LINE
  8
別途部材
  6
CONTINUOUS
 62
    96
 10
0.283148
 20
-55.177427
 11
-43.050185
 21
-55.177427
  0
LINE
  8
別途部材
  6
CONTINUOUS
 10
-42.550185
 20
-48.844095
 11
-41.550185
 21
-49.844095
  0
LINE
  8
別途部材
  6
CONTINUOUS
 10
-40.550185
 20
-49.844095
 11
-39.550185
 21
-48.844095
  0
LINE
  8
別途部材
  6
CONTINUOUS
 10
-38.550185
 20
-48.844095
 11
-37.550185
 21
-49.844095
  0
LINE
  8
別途部材
  6
CONTINUOUS
 10
-39.550185
 20
-48.844095
 11
-38.550185
 21
-48.844095
  0
LINE
  8
別途部材
  6
CONTINUOUS
 10
-42.550185
 20
-48.844095
 11
-43.050185
 21
-48.844095
  0
LINE
  8
別途部材
  6
CONTINUOUS
 10
-36.550185
 20
-49.844095
 11
-35.550185
 21
-48.844095
  0
LINE
  8
別途部材
  6
CONTINUOUS
 10
-34.550185
 20
-48.844095
 11
-33.550185
 21
-49.844095
  0
LINE
  8
別途部材
  6
CONTINUOUS
 10
-35.550185
 20
-48.844095
 11
-34.550185
 21
-48.844095
  0
LINE
  8
別途部材
  6
CONTINUOUS
 10
-32.550185
 20
-49.844095
 11
-31.550185
 21
-48.844095
  0
LINE
  8
別途部材
  6
CONTINUOUS
 10
-30.550185
 20
-48.844095
 11
-29.550185
 21
-49.844095
  0
LINE
  8
別途部材
  6
CONTINUOUS
 10
-31.550185
 20
-48.844095
 11
-30.550185
 21
-48.844095
  0
LINE
  8
別途部材
  6
CONTINUOUS
 10
-28.550185
 20
-49.844095
 11
-27.550185
 21
-48.844095
  0
LINE
  8
別途部材
  6
CONTINUOUS
 10
-26.550185
 20
-48.844095
 11
-25.550185
 21
-49.844095
  0
LINE
  8
別途部材
  6
CONTINUOUS
 10
-27.550185
 20
-48.844095
 11
-26.550185
 21
-48.844095
  0
LINE
  8
別途部材
  6
CONTINUOUS
 10
-24.550185
 20
-49.844095
 11
-23.550185
 21
-48.844095
  0
LINE
  8
別途部材
  6
CONTINUOUS
 10
-22.550185
 20
-48.844095
 11
-21.550185
 21
-49.844095
  0
LINE
  8
別途部材
  6
CONTINUOUS
 10
-23.550185
 20
-48.844095
 11
-22.550185
 21
-48.844095
  0
LINE
  8
別途部材
  6
CONTINUOUS
 10
-20.550185
 20
-49.844095
 11
-19.550185
 21
-48.844095
  0
LINE
  8
別途部材
  6
CONTINUOUS
 10
-18.550185
 20
-48.844095
 11
-17.550185
 21
-49.844095
  0
LINE
  8
別途部材
  6
CONTINUOUS
 10
-19.550185
 20
-48.844095
 11
-18.550185
 21
-48.844095
  0
LINE
  8
別途部材
  6
CONTINUOUS
 10
-16.550185
 20
-49.844095
 11
-15.550185
 21
-48.844095
  0
LINE
  8
別途部材
  6
CONTINUOUS
 10
-14.550185
 20
-48.844095
 11
-13.550185
 21
-49.844095
  0
LINE
  8
別途部材
  6
CONTINUOUS
 10
-15.550185
 20
-48.844095
 11
-14.550185
 21
-48.844095
  0
LINE
  8
別途部材
  6
CONTINUOUS
 10
-17.550185
 20
-49.844095
 11
-16.550185
 21
-49.844095
  0
LINE
  8
別途部材
  6
CONTINUOUS
 10
-21.550185
 20
-49.844095
 11
-20.550185
 21
-49.844095
  0
LINE
  8
別途部材
  6
CONTINUOUS
 10
-25.550185
 20
-49.844095
 11
-24.550185
 21
-49.844095
  0
LINE
  8
別途部材
  6
CONTINUOUS
 10
-29.550185
 20
-49.844095
 11
-28.550185
 21
-49.844095
  0
LINE
  8
別途部材
  6
CONTINUOUS
 10
-33.550185
 20
-49.844095
 11
-32.550185
 21
-49.844095
  0
LINE
  8
別途部材
  6
CONTINUOUS
 10
-37.550185
 20
-49.844095
 11
-36.550185
 21
-49.844095
  0
LINE
  8
別途部材
  6
CONTINUOUS
 10
-40.550185
 20
-49.844095
 11
-41.550185
 21
-49.844095
  0
LINE
  8
別途部材
  6
CONTINUOUS
 10
-14.550185
 20
-48.844095
 11
-14.550185
 21
-55.177427
  0
LINE
  8
別途部材
  6
CONTINUOUS
 10
-13.550185
 20
-49.844095
 11
-13.550185
 21
-55.177427
  0
LINE
  8
別途部材
  6
CONTINUOUS
 10
-16.550185
 20
-49.844095
 11
-16.550185
 21
-55.177427
  0
LINE
  8
別途部材
  6
CONTINUOUS
 10
-15.550185
 20
-48.844095
 11
-15.550185
 21
-55.177427
  0
LINE
  8
別途部材
  6
CONTINUOUS
 10
-17.550185
 20
-49.844095
 11
-17.550185
 21
-55.177427
  0
LINE
  8
別途部材
  6
CONTINUOUS
 10
-18.550185
 20
-48.844095
 11
-18.550185
 21
-55.177427
  0
LINE
  8
別途部材
  6
CONTINUOUS
 10
-22.550185
 20
-48.844095
 11
-22.550185
 21
-55.177427
  0
LINE
  8
別途部材
  6
CONTINUOUS
 10
-23.550185
 20
-48.844095
 11
-23.550185
 21
-55.177427
  0
LINE
  8
別途部材
  6
CONTINUOUS
 10
-21.550185
 20
-49.844095
 11
-21.550185
 21
-55.177427
  0
LINE
  8
別途部材
  6
CONTINUOUS
 10
-20.550185
 20
-49.844095
 11
-20.550185
 21
-55.177427
  0
LINE
  8
別途部材
  6
CONTINUOUS
 10
-19.550185
 20
-48.844095
 11
-19.550185
 21
-55.177427
  0
LINE
  8
別途部材
  6
CONTINUOUS
 10
-24.550185
 20
-49.844095
 11
-24.550185
 21
-55.177427
  0
LINE
  8
別途部材
  6
CONTINUOUS
 10
-26.550185
 20
-48.844095
 11
-26.550185
 21
-55.177427
  0
LINE
  8
別途部材
  6
CONTINUOUS
 10
-27.550185
 20
-48.844095
 11
-27.550185
 21
-55.177427
  0
LINE
  8
別途部材
  6
CONTINUOUS
 10
-28.550185
 20
-49.844095
 11
-28.550185
 21
-55.177427
  0
LINE
  8
別途部材
  6
CONTINUOUS
 10
-29.550185
 20
-49.844095
 11
-29.550185
 21
-55.177427
  0
LINE
  8
別途部材
  6
CONTINUOUS
 10
-30.550185
 20
-48.844095
 11
-30.550185
 21
-55.177427
  0
LINE
  8
別途部材
  6
CONTINUOUS
 10
-25.550185
 20
-49.844095
 11
-25.550185
 21
-55.177427
  0
LINE
  8
別途部材
  6
CONTINUOUS
 10
-31.550185
 20
-48.844095
 11
-31.550185
 21
-55.177427
  0
LINE
  8
別途部材
  6
CONTINUOUS
 10
-32.550185
 20
-49.844095
 11
-32.550185
 21
-55.177427
  0
LINE
  8
別途部材
  6
CONTINUOUS
 10
-33.550185
 20
-49.844095
 11
-33.550185
 21
-55.177427
  0
LINE
  8
別途部材
  6
CONTINUOUS
 10
-35.550185
 20
-48.844095
 11
-35.550185
 21
-55.177427
  0
LINE
  8
別途部材
  6
CONTINUOUS
 10
-37.550185
 20
-49.844095
 11
-37.550185
 21
-55.177427
  0
LINE
  8
別途部材
  6
CONTINUOUS
 10
-38.550185
 20
-48.844095
 11
-38.550185
 21
-55.177427
  0
LINE
  8
別途部材
  6
CONTINUOUS
 10
-40.550185
 20
-49.844095
 11
-40.550185
 21
-55.177427
  0
LINE
  8
別途部材
  6
CONTINUOUS
 10
-41.550185
 20
-49.844095
 11
-41.550185
 21
-55.177427
  0
LINE
  8
別途部材
  6
CONTINUOUS
 10
-42.550185
 20
-48.844095
 11
-42.550185
 21
-55.177427
  0
LINE
  8
別途部材
  6
CONTINUOUS
 10
-39.550185
 20
-48.844095
 11
-39.550185
 21
-55.177427
  0
LINE
  8
別途部材
  6
CONTINUOUS
 10
-36.550185
 20
-49.844095
 11
-36.550185
 21
-55.177427
  0
LINE
  8
別途部材
  6
CONTINUOUS
 10
-34.550185
 20
-48.844095
 11
-34.550185
 21
-55.177427
  0
LINE
  8
別途部材
  6
CONTINUOUS
 10
-13.550185
 20
-49.844095
 11
-11.38352
 21
-49.844095
  0
ENDBLK
  0
BLOCK
  2
*DIM_0012
 70
    65
 10
0.0
 20
0.0
  0
LINE
  8
寸法
  6
CONTINUOUS
 10
7.349845
 20
-61.677663
 11
18.588463
 21
-61.677663
  0
LINE
  8
寸法
  6
CONTINUOUS
 10
5.283148
 20
-55.177427
 11
18.588463
 21
-55.177427
  0
LINE
  8
寸法
  6
CONTINUOUS
 10
18.588463
 20
-61.677663
 11
18.588463
 21
-55.177427
  0
POINT
  8
寸法
 10
18.588463
 20
-61.677663
  0
POINT
  8
寸法
 10
18.588463
 20
-55.177427
  0
TEXT
  7
TextStyle03
  8
寸法
  6
CONTINUOUS
 10
18.2
 20
-60.8875
  1
195
 40
3.0
 50
90.0
 72
     5
 11
18.2
 21
-56.0125
  0
ENDBLK
  0
BLOCK
  2
*DIM_0013
 70
    65
 10
0.0
 20
0.0
  0
LINE
  8
寸法
  6
CONTINUOUS
 10
-6.529415
 20
-49.844095
 11
18.588463
 21
-49.844095
  0
LINE
  8
寸法
  6
CONTINUOUS
 10
18.588463
 20
-55.177427
 11
18.588463
 21
-49.844095
  0
POINT
  8
寸法
 10
18.588463
 20
-49.844095
  0
TEXT
  7
TextStyle03
  8
寸法
  6
CONTINUOUS
 10
18.2
 20
-54.9625
  1
160
 40
3.0
 50
90.0
 72
     5
 11
18.2
 21
-50.0875
  0
ENDBLK
  0
BLOCK
  2
*DIM_0014
 70
    65
 10
0.0
 20
0.0
  0
LINE
  8
寸法
  6
CONTINUOUS
 10
-84.71685
 20
-31.074888
 11
-1.383518
 21
-31.074888
  0
POINT
  8
寸法
 10
-84.71685
 20
-31.074888
  0
POINT
  8
寸法
 10
-1.383518
 20
-31.074888
  0
TEXT
  7
TextStyle03
  8
寸法
  6
CONTINUOUS
 10
-54.79375
 20
-30.7
  1
呼称寸法　2500
 40
3.0
 72
     5
 11
-31.35625
 21
-30.7
  0
ENDBLK
  0
BLOCK
  2
*DIM_0015
 70
    65
 10
0.0
 20
0.0
  0
LINE
  8
寸法
  6
CONTINUOUS
 10
99.359618
 20
41.99536
 11
99.359618
 21
20.518102
  0
LINE
  8
寸法
  6
CONTINUOUS
 10
104.692952
 20
20.518102
 11
99.359618
 21
20.518102
  0
POINT
  8
寸法
 10
99.359618
 20
20.518102
  0
TEXT
  7
TextStyle03
  8
寸法
  6
CONTINUOUS
 10
99.5125
 20
20.875
  1
160
 40
3.0
 72
     5
 11
104.3875
 21
20.875
  0
ENDBLK
  0
BLOCK
  2
*DIM_0016
 70
    65
 10
0.0
 20
0.0
  0
LINE
  8
寸法
  6
CONTINUOUS
 10
111.193188
 20
28.262
 11
111.193188
 21
20.518102
  0
LINE
  8
寸法
  6
CONTINUOUS
 10
104.692952
 20
30.328695
 11
104.692952
 21
20.518102
  0
LINE
  8
寸法
  6
CONTINUOUS
 10
111.193188
 20
20.518102
 11
104.692952
 21
20.518102
  0
POINT
  8
寸法
 10
111.193188
 20
20.518102
  0
POINT
  8
寸法
 10
104.692952
 20
20.518102
  0
TEXT
  7
TextStyle03
  8
寸法
  6
CONTINUOUS
 10
105.4375
 20
20.875
  1
195
 40
3.0
 72
     5
 11
110.3125
 21
20.875
  0
ENDBLK
  0
BLOCK
  2
*DIM_0017
 70
    65
 10
0.0
 20
0.0
  0
LINE
  8
寸法
  6
CONTINUOUS
 10
74.523378
 20
36.995363
 11
74.523378
 21
56.995363
  0
POINT
  8
寸法
 10
74.523378
 20
36.995363
  0
POINT
  8
寸法
 10
74.523378
 20
56.995363
  0
TEXT
  7
TextStyle03
  8
寸法
  6
CONTINUOUS
 10
74.1
 20
36.1
  1
呼称寸法　600
 40
3.0
 50
90.0
 72
     5
 11
74.1
 21
57.85
  0
ENDBLK
  0
BLOCK
  2
*DIM_0018
 70
    65
 10
0.0
 20
0.0
  0
LINE
  8
寸法
  6
CONTINUOUS
 10
99.69295
 20
56.995363
 11
74.523378
 21
56.995363
  0
LINE
  8
寸法
  6
CONTINUOUS
 10
105.693188
 20
60.728723
 11
74.523378
 21
60.728723
  0
LINE
  8
寸法
  6
CONTINUOUS
 10
74.523378
 20
56.995363
 11
74.523378
 21
60.728723
  0
POINT
  8
寸法
 10
74.523378
 20
56.995363
  0
POINT
  8
寸法
 10
74.523378
 20
60.728723
  0
TEXT
  7
TextStyle03
  8
寸法
  6
CONTINUOUS
 10
74.1
 20
61.4625
  1
112
 40
3.0
 50
90.0
 72
     5
 11
74.1
 21
66.3375
  0
ENDBLK
  0
BLOCK
  2
*DIM_0019
 70
    65
 10
0.0
 20
0.0
  0
LINE
  8
寸法
  6
CONTINUOUS
 10
105.693188
 20
33.262
 11
74.523378
 21
33.262
  0
LINE
  8
寸法
  6
CONTINUOUS
 10
74.523378
 20
36.995363
 11
74.523378
 21
33.262
  0
POINT
  8
寸法
 10
74.523378
 20
36.995363
  0
POINT
  8
寸法
 10
74.523378
 20
33.262
  0
TEXT
  7
TextStyle03
  8
寸法
  6
CONTINUOUS
 10
74.1
 20
27.6375
  1
112
 40
3.0
 50
90.0
 72
     5
 11
74.1
 21
32.5125
  0
ENDBLK
  0
BLOCK
  2
*GRP_0020
 70
    65
 10
0.0
 20
0.0
  0
LINE
  8
別途部材
  6
CONTINUOUS
 62
    96
 10
109.976395
 20
58.628905
 11
109.976395
 21
58.528905
  0
LINE
  8
別途部材
  6
CONTINUOUS
 62
    96
 10
107.875315
 20
58.728905
 11
107.944988
 21
60.05971
  0
LINE
  8
別途部材
  6
CONTINUOUS
 62
    96
 10
108.493063
 20
60.068905
 11
108.376395
 21
60.335572
  0
LINE
  8
別途部材
  6
CONTINUOUS
 62
    96
 10
108.393063
 20
60.04799
 11
108.325542
 21
60.202323
  0
LINE
  8
別途部材
  6
CONTINUOUS
 62
    96
 10
107.846218
 20
60.085828
 11
107.976668
 21
60.34603
  0
LINE
  8
別途部材
  6
CONTINUOUS
 62
    96
 10
107.944988
 20
60.05971
 11
108.077147
 21
60.323322
  0
LINE
  8
別途部材
  6
CONTINUOUS
 62
    96
 10
108.11275
 20
60.25844
 11
108.049102
 21
60.18131
  0
LINE
  8
別途部材
  6
DASHDOTX2
 62
    96
 10
108.176395
 20
60.335572
 11
107.86291
 21
60.335572
  0
LINE
  8
別途部材
  6
DASHDOTX2
 62
    96
 10
108.176395
 20
60.335572
 11
108.506855
 21
60.335572
  0
LINE
  8
別途部材
  6
DASHDOTX2
 62
    96
 10
108.176395
 20
60.335572
 11
108.176395
 21
60.0721
  0
LINE
  8
別途部材
  6
DASHDOTX2
 62
    96
 10
108.176395
 20
60.335572
 11
108.176395
 21
60.613883
  0
LINE
  8
別途部材
  6
CONTINUOUS
 62
    96
 10
108.393063
 20
58.528905
 11
108.393063
 21
60.04799
  0
LINE
  8
別途部材
  6
CONTINUOUS
 62
    96
 10
108.493063
 20
58.628905
 11
108.493063
 21
60.068905
  0
LINE
  8
別途部材
  6
CONTINUOUS
 62
    96
 10
106.641983
 20
58.828908
 11
107.780413
 21
58.828908
  0
LINE
  8
別途部材
  6
CONTINUOUS
 62
    96
 10
106.641983
 20
58.728905
 11
106.641983
 21
58.828908
  0
LINE
  8
別途部材
  6
CONTINUOUS
 62
    96
 10
106.641983
 20
58.728905
 11
107.875315
 21
58.728905
  0
CIRCLE
  8
別途部材
  6
CONTINUOUS
 62
    96
 10
108.176395
 20
60.335572
 40
0.1
  0
ARC
  8
別途部材
  6
CONTINUOUS
 62
    96
 10
108.176391
 20
60.335575
 40
0.2
 50
218.780606
 51
537.001556
  0
LINE
  8
別途部材
  6
CONTINUOUS
 62
    96
 10
108.393063
 20
58.528905
 11
109.976395
 21
58.528905
  0
LINE
  8
別途部材
  6
CONTINUOUS
 62
    96
 10
108.493063
 20
58.628905
 11
109.976395
 21
58.628905
  0
LINE
  8
別途部材
  6
CONTINUOUS
 62
    96
 10
107.846218
 20
60.085828
 11
107.780413
 21
58.828908
  0
ENDBLK
  0
BLOCK
  2
*DIM_0021
 70
    65
 10
0.0
 20
0.0
  0
LINE
  8
寸法
  6
CONTINUOUS
 10
85.221383
 20
-38.612367
 11
85.221383
 21
-29.54477
  0
LINE
  8
寸法
  6
CONTINUOUS
 10
126.731382
 20
-38.612367
 11
126.731382
 21
-29.54477
  0
LINE
  8
寸法
  6
CONTINUOUS
 10
85.221383
 20
-29.54477
 11
126.731382
 21
-29.54477
  0
POINT
  8
寸法
 10
85.221383
 20
-29.54477
  0
POINT
  8
寸法
 10
126.731382
 20
-29.54477
  0
TEXT
  7
TextStyle03
  8
寸法
  6
CONTINUOUS
 10
101.00625
 20
-29.175
  1
1245.3
 40
3.0
 72
     5
 11
110.94375
 21
-29.175
  0
ENDBLK
  0
BLOCK
  2
*DIM_0022
 70
    65
 10
0.0
 20
0.0
  0
LINE
  8
寸法
  6
CONTINUOUS
 10
131.731382
 20
-43.612367
 11
139.653073
 21
-43.612367
  0
LINE
  8
寸法
  6
CONTINUOUS
 10
131.731382
 20
-64.1457
 11
139.653073
 21
-64.1457
  0
LINE
  8
寸法
  6
CONTINUOUS
 10
139.653073
 20
-43.612367
 11
139.653073
 21
-64.1457
  0
POINT
  8
寸法
 10
139.653073
 20
-43.612367
  0
POINT
  8
寸法
 10
139.653073
 20
-64.1457
  0
TEXT
  7
TextStyle03
  8
寸法
  6
CONTINUOUS
 10
139.275
 20
-56.3375
  1
616
 40
3.0
 50
90.0
 72
     5
 11
139.275
 21
-51.4625
  0
ENDBLK
  0
BLOCK
  2
*GRP_0023
 70
    65
 10
0.0
 20
0.0
  0
LINE
  8
ボルト／ビス
  6
CONTINUOUS
 10
-85.383522
 20
-55.177427
 11
-85.383522
 21
-54.71076
  0
LINE
  8
ボルト／ビス
  6
CONTINUOUS
 10
-85.016855
 20
-55.177427
 11
-85.016855
 21
-55.11076
  0
LINE
  8
ボルト／ビス
  6
CONTINUOUS
 10
-85.016855
 20
-55.11076
 11
-85.75019
 21
-55.11076
  0
LINE
  8
ボルト／ビス
  6
CONTINUOUS
 10
-85.75019
 20
-55.11076
 11
-85.75019
 21
-55.177427
  0
LINE
  8
ボルト／ビス
  6
CONTINUOUS
 10
-85.016855
 20
-55.177427
 11
-85.75019
 21
-55.177427
  0
LINE
  8
ボルト／ビス
  6
CONTINUOUS
 10
-85.083522
 20
-55.077427
 11
-85.083522
 21
-55.11076
  0
LINE
  8
ボルト／ビス
  6
CONTINUOUS
 10
-85.083522
 20
-55.077427
 11
-85.683522
 21
-55.077427
  0
LINE
  8
ボルト／ビス
  6
CONTINUOUS
 10
-85.683522
 20
-55.077427
 11
-85.683522
 21
-55.11076
  0
LINE
  8
ボルト／ビス
  6
CONTINUOUS
 62
    64
 10
-85.223147
 20
-54.877427
 11
-85.191072
 21
-54.889102
  0
ARC
  8
ボルト／ビス
  6
CONTINUOUS
 62
    64
 10
-85.239185
 20
-54.982407
 40
0.104978
 50
90.0
 51
117.278033
  0
ARC
  8
ボルト／ビス
  6
CONTINUOUS
 62
    64
 10
-85.383523
 20
-55.27983
 40
0.402402
 50
76.165015
 51
103.834998
  0
LINE
  8
ボルト／ビス
  6
CONTINUOUS
 62
    64
 10
-85.543898
 20
-54.877427
 11
-85.575972
 21
-54.889102
  0
ARC
  8
ボルト／ビス
  6
CONTINUOUS
 62
    64
 10
-85.52786
 20
-54.982407
 40
0.104978
 50
62.721967
 51
90.0
  0
LINE
  8
ボルト／ビス
  6
CONTINUOUS
 62
    64
 10
-85.223147
 20
-54.877427
 11
-85.543898
 21
-54.877427
  0
LINE
  8
ボルト／ビス
  6
CONTINUOUS
 62
    64
 10
-85.575972
 20
-54.889102
 11
-85.575972
 21
-55.01076
  0
LINE
  8
ボルト／ビス
  6
CONTINUOUS
 62
    64
 10
-85.479748
 20
-54.889102
 11
-85.479748
 21
-55.01076
  0
LINE
  8
ボルト／ビス
  6
CONTINUOUS
 62
    64
 10
-85.191072
 20
-54.889102
 11
-85.191072
 21
-55.01076
  0
LINE
  8
ボルト／ビス
  6
CONTINUOUS
 62
    64
 10
-85.287298
 20
-54.889102
 11
-85.287298
 21
-55.01076
  0
LINE
  8
ボルト／ビス
  6
CONTINUOUS
 10
-85.191072
 20
-55.01076
 11
-85.575972
 21
-55.01076
  0
LINE
  8
ボルト／ビス
  6
CONTINUOUS
 10
-85.183522
 20
-55.01076
 11
-85.183522
 21
-55.077427
  0
LINE
  8
ボルト／ビス
  6
CONTINUOUS
 10
-85.183522
 20
-55.01076
 11
-85.583522
 21
-55.01076
  0
LINE
  8
ボルト／ビス
  6
CONTINUOUS
 10
-85.583522
 20
-55.01076
 11
-85.583522
 21
-55.077427
  0
ENDBLK
  0
BLOCK
  2
*GRP_0024
 70
    65
 10
0.0
 20
0.0
  0
LINE
  8
ボルト／ビス
  6
CONTINUOUS
 10
-0.716853
 20
-55.177427
 11
-0.716853
 21
-54.71076
  0
LINE
  8
ボルト／ビス
  6
CONTINUOUS
 10
-0.350185
 20
-55.177427
 11
-0.350185
 21
-55.11076
  0
LINE
  8
ボルト／ビス
  6
CONTINUOUS
 10
-0.350185
 20
-55.11076
 11
-1.08352
 21
-55.11076
  0
LINE
  8
ボルト／ビス
  6
CONTINUOUS
 10
-1.08352
 20
-55.11076
 11
-1.08352
 21
-55.177427
  0
LINE
  8
ボルト／ビス
  6
CONTINUOUS
 10
-0.350185
 20
-55.177427
 11
-1.08352
 21
-55.177427
  0
LINE
  8
ボルト／ビス
  6
CONTINUOUS
 10
-0.416853
 20
-55.077427
 11
-0.416853
 21
-55.11076
  0
LINE
  8
ボルト／ビス
  6
CONTINUOUS
 10
-0.416853
 20
-55.077427
 11
-1.016853
 21
-55.077427
  0
LINE
  8
ボルト／ビス
  6
CONTINUOUS
 10
-1.016853
 20
-55.077427
 11
-1.016853
 21
-55.11076
  0
LINE
  8
ボルト／ビス
  6
CONTINUOUS
 62
    64
 10
-0.556477
 20
-54.877427
 11
-0.524402
 21
-54.889102
  0
ARC
  8
ボルト／ビス
  6
CONTINUOUS
 62
    64
 10
-0.572515
 20
-54.982407
 40
0.104978
 50
90.0
 51
117.278033
  0
ARC
  8
ボルト／ビス
  6
CONTINUOUS
 62
    64
 10
-0.716853
 20
-55.27983
 40
0.402402
 50
76.165015
 51
103.834998
  0
LINE
  8
ボルト／ビス
  6
CONTINUOUS
 62
    64
 10
-0.877228
 20
-54.877427
 11
-0.909303
 21
-54.889102
  0
ARC
  8
ボルト／ビス
  6
CONTINUOUS
 62
    64
 10
-0.86119
 20
-54.982407
 40
0.104978
 50
62.721967
 51
90.0
  0
LINE
  8
ボルト／ビス
  6
CONTINUOUS
 62
    64
 10
-0.556477
 20
-54.877427
 11
-0.877228
 21
-54.877427
  0
LINE
  8
ボルト／ビス
  6
CONTINUOUS
 62
    64
 10
-0.909303
 20
-54.889102
 11
-0.909303
 21
-55.01076
  0
LINE
  8
ボルト／ビス
  6
CONTINUOUS
 62
    64
 10
-0.813077
 20
-54.889102
 11
-0.813077
 21
-55.01076
  0
LINE
  8
ボルト／ビス
  6
CONTINUOUS
 62
    64
 10
-0.524402
 20
-54.889102
 11
-0.524402
 21
-55.01076
  0
LINE
  8
ボルト／ビス
  6
CONTINUOUS
 62
    64
 10
-0.620627
 20
-54.889102
 11
-0.620627
 21
-55.01076
  0
LINE
  8
ボルト／ビス
  6
CONTINUOUS
 10
-0.524402
 20
-55.01076
 11
-0.909303
 21
-55.01076
  0
LINE
  8
ボルト／ビス
  6
CONTINUOUS
 10
-0.516853
 20
-55.01076
 11
-0.516853
 21
-55.077427
  0
LINE
  8
ボルト／ビス
  6
CONTINUOUS
 10
-0.516853
 20
-55.01076
 11
-0.916853
 21
-55.01076
  0
LINE
  8
ボルト／ビス
  6
CONTINUOUS
 10
-0.916853
 20
-55.01076
 11
-0.916853
 21
-55.077427
  0
ENDBLK
  0
BLOCK
  2
*GRP_0025
 70
    65
 10
0.0
 20
0.0
  0
LINE
  8
ボルト／ビス
  6
CONTINUOUS
 10
104.692952
 20
36.328695
 11
104.226285
 21
36.328695
  0
LINE
  8
ボルト／ビス
  6
CONTINUOUS
 10
104.692952
 20
36.695363
 11
104.626285
 21
36.695363
  0
LINE
  8
ボルト／ビス
  6
CONTINUOUS
 10
104.626285
 20
36.695363
 11
104.626285
 21
35.962027
  0
LINE
  8
ボルト／ビス
  6
CONTINUOUS
 10
104.626285
 20
35.962027
 11
104.692952
 21
35.962027
  0
LINE
  8
ボルト／ビス
  6
CONTINUOUS
 10
104.692952
 20
36.695363
 11
104.692952
 21
35.962027
  0
LINE
  8
ボルト／ビス
  6
CONTINUOUS
 10
104.592952
 20
36.628695
 11
104.626285
 21
36.628695
  0
LINE
  8
ボルト／ビス
  6
CONTINUOUS
 10
104.592952
 20
36.628695
 11
104.592952
 21
36.028695
  0
LINE
  8
ボルト／ビス
  6
CONTINUOUS
 10
104.592952
 20
36.028695
 11
104.626285
 21
36.028695
  0
LINE
  8
ボルト／ビス
  6
CONTINUOUS
 62
    64
 10
104.392952
 20
36.48907
 11
104.404628
 21
36.521145
  0
ARC
  8
ボルト／ビス
  6
CONTINUOUS
 62
    64
 10
104.497932
 20
36.473032
 40
0.104978
 50
180.0
 51
207.278033
  0
ARC
  8
ボルト／ビス
  6
CONTINUOUS
 62
    64
 10
104.795356
 20
36.328694
 40
0.402402
 50
166.165015
 51
193.834998
  0
LINE
  8
ボルト／ビス
  6
CONTINUOUS
 62
    64
 10
104.392952
 20
36.16832
 11
104.404628
 21
36.136245
  0
ARC
  8
ボルト／ビス
  6
CONTINUOUS
 62
    64
 10
104.497932
 20
36.184357
 40
0.104978
 50
152.721967
 51
180.0
  0
LINE
  8
ボルト／ビス
  6
CONTINUOUS
 62
    64
 10
104.392952
 20
36.48907
 11
104.392952
 21
36.16832
  0
LINE
  8
ボルト／ビス
  6
CONTINUOUS
 62
    64
 10
104.404628
 20
36.136245
 11
104.526285
 21
36.136245
  0
LINE
  8
ボルト／ビス
  6
CONTINUOUS
 62
    64
 10
104.404628
 20
36.23247
 11
104.526285
 21
36.23247
  0
LINE
  8
ボルト／ビス
  6
CONTINUOUS
 62
    64
 10
104.404628
 20
36.521145
 11
104.526285
 21
36.521145
  0
LINE
  8
ボルト／ビス
  6
CONTINUOUS
 62
    64
 10
104.404628
 20
36.42492
 11
104.526285
 21
36.42492
  0
LINE
  8
ボルト／ビス
  6
CONTINUOUS
 10
104.526285
 20
36.521145
 11
104.526285
 21
36.136245
  0
LINE
  8
ボルト／ビス
  6
CONTINUOUS
 10
104.526285
 20
36.528695
 11
104.592952
 21
36.528695
  0
LINE
  8
ボルト／ビス
  6
CONTINUOUS
 10
104.526285
 20
36.528695
 11
104.526285
 21
36.128695
  0
LINE
  8
ボルト／ビス
  6
CONTINUOUS
 10
104.526285
 20
36.128695
 11
104.592952
 21
36.128695
  0
ENDBLK
  0
BLOCK
  2
*GRP_0026
 70
    65
 10
0.0
 20
0.0
  0
LINE
  8
ボルト／ビス
  6
CONTINUOUS
 10
104.692952
 20
57.662027
 11
104.226285
 21
57.662027
  0
LINE
  8
ボルト／ビス
  6
CONTINUOUS
 10
104.692952
 20
58.028695
 11
104.626285
 21
58.028695
  0
LINE
  8
ボルト／ビス
  6
CONTINUOUS
 10
104.626285
 20
58.028695
 11
104.626285
 21
57.29536
  0
LINE
  8
ボルト／ビス
  6
CONTINUOUS
 10
104.626285
 20
57.29536
 11
104.692952
 21
57.29536
  0
LINE
  8
ボルト／ビス
  6
CONTINUOUS
 10
104.692952
 20
58.028695
 11
104.692952
 21
57.29536
  0
LINE
  8
ボルト／ビス
  6
CONTINUOUS
 10
104.592952
 20
57.962027
 11
104.626285
 21
57.962027
  0
LINE
  8
ボルト／ビス
  6
CONTINUOUS
 10
104.592952
 20
57.962027
 11
104.592952
 21
57.362027
  0
LINE
  8
ボルト／ビス
  6
CONTINUOUS
 10
104.592952
 20
57.362027
 11
104.626285
 21
57.362027
  0
LINE
  8
ボルト／ビス
  6
CONTINUOUS
 62
    64
 10
104.392952
 20
57.822402
 11
104.404628
 21
57.854478
  0
ARC
  8
ボルト／ビス
  6
CONTINUOUS
 62
    64
 10
104.497931
 20
57.806364
 40
0.104978
 50
180.0
 51
207.278033
  0
ARC
  8
ボルト／ビス
  6
CONTINUOUS
 62
    64
 10
104.795355
 20
57.662026
 40
0.402402
 50
166.165015
 51
193.834998
  0
LINE
  8
ボルト／ビス
  6
CONTINUOUS
 62
    64
 10
104.392952
 20
57.501652
 11
104.404628
 21
57.469578
  0
ARC
  8
ボルト／ビス
  6
CONTINUOUS
 62
    64
 10
104.497931
 20
57.517688
 40
0.104978
 50
152.721967
 51
180.0
  0
LINE
  8
ボルト／ビス
  6
CONTINUOUS
 62
    64
 10
104.392952
 20
57.822402
 11
104.392952
 21
57.501652
  0
LINE
  8
ボルト／ビス
  6
CONTINUOUS
 62
    64
 10
104.404628
 20
57.469578
 11
104.526285
 21
57.469578
  0
LINE
  8
ボルト／ビス
  6
CONTINUOUS
 62
    64
 10
104.404628
 20
57.565803
 11
104.526285
 21
57.565803
  0
LINE
  8
ボルト／ビス
  6
CONTINUOUS
 62
    64
 10
104.404628
 20
57.854478
 11
104.526285
 21
57.854478
  0
LINE
  8
ボルト／ビス
  6
CONTINUOUS
 62
    64
 10
104.404628
 20
57.758252
 11
104.526285
 21
57.758252
  0
LINE
  8
ボルト／ビス
  6
CONTINUOUS
 10
104.526285
 20
57.854478
 11
104.526285
 21
57.469578
  0
LINE
  8
ボルト／ビス
  6
CONTINUOUS
 10
104.526285
 20
57.862027
 11
104.592952
 21
57.862027
  0
LINE
  8
ボルト／ビス
  6
CONTINUOUS
 10
104.526285
 20
57.862027
 11
104.526285
 21
57.462027
  0
LINE
  8
ボルト／ビス
  6
CONTINUOUS
 10
104.526285
 20
57.462027
 11
104.592952
 21
57.462027
  0
ENDBLK
  0
BLOCK
  2
*GRP_0027
 70
    65
 10
0.0
 20
0.0
  0
LINE
  8
ボルト／ビス
  6
DOT
 10
103.716683
 20
61.01432
 11
103.3867
 21
61.344305
  0
LINE
  8
ボルト／ビス
  6
DOT
 10
103.975958
 20
61.273593
 11
103.928815
 21
61.320735
  0
LINE
  8
ボルト／ビス
  6
DOT
 10
103.928815
 20
61.320735
 11
103.41027
 21
60.802188
  0
LINE
  8
ボルト／ビス
  6
DOT
 10
103.41027
 20
60.802188
 11
103.45741
 21
60.755048
  0
LINE
  8
ボルト／ビス
  6
DOT
 10
103.975958
 20
61.273593
 11
103.45741
 21
60.755048
  0
LINE
  8
ボルト／ビス
  6
DOT
 10
103.858105
 20
61.297163
 11
103.881675
 21
61.273593
  0
LINE
  8
ボルト／ビス
  6
DOT
 10
103.858105
 20
61.297163
 11
103.43384
 21
60.8729
  0
LINE
  8
ボルト／ビス
  6
DOT
 10
103.43384
 20
60.8729
 11
103.45741
 21
60.84933
  0
LINE
  8
ボルト／ビス
  6
DOT
 62
    64
 10
103.617952
 20
61.339855
 11
103.64889
 21
61.35428
  0
ARC
  8
ボルト／ビス
  6
DOT
 62
    64
 10
103.680845
 20
61.254283
 40
0.104978
 50
135.0
 51
162.278033
  0
ARC
  8
ボルト／ビス
  6
DOT
 62
    64
 10
103.789093
 20
60.941911
 40
0.402402
 50
121.165015
 51
148.834998
  0
LINE
  8
ボルト／ビス
  6
DOT
 62
    64
 10
103.39115
 20
61.11305
 11
103.376725
 21
61.082115
  0
ARC
  8
ボルト／ビス
  6
DOT
 62
    64
 10
103.476721
 20
61.050159
 40
0.104978
 50
107.721967
 51
135.0
  0
LINE
  8
ボルト／ビス
  6
DOT
 62
    64
 10
103.617952
 20
61.339855
 11
103.39115
 21
61.11305
  0
LINE
  8
ボルト／ビス
  6
DOT
 62
    64
 10
103.376725
 20
61.082115
 11
103.46275
 21
60.99609
  0
LINE
  8
ボルト／ビス
  6
DOT
 62
    64
 10
103.444765
 20
61.150155
 11
103.53079
 21
61.06413
  0
LINE
  8
ボルト／ビス
  6
DOT
 62
    64
 10
103.64889
 20
61.35428
 11
103.734915
 21
61.268255
  0
LINE
  8
ボルト／ビス
  6
DOT
 62
    64
 10
103.580847
 20
61.286238
 11
103.666872
 21
61.200213
  0
LINE
  8
ボルト／ビス
  6
DOT
 10
103.734915
 20
61.268255
 11
103.46275
 21
60.99609
  0
LINE
  8
ボルト／ビス
  6
DOT
 10
103.740252
 20
61.273593
 11
103.787395
 21
61.226453
  0
LINE
  8
ボルト／ビス
  6
DOT
 10
103.740252
 20
61.273593
 11
103.45741
 21
60.99075
  0
LINE
  8
ボルト／ビス
  6
DOT
 10
103.45741
 20
60.99075
 11
103.50455
 21
60.94361
  0
ENDBLK
  0
BLOCK
  2
*GRP_0028
 70
    65
 10
0.0
 20
0.0
  0
LINE
  8
ボルト／ビス
  6
DOT
 10
88.631738
 20
45.929378
 11
88.301755
 21
46.259362
  0
LINE
  8
ボルト／ビス
  6
DOT
 10
88.891013
 20
46.18865
 11
88.84387
 21
46.235793
  0
LINE
  8
ボルト／ビス
  6
DOT
 10
88.84387
 20
46.235793
 11
88.325325
 21
45.717245
  0
LINE
  8
ボルト／ビス
  6
DOT
 10
88.325325
 20
45.717245
 11
88.372465
 21
45.670105
  0
LINE
  8
ボルト／ビス
  6
DOT
 10
88.891013
 20
46.18865
 11
88.372465
 21
45.670105
  0
LINE
  8
ボルト／ビス
  6
DOT
 10
88.77316
 20
46.21222
 11
88.79673
 21
46.18865
  0
LINE
  8
ボルト／ビス
  6
DOT
 10
88.77316
 20
46.21222
 11
88.348895
 21
45.787958
  0
LINE
  8
ボルト／ビス
  6
DOT
 10
88.348895
 20
45.787958
 11
88.372465
 21
45.764387
  0
LINE
  8
ボルト／ビス
  6
DOT
 62
    64
 10
88.533007
 20
46.254912
 11
88.563945
 21
46.269338
  0
ARC
  8
ボルト／ビス
  6
DOT
 62
    64
 10
88.595899
 20
46.169341
 40
0.104978
 50
135.0
 51
162.278033
  0
ARC
  8
ボルト／ビス
  6
DOT
 62
    64
 10
88.704147
 20
45.856969
 40
0.402402
 50
121.165015
 51
148.834998
  0
LINE
  8
ボルト／ビス
  6
DOT
 62
    64
 10
88.306205
 20
46.028108
 11
88.29178
 21
45.997172
  0
ARC
  8
ボルト／ビス
  6
DOT
 62
    64
 10
88.391775
 20
45.965217
 40
0.104978
 50
107.721967
 51
135.0
  0
LINE
  8
ボルト／ビス
  6
DOT
 62
    64
 10
88.533007
 20
46.254912
 11
88.306205
 21
46.028108
  0
LINE
  8
ボルト／ビス
  6
DOT
 62
    64
 10
88.29178
 20
45.997172
 11
88.377805
 21
45.911147
  0
LINE
  8
ボルト／ビス
  6
DOT
 62
    64
 10
88.35982
 20
46.065213
 11
88.445845
 21
45.979188
  0
LINE
  8
ボルト／ビス
  6
DOT
 62
    64
 10
88.563945
 20
46.269338
 11
88.64997
 21
46.183312
  0
LINE
  8
ボルト／ビス
  6
DOT
 62
    64
 10
88.495903
 20
46.201295
 11
88.581927
 21
46.11527
  0
LINE
  8
ボルト／ビス
  6
DOT
 10
88.64997
 20
46.183312
 11
88.377805
 21
45.911147
  0
LINE
  8
ボルト／ビス
  6
DOT
 10
88.655307
 20
46.18865
 11
88.70245
 21
46.14151
  0
LINE
  8
ボルト／ビス
  6
DOT
 10
88.655307
 20
46.18865
 11
88.372465
 21
45.905808
  0
LINE
  8
ボルト／ビス
  6
DOT
 10
88.372465
 20
45.905808
 11
88.419605
 21
45.858668
  0
ENDBLK
  0
ENDSEC
  0
SECTION
  2
ENTITIES
  0
POLYLINE
  8
通り芯
  6
CONTINUOUS
 66
     1
 70
     1
  0
VERTEX
  8
通り芯
 10
-210.0
 20
-148.5
  0
VERTEX
  8
通り芯
 10
210.0
 20
-148.5
  0
VERTEX
  8
通り芯
 10
210.0
 20
148.5
  0
VERTEX
  8
通り芯
 10
-210.0
 20
148.5
  0
SEQEND
  0
INSERT
  2
*GRP_0001
  8
型材断面
  6
CONTINUOUS
 10
0.0
 20
0.0
  0
LINE
  8
型材断面
  6
DASHDOT
 10
-43.050183
 20
-66.258275
 11
-43.050183
 21
56.995363
  0
LINE
  8
型材断面
  6
CONTINUOUS
 62
    47
 10
-0.336825
 20
-58.610877
 11
0.38339
 21
-58.610877
  0
LINE
  8
型材断面
  6
CONTINUOUS
 62
    47
 10
0.340025
 20
-57.317558
 11
0.350025
 21
-57.307557
  0
LINE
  8
型材断面
  6
CONTINUOUS
 62
    47
 10
0.340025
 20
-57.317558
 11
0.350025
 21
-57.327557
  0
LINE
  8
型材断面
  6
CONTINUOUS
 62
    47
 10
0.340025
 20
-57.95979
 11
0.350025
 21
-57.94979
  0
LINE
  8
型材断面
  6
CONTINUOUS
 62
    47
 10
0.340025
 20
-57.95979
 11
0.350025
 21
-57.96979
  0
LINE
  8
型材断面
  6
CONTINUOUS
 62
    47
 10
0.350025
 20
-58.377575
 11
0.350025
 21
-57.96979
  0
LINE
  8
型材断面
  6
CONTINUOUS
 62
    47
 10
0.350025
 20
-57.94979
 11
0.350025
 21
-57.327557
  0
LINE
  8
型材断面
  6
CONTINUOUS
 62
    47
 10
1.849853
 20
-62.010995
 11
1.849853
 21
-61.677663
  0
LINE
  8
型材断面
  6
CONTINUOUS
 62
    47
 10
-0.08331
 20
-61.010992
 11
-0.680155
 21
-61.010992
  0
LINE
  8
型材断面
  6
CONTINUOUS
 62
    47
 10
0.149845
 20
-61.01098
 11
2.349845
 21
-61.177663
  0
LINE
  8
型材断面
  6
CONTINUOUS
 62
    47
 10
2.349845
 20
-61.677663
 11
2.349845
 21
-61.177663
  0
LINE
  8
型材断面
  6
CONTINUOUS
 62
    47
 10
1.61651
 20
-58.444232
 11
1.61651
 21
-58.610877
  0
LINE
  8
型材断面
  6
CONTINUOUS
 62
    47
 10
1.61651
 20
-58.877538
 11
1.61651
 21
-58.74422
  0
LINE
  8
型材断面
  6
CONTINUOUS
 62
    47
 10
0.350025
 20
-58.377575
 11
1.623198
 21
-58.444232
  0
LINE
  8
型材断面
  6
CONTINUOUS
 62
    47
 10
0.149845
 20
-58.877538
 11
0.149845
 21
-61.010992
  0
LINE
  8
型材断面
  6
CONTINUOUS
 62
    47
 10
0.350025
 20
-57.307557
 11
0.350025
 21
-56.177427
  0
LINE
  8
型材断面
  6
CONTINUOUS
 62
    47
 10
1.61651
 20
-58.74422
 11
-43.050183
 21
-58.74422
  0
LINE
  8
型材断面
  6
CONTINUOUS
 10
0.350025
 20
-58.377575
 11
-43.050183
 21
-58.377575
  0
LINE
  8
型材断面
  6
CONTINUOUS
 10
1.61651
 20
-58.444232
 11
-43.050183
 21
-58.444232
  0
LINE
  8
型材断面
  6
CONTINUOUS
 62
    47
 10
1.61651
 20
-58.877538
 11
-43.050183
 21
-58.877538
  0
LINE
  8
型材断面
  6
CONTINUOUS
 62
    47
 10
1.61651
 20
-58.610877
 11
-43.050183
 21
-58.610877
  0
LINE
  8
型材断面
  6
CONTINUOUS
 10
2.349845
 20
-61.677663
 11
-43.050183
 21
-61.677663
  0
LINE
  8
型材断面
  6
CONTINUOUS
 10
2.349845
 20
-61.177663
 11
-43.050183
 21
-61.177663
  0
LINE
  8
型材断面
  6
CONTINUOUS
 10
1.849853
 20
-62.010995
 11
-43.050183
 21
-62.010995
  0
LINE
  8
型材断面
  6
CONTINUOUS
 10
0.149845
 20
-61.010992
 11
-43.050183
 21
-61.010992
  0
LINE
  8
型材断面
  6
CONTINUOUS
 10
0.68315
 20
34.928698
 11
2.349845
 21
33.262003
  0
LINE
  8
型材断面
  6
CONTINUOUS
 10
2.349845
 20
33.262003
 11
2.349845
 21
46.995363
  0
LINE
  8
型材断面
  6
CONTINUOUS
 10
1.61651
 20
33.995335
 11
1.61651
 21
46.995363
  0
LINE
  8
型材断面
  6
CONTINUOUS
 10
0.68315
 20
59.06203
 11
2.349845
 21
60.728725
  0
LINE
  8
型材断面
  6
CONTINUOUS
 10
2.349845
 20
60.728725
 11
2.349845
 21
46.995363
  0
LINE
  8
型材断面
  6
CONTINUOUS
 10
1.61651
 20
59.995392
 11
1.61651
 21
46.995363
  0
LINE
  8
型材断面
  6
DASHDOT
 10
-1.383518
 20
-66.258275
 11
-1.383518
 21
56.995363
  0
LINE
  8
型材断面
  6
CONTINUOUS
 62
    47
 10
-85.763543
 20
-58.610877
 11
-86.483755
 21
-58.610877
  0
LINE
  8
型材断面
  6
CONTINUOUS
 62
    47
 10
-86.440392
 20
-57.317558
 11
-86.450392
 21
-57.307557
  0
LINE
  8
型材断面
  6
CONTINUOUS
 62
    47
 10
-86.440392
 20
-57.317558
 11
-86.450392
 21
-57.327557
  0
LINE
  8
型材断面
  6
CONTINUOUS
 62
    47
 10
-86.440392
 20
-57.95979
 11
-86.450392
 21
-57.94979
  0
LINE
  8
型材断面
  6
CONTINUOUS
 62
    47
 10
-86.440392
 20
-57.95979
 11
-86.450392
 21
-57.96979
  0
LINE
  8
型材断面
  6
CONTINUOUS
 62
    47
 10
-86.450392
 20
-58.377575
 11
-86.450392
 21
-57.96979
  0
LINE
  8
型材断面
  6
CONTINUOUS
 62
    47
 10
-86.450392
 20
-57.94979
 11
-86.450392
 21
-57.327557
  0
LINE
  8
型材断面
  6
CONTINUOUS
 62
    47
 10
-87.95022
 20
-62.010995
 11
-87.95022
 21
-61.677663
  0
LINE
  8
型材断面
  6
CONTINUOUS
 62
    47
 10
-86.017058
 20
-61.010992
 11
-85.42021
 21
-61.010992
  0
LINE
  8
型材断面
  6
CONTINUOUS
 62
    47
 10
-86.25021
 20
-61.01098
 11
-88.45021
 21
-61.177663
  0
LINE
  8
型材断面
  6
CONTINUOUS
 62
    47
 10
-88.45021
 20
-61.677663
 11
-88.45021
 21
-61.177663
  0
LINE
  8
型材断面
  6
CONTINUOUS
 62
    47
 10
-87.716878
 20
-58.444232
 11
-87.716878
 21
-58.610877
  0
LINE
  8
型材断面
  6
CONTINUOUS
 62
    47
 10
-87.716878
 20
-58.877538
 11
-87.716878
 21
-58.74422
  0
LINE
  8
型材断面
  6
CONTINUOUS
 62
    47
 10
-86.450392
 20
-58.377575
 11
-87.723565
 21
-58.444232
  0
LINE
  8
型材断面
  6
CONTINUOUS
 62
    47
 10
-86.25021
 20
-58.877538
 11
-86.25021
 21
-61.010992
  0
LINE
  8
型材断面
  6
CONTINUOUS
 62
    47
 10
-86.450392
 20
-57.307557
 11
-86.450392
 21
-56.177427
  0
LINE
  8
型材断面
  6
CONTINUOUS
 62
    47
 10
-87.716878
 20
-58.74422
 11
-43.050183
 21
-58.74422
  0
LINE
  8
型材断面
  6
CONTINUOUS
 10
-86.450392
 20
-58.377575
 11
-43.050183
 21
-58.377575
  0
LINE
  8
型材断面
  6
CONTINUOUS
 10
-87.716878
 20
-58.444232
 11
-43.050183
 21
-58.444232
  0
LINE
  8
型材断面
  6
CONTINUOUS
 62
    47
 10
-87.716878
 20
-58.877538
 11
-43.050183
 21
-58.877538
  0
LINE
  8
型材断面
  6
CONTINUOUS
 62
    47
 10
-87.716878
 20
-58.610877
 11
-43.050183
 21
-58.610877
  0
LINE
  8
型材断面
  6
CONTINUOUS
 10
-88.45021
 20
-61.677663
 11
-43.050183
 21
-61.677663
  0
LINE
  8
型材断面
  6
CONTINUOUS
 10
-88.45021
 20
-61.177663
 11
-43.050183
 21
-61.177663
  0
LINE
  8
型材断面
  6
CONTINUOUS
 10
-87.95022
 20
-62.010995
 11
-43.050183
 21
-62.010995
  0
LINE
  8
型材断面
  6
CONTINUOUS
 10
-86.25021
 20
-61.010992
 11
-43.050183
 21
-61.010992
  0
LINE
  8
型材断面
  6
CONTINUOUS
 10
-86.783515
 20
34.928698
 11
-88.45021
 21
33.262003
  0
LINE
  8
型材断面
  6
CONTINUOUS
 10
-88.45021
 20
33.262003
 11
-88.45021
 21
46.995363
  0
LINE
  8
型材断面
  6
CONTINUOUS
 10
-87.716878
 20
33.995335
 11
-87.716878
 21
46.995363
  0
LINE
  8
型材断面
  6
CONTINUOUS
 10
-88.45021
 20
33.262003
 11
-74.71685
 21
33.262003
  0
LINE
  8
型材断面
  6
CONTINUOUS
 10
-87.716878
 20
33.995335
 11
-74.71685
 21
33.995335
  0
LINE
  8
型材断面
  6
CONTINUOUS
 10
-86.783515
 20
59.06203
 11
-88.45021
 21
60.728725
  0
LINE
  8
型材断面
  6
CONTINUOUS
 10
-88.45021
 20
60.728725
 11
-88.45021
 21
46.995363
  0
LINE
  8
型材断面
  6
CONTINUOUS
 10
-87.716878
 20
59.995392
 11
-87.716878
 21
46.995363
  0
LINE
  8
型材断面
  6
CONTINUOUS
 10
-88.45021
 20
60.728725
 11
-74.71685
 21
60.728725
  0
LINE
  8
型材断面
  6
CONTINUOUS
 10
-87.716878
 20
59.995392
 11
-74.71685
 21
59.995392
  0
LINE
  8
型材断面
  6
DASHDOT
 10
114.059035
 20
36.995363
 11
-84.71685
 21
36.995363
  0
LINE
  8
型材断面
  6
DASHDOT
 10
114.059035
 20
46.995363
 11
-84.71685
 21
46.995363
  0
LINE
  8
型材断面
  6
DASHDOT
 10
114.059035
 20
56.995363
 11
-84.71685
 21
56.995363
  0
LINE
  8
型材断面
  6
DASHDOT
 10
-84.71685
 20
-66.258275
 11
-84.71685
 21
56.995363
  0
LINE
  8
型材断面
  6
CONTINUOUS
 10
2.349845
 20
33.262003
 11
-74.71685
 21
33.262003
  0
LINE
  8
型材断面
  6
CONTINUOUS
 10
1.61651
 20
33.995335
 11
-74.71685
 21
33.995335
  0
LINE
  8
型材断面
  6
CONTINUOUS
 10
2.349845
 20
60.728725
 11
-74.71685
 21
60.728725
  0
LINE
  8
型材断面
  6
CONTINUOUS
 10
1.61651
 20
59.995392
 11
-74.71685
 21
59.995392
  0
LINE
  8
型材断面
  6
DOT
 10
-41.800183
 20
36.995363
 11
-41.800183
 21
56.995363
  0
LINE
  8
型材断面
  6
DASHDOT
 10
-43.050183
 20
36.995363
 11
-43.050183
 21
56.995363
  0
LINE
  8
型材断面
  6
DOT
 10
-44.300183
 20
36.995363
 11
-44.300183
 21
56.995363
  0
LINE
  8
型材断面
  6
CONTINUOUS
 10
-68.05018
 20
59.625492
 11
-69.54581
 21
62.216
  0
LINE
  8
型材断面
  6
CONTINUOUS
 10
-68.05018
 20
59.625492
 11
-66.55455
 21
62.216
  0
LINE
  8
型材断面
  6
CONTINUOUS
 10
-66.55455
 20
62.216
 11
-69.54581
 21
62.216
  0
LINE
  8
型材断面
  6
CONTINUOUS
 10
-125.569055
 20
94.972835
 11
-124.973
 21
92.382328
  0
LINE
  8
型材断面
  6
CONTINUOUS
 10
-125.569055
 20
94.972835
 11
-126.165113
 21
92.382328
  0
LINE
  8
型材断面
  6
CONTINUOUS
 10
-126.165113
 20
92.382328
 11
-124.973
 21
92.382328
  0
LINE
  8
型材断面
  6
CONTINUOUS
 10
-131.591643
 20
89.103435
 11
-85.349865
 21
89.103435
  0
LINE
  8
型材断面
  6
CONTINUOUS
 10
-125.569055
 20
101.50271
 11
-127.064685
 21
98.912203
  0
LINE
  8
型材断面
  6
CONTINUOUS
 10
-125.569055
 20
101.50271
 11
-124.073425
 21
98.912203
  0
LINE
  8
型材断面
  6
CONTINUOUS
 10
-124.073425
 20
98.912203
 11
-127.064685
 21
98.912203
  0
LINE
  8
型材断面
  6
CONTINUOUS
 10
-131.591643
 20
97.973608
 11
-85.349865
 21
97.973608
  0
LINE
  8
型材断面
  6
CONTINUOUS
 10
-131.591643
 20
83.315402
 11
-85.349865
 21
83.315402
  0
LINE
  8
型材断面
  6
CONTINUOUS
 10
-87.346977
 20
46.995363
 11
-89.937485
 21
48.490992
  0
LINE
  8
型材断面
  6
CONTINUOUS
 10
-87.346977
 20
46.995363
 11
-89.937485
 21
45.499733
  0
LINE
  8
型材断面
  6
CONTINUOUS
 10
-89.937485
 20
45.499733
 11
-89.937485
 21
48.490992
  0
LINE
  8
型材断面
  6
CONTINUOUS
 10
-68.05018
 20
34.365232
 11
-69.54581
 21
31.774725
  0
LINE
  8
型材断面
  6
CONTINUOUS
 10
-68.05018
 20
34.365232
 11
-66.55455
 21
31.774725
  0
LINE
  8
型材断面
  6
CONTINUOUS
 10
-66.55455
 20
31.774725
 11
-69.54581
 21
31.774725
  0
LINE
  8
型材断面
  6
CONTINUOUS
 10
-18.050185
 20
59.625492
 11
-16.554555
 21
62.216
  0
LINE
  8
型材断面
  6
CONTINUOUS
 10
-18.050185
 20
59.625492
 11
-19.545815
 21
62.216
  0
LINE
  8
型材断面
  6
CONTINUOUS
 10
-19.545815
 20
62.216
 11
-16.554555
 21
62.216
  0
LINE
  8
型材断面
  6
CONTINUOUS
 10
1.246613
 20
46.995363
 11
3.83712
 21
48.490992
  0
LINE
  8
型材断面
  6
CONTINUOUS
 10
1.246613
 20
46.995363
 11
3.83712
 21
45.499733
  0
LINE
  8
型材断面
  6
CONTINUOUS
 10
3.83712
 20
45.499733
 11
3.83712
 21
48.490992
  0
LINE
  8
型材断面
  6
CONTINUOUS
 10
-18.050185
 20
34.365232
 11
-16.554555
 21
31.774725
  0
LINE
  8
型材断面
  6
CONTINUOUS
 10
-18.050185
 20
34.365232
 11
-19.545815
 21
31.774725
  0
LINE
  8
型材断面
  6
CONTINUOUS
 10
-19.545815
 20
31.774725
 11
-16.554555
 21
31.774725
  0
POLYLINE
  8
型材断面
  6
DASHDOT
 66
     1
  0
VERTEX
  8
型材断面
 10
-84.716848
 20
36.995363
  0
VERTEX
  8
型材断面
 10
-43.050183
 20
56.995363
  0
VERTEX
  8
型材断面
 10
-1.383515
 20
36.995363
  0
SEQEND
  0
LINE
  8
型材断面
  6
CONTINUOUS
 10
-3.383515
 20
34.38855
 11
-3.979572
 21
31.798045
  0
LINE
  8
型材断面
  6
CONTINUOUS
 10
-3.383515
 20
34.38855
 11
-2.787457
 21
31.798045
  0
LINE
  8
型材断面
  6
CONTINUOUS
 10
-2.787457
 20
31.798045
 11
-3.979572
 21
31.798045
  0
LINE
  8
型材断面
  6
CONTINUOUS
 10
-82.71685
 20
34.38855
 11
-82.120792
 21
31.798045
  0
LINE
  8
型材断面
  6
CONTINUOUS
 10
-82.71685
 20
34.38855
 11
-83.312907
 21
31.798045
  0
LINE
  8
型材断面
  6
CONTINUOUS
 10
-83.312907
 20
31.798045
 11
-82.120792
 21
31.798045
  0
LINE
  8
型材断面
  6
CONTINUOUS
 62
    47
 10
108.126403
 20
58.042055
 11
108.126403
 21
58.762268
  0
LINE
  8
型材断面
  6
CONTINUOUS
 62
    47
 10
106.833082
 20
58.718905
 11
106.823083
 21
58.728905
  0
LINE
  8
型材断面
  6
CONTINUOUS
 62
    47
 10
106.833082
 20
58.718905
 11
106.843082
 21
58.728905
  0
LINE
  8
型材断面
  6
CONTINUOUS
 62
    47
 10
107.475315
 20
58.718905
 11
107.465315
 21
58.728905
  0
LINE
  8
型材断面
  6
CONTINUOUS
 62
    47
 10
107.475315
 20
58.718905
 11
107.485315
 21
58.728905
  0
LINE
  8
型材断面
  6
CONTINUOUS
 62
    47
 10
107.8931
 20
58.728905
 11
107.485315
 21
58.728905
  0
LINE
  8
型材断面
  6
CONTINUOUS
 62
    47
 10
107.465315
 20
58.728905
 11
106.843082
 21
58.728905
  0
LINE
  8
型材断面
  6
CONTINUOUS
 62
    47
 10
111.52652
 20
60.22873
 11
111.193188
 21
60.22873
  0
LINE
  8
型材断面
  6
CONTINUOUS
 62
    47
 10
110.526518
 20
58.29557
 11
110.526518
 21
57.698723
  0
LINE
  8
型材断面
  6
CONTINUOUS
 62
    47
 10
110.526505
 20
58.528723
 11
110.693188
 21
60.728723
  0
LINE
  8
型材断面
  6
CONTINUOUS
 62
    47
 10
111.193188
 20
60.728723
 11
110.693188
 21
60.728723
  0
LINE
  8
型材断面
  6
CONTINUOUS
 62
    47
 10
108.393063
 20
59.99539
 11
108.393063
 21
46.99536
  0
LINE
  8
型材断面
  6
CONTINUOUS
 10
110.526518
 20
46.99536
 11
110.526518
 21
58.528723
  0
LINE
  8
型材断面
  6
CONTINUOUS
 10
111.52652
 20
46.99536
 11
111.52652
 21
60.22873
  0
LINE
  8
型材断面
  6
CONTINUOUS
 10
111.193188
 20
46.99536
 11
111.193188
 21
60.728723
  0
LINE
  8
型材断面
  6
CONTINUOUS
 62
    47
 10
108.126403
 20
46.99536
 11
108.126403
 21
59.99539
  0
LINE
  8
型材断面
  6
CONTINUOUS
 62
    47
 10
107.959757
 20
59.99539
 11
108.126403
 21
59.99539
  0
LINE
  8
型材断面
  6
CONTINUOUS
 62
    47
 10
108.259745
 20
46.99536
 11
108.259745
 21
59.99539
  0
LINE
  8
型材断面
  6
CONTINUOUS
 62
    47
 10
108.393063
 20
59.99539
 11
108.259745
 21
59.99539
  0
LINE
  8
型材断面
  6
CONTINUOUS
 62
    47
 10
107.8931
 20
58.728905
 11
107.959757
 21
60.002075
  0
LINE
  8
型材断面
  6
CONTINUOUS
 62
    47
 10
108.393063
 20
58.528723
 11
110.526518
 21
58.528723
  0
LINE
  8
型材断面
  6
CONTINUOUS
 10
110.693188
 20
46.99536
 11
110.693188
 21
60.728723
  0
LINE
  8
型材断面
  6
CONTINUOUS
 10
107.8931
 20
58.728905
 11
107.8931
 21
46.99536
  0
LINE
  8
型材断面
  6
CONTINUOUS
 10
107.959757
 20
59.99539
 11
107.959757
 21
46.99536
  0
LINE
  8
型材断面
  6
CONTINUOUS
 62
    47
 10
108.126403
 20
35.948668
 11
108.126403
 21
35.228455
  0
LINE
  8
型材断面
  6
CONTINUOUS
 62
    47
 10
106.833082
 20
35.271817
 11
106.823083
 21
35.261817
  0
LINE
  8
型材断面
  6
CONTINUOUS
 62
    47
 10
106.833082
 20
35.271817
 11
106.843082
 21
35.261817
  0
LINE
  8
型材断面
  6
CONTINUOUS
 62
    47
 10
107.475315
 20
35.271817
 11
107.465315
 21
35.261817
  0
LINE
  8
型材断面
  6
CONTINUOUS
 62
    47
 10
107.475315
 20
35.271817
 11
107.485315
 21
35.261817
  0
LINE
  8
型材断面
  6
CONTINUOUS
 62
    47
 10
107.8931
 20
35.261817
 11
107.485315
 21
35.261817
  0
LINE
  8
型材断面
  6
CONTINUOUS
 62
    47
 10
107.465315
 20
35.261817
 11
106.843082
 21
35.261817
  0
LINE
  8
型材断面
  6
CONTINUOUS
 62
    47
 10
111.52652
 20
33.76199
 11
111.193188
 21
33.76199
  0
LINE
  8
型材断面
  6
CONTINUOUS
 62
    47
 10
110.526518
 20
35.695153
 11
110.526518
 21
36.292
  0
LINE
  8
型材断面
  6
CONTINUOUS
 62
    47
 10
110.526505
 20
35.462
 11
110.693188
 21
33.262
  0
LINE
  8
型材断面
  6
CONTINUOUS
 62
    47
 10
111.193188
 20
33.262
 11
110.693188
 21
33.262
  0
LINE
  8
型材断面
  6
CONTINUOUS
 62
    47
 10
108.393063
 20
33.995333
 11
108.393063
 21
46.99536
  0
LINE
  8
型材断面
  6
CONTINUOUS
 10
110.526518
 20
46.99536
 11
110.526518
 21
35.462
  0
LINE
  8
型材断面
  6
CONTINUOUS
 10
111.52652
 20
46.99536
 11
111.52652
 21
33.76199
  0
LINE
  8
型材断面
  6
CONTINUOUS
 10
111.193188
 20
46.99536
 11
111.193188
 21
33.262
  0
LINE
  8
型材断面
  6
CONTINUOUS
 62
    47
 10
108.126403
 20
46.99536
 11
108.126403
 21
33.995333
  0
LINE
  8
型材断面
  6
CONTINUOUS
 62
    47
 10
107.959757
 20
33.995333
 11
108.126403
 21
33.995333
  0
LINE
  8
型材断面
  6
CONTINUOUS
 62
    47
 10
108.259745
 20
46.99536
 11
108.259745
 21
33.995333
  0
LINE
  8
型材断面
  6
CONTINUOUS
 62
    47
 10
108.393063
 20
33.995333
 11
108.259745
 21
33.995333
  0
LINE
  8
型材断面
  6
CONTINUOUS
 62
    47
 10
107.8931
 20
35.261817
 11
107.959757
 21
33.988645
  0
LINE
  8
型材断面
  6
CONTINUOUS
 62
    47
 10
108.393063
 20
35.462
 11
110.526518
 21
35.462
  0
LINE
  8
型材断面
  6
CONTINUOUS
 10
110.693188
 20
46.99536
 11
110.693188
 21
33.262
  0
LINE
  8
型材断面
  6
CONTINUOUS
 10
107.8931
 20
35.261817
 11
107.8931
 21
46.99536
  0
LINE
  8
型材断面
  6
CONTINUOUS
 10
107.959757
 20
33.995333
 11
107.959757
 21
46.99536
  0
LINE
  8
型材断面
  6
DOT
 62
    47
 10
106.519283
 20
58.74916
 11
107.028552
 21
59.258427
  0
LINE
  8
型材断面
  6
DOT
 62
    47
 10
106.083373
 20
60.14228
 11
106.083373
 21
60.156423
  0
LINE
  8
型材断面
  6
DOT
 62
    47
 10
106.083373
 20
60.14228
 11
106.097515
 21
60.14228
  0
LINE
  8
型材断面
  6
DOT
 62
    47
 10
106.5375
 20
59.688155
 11
106.5375
 21
59.702295
  0
LINE
  8
型材断面
  6
DOT
 62
    47
 10
106.5375
 20
59.688155
 11
106.551642
 21
59.688155
  0
LINE
  8
型材断面
  6
DOT
 62
    47
 10
106.839987
 20
59.399805
 11
106.551642
 21
59.688155
  0
LINE
  8
型材断面
  6
DOT
 62
    47
 10
106.5375
 20
59.702295
 11
106.097515
 21
60.14228
  0
LINE
  8
型材断面
  6
DOT
 62
    47
 10
106.083373
 20
60.156423
 11
105.178183
 21
61.061613
  0
LINE
  8
型材断面
  6
DOT
 62
    47
 10
98.708093
 20
50.937968
 11
107.9005
 21
60.130375
  0
LINE
  8
型材断面
  6
DOT
 62
    47
 10
107.782662
 20
60.248213
 11
107.9005
 21
60.130375
  0
LINE
  8
型材断面
  6
DOT
 62
    47
 10
106.839987
 20
59.399805
 11
107.787392
 21
60.25294
  0
LINE
  8
型材断面
  6
DOT
 10
106.839987
 20
59.399805
 11
98.543123
 21
51.102938
  0
LINE
  8
型材断面
  6
DOT
 10
107.782662
 20
60.248213
 11
98.590255
 21
51.055805
  0
LINE
  8
型材断面
  6
DOT
 62
    47
 10
90.8969
 20
43.126775
 11
90.387632
 21
42.617507
  0
LINE
  8
型材断面
  6
DOT
 62
    47
 10
89.503778
 20
43.562685
 11
89.489638
 21
43.562685
  0
LINE
  8
型材断面
  6
DOT
 62
    47
 10
89.503778
 20
43.562685
 11
89.503778
 21
43.548545
  0
LINE
  8
型材断面
  6
DOT
 62
    47
 10
89.957905
 20
43.10856
 11
89.943763
 21
43.10856
  0
LINE
  8
型材断面
  6
DOT
 62
    47
 10
89.957905
 20
43.10856
 11
89.957905
 21
43.094418
  0
LINE
  8
型材断面
  6
DOT
 62
    47
 10
90.246253
 20
42.80607
 11
89.957905
 21
43.094418
  0
LINE
  8
型材断面
  6
DOT
 62
    47
 10
89.943763
 20
43.10856
 11
89.503778
 21
43.548545
  0
LINE
  8
型材断面
  6
DOT
 62
    47
 10
89.489638
 20
43.562685
 11
88.584447
 21
44.467875
  0
LINE
  8
型材断面
  6
DOT
 62
    47
 10
98.708093
 20
50.937968
 11
89.515682
 21
41.74556
  0
LINE
  8
型材断面
  6
DOT
 62
    47
 10
89.397847
 20
41.863395
 11
89.515682
 21
41.74556
  0
LINE
  8
型材断面
  6
DOT
 62
    47
 10
90.246253
 20
42.80607
 11
89.39312
 21
41.858668
  0
LINE
  8
型材断面
  6
DOT
 10
90.246253
 20
42.80607
 11
98.543123
 21
51.102938
  0
LINE
  8
型材断面
  6
DOT
 10
89.397847
 20
41.863395
 11
98.590255
 21
51.055805
  0
ARC
  8
型材断面
  6
DASHDOT
 10
108.176392
 20
60.335575
 40
26.340287
 50
224.891258
 51
269.891257
  0
LINE
  8
型材断面
  6
CONTINUOUS
 62
    47
 10
106.823083
 20
58.728905
 11
105.692952
 21
58.728905
  0
LINE
  8
型材断面
  6
CONTINUOUS
 62
    47
 10
106.823083
 20
35.261817
 11
105.692952
 21
35.261817
  0
POLYLINE
  8
ガラス
  6
CONTINUOUS
 66
     1
 70
     1
  0
VERTEX
  8
ガラス
 10
126.731382
 20
-43.612367
  0
VERTEX
  8
ガラス
 10
85.221383
 20
-43.612367
  0
VERTEX
  8
ガラス
 10
85.221383
 20
-64.1457
  0
VERTEX
  8
ガラス
 10
126.731382
 20
-64.1457
  0
SEQEND
  0
TEXT
  7
TextStyle03
  8
文字
  6
CONTINUOUS
 10
80.875
 20
94.425
  1
ＮＳコード：ＮＳＨＬ
 40
5.0
 72
     5
 11
136.5
 21
94.425
  0
TEXT
  7
TextStyle03
  8
文字
  6
CONTINUOUS
 10
-122.75
 20
99.125
  1
は排水穴位置を示す
 40
3.0
 72
     5
 11
-92.75
 21
99.125
  0
TEXT
  7
TextStyle03
  8
文字
  6
CONTINUOUS
 10
-122.75
 20
93.6
  1
はケーシング位置を示す
 40
3.0
 72
     5
 11
-86.0
 21
93.6
  0
TEXT
  7
TextStyle03
  8
文字
  6
CONTINUOUS
 10
-122.75
 20
90.225
  1
２ヶ所中1ヶ所に設定
 40
3.0
 72
     5
 11
-91.0625
 21
90.225
  0
TEXT
  7
TextStyle03
  8
文字
  6
CONTINUOUS
 10
-105.775
 20
25.45
  1
アンカーピッチ
 40
3.0
 50
90.0
 72
     5
 11
-105.775
 21
48.7
  0
TEXT
  7
TextStyle03
  8
文字
  6
CONTINUOUS
 10
-78.075
 20
95.0
  1
アンカーピッチ
 40
3.0
 72
     5
 11
-54.825
 21
95.0
  0
TEXT
  7
TextStyle03
  8
文字
  6
CONTINUOUS
 10
-126.475
 20
84.25
  1
アンカー数量　１２ヶ所
 40
3.0
 72
     5
 11
-89.725
 21
84.25
  0
TEXT
  7
TextStyle03
  8
文字
  6
CONTINUOUS
 10
81.225
 20
116.5
  1
シリーズ：ＴＤ１ＨＬ
 40
5.0
 72
     5
 11
136.85
 21
116.5
  0
TEXT
  7
TextStyle03
  8
文字
  6
CONTINUOUS
 10
81.225
 20
110.875
  1
　　　　　（片側開閉）600×2500タイプ
 40
5.0
 72
     5
 11
184.6625
 21
110.875
  0
TEXT
  7
TextStyle03
  8
文字
  6
CONTINUOUS
 10
81.225
 20
105.25
  1
図面名　：外観姿図
 40
5.0
 72
     5
 11
131.225
 21
105.25
  0
TEXT
  7
TextStyle03
  8
文字
  6
CONTINUOUS
 10
81.225
 20
99.625
  1
　　　　　　
 40
5.0
 72
     5
 11
114.35
 21
99.625
  0
TEXT
  7
TextStyle03
  8
文字
  6
CONTINUOUS
 10
84.25
 20
37.675
  1
45°
 40
3.0
 72
     5
 11
90.625
 21
37.675
  0
TEXT
  7
TextStyle03
  8
文字
  6
CONTINUOUS
 10
107.3
 20
-57.175
  1
網入り6.8t
 40
3.0
 72
     5
 11
123.9875
 21
-57.175
  0
TEXT
  7
TextStyle03
  8
文字
  6
CONTINUOUS
 10
113.925
 20
-62.425
  1
×２枚
 40
3.0
 72
     5
 11
123.675
 21
-62.425
  0
INSERT
  2
*DIM_0002
  8
寸法
  6
CONTINUOUS
 10
0.0
 20
0.0
  0
INSERT
  2
*DIM_0003
  8
寸法
  6
CONTINUOUS
 10
0.0
 20
0.0
  0
INSERT
  2
*DIM_0004
  8
寸法
  6
CONTINUOUS
 10
0.0
 20
0.0
  0
INSERT
  2
*DIM_0005
  8
寸法
  6
CONTINUOUS
 10
0.0
 20
0.0
  0
INSERT
  2
*DIM_0006
  8
寸法
  6
CONTINUOUS
 10
0.0
 20
0.0
  0
INSERT
  2
*DIM_0007
  8
寸法
  6
CONTINUOUS
 10
0.0
 20
0.0
  0
INSERT
  2
*DIM_0008
  8
寸法
  6
CONTINUOUS
 10
0.0
 20
0.0
  0
INSERT
  2
*DIM_0009
  8
寸法
  6
CONTINUOUS
 10
0.0
 20
0.0
  0
INSERT
  2
*DIM_0010
  8
寸法
  6
CONTINUOUS
 10
0.0
 20
0.0
  0
INSERT
  2
*DIM_0012
  8
寸法
  6
CONTINUOUS
 10
0.0
 20
0.0
  0
INSERT
  2
*DIM_0013
  8
寸法
  6
CONTINUOUS
 10
0.0
 20
0.0
  0
INSERT
  2
*DIM_0014
  8
寸法
  6
CONTINUOUS
 10
0.0
 20
0.0
  0
INSERT
  2
*DIM_0015
  8
寸法
  6
CONTINUOUS
 10
0.0
 20
0.0
  0
INSERT
  2
*DIM_0016
  8
寸法
  6
CONTINUOUS
 10
0.0
 20
0.0
  0
INSERT
  2
*DIM_0017
  8
寸法
  6
CONTINUOUS
 10
0.0
 20
0.0
  0
INSERT
  2
*DIM_0018
  8
寸法
  6
CONTINUOUS
 10
0.0
 20
0.0
  0
INSERT
  2
*DIM_0019
  8
寸法
  6
CONTINUOUS
 10
0.0
 20
0.0
  0
INSERT
  2
*DIM_0021
  8
寸法
  6
CONTINUOUS
 10
0.0
 20
0.0
  0
INSERT
  2
*DIM_0022
  8
寸法
  6
CONTINUOUS
 10
0.0
 20
0.0
  0
LINE
  8
別途部材
  6
CONTINUOUS
 10
0.683152
 20
34.928695
 11
0.283152
 21
35.328695
  0
LINE
  8
別途部材
  6
CONTINUOUS
 10
-1.383515
 20
36.995363
 11
-9.44277
 21
45.05462
  0
LINE
  8
別途部材
  6
CONTINUOUS
 10
0.283152
 20
35.328695
 11
0.283152
 21
46.995363
  0
LINE
  8
別途部材
  6
CONTINUOUS
 10
0.683152
 20
34.928695
 11
0.683152
 21
46.995363
  0
LINE
  8
別途部材
  6
CONTINUOUS
 10
0.683152
 20
59.06203
 11
0.283152
 21
58.66203
  0
LINE
  8
別途部材
  6
CONTINUOUS
 10
-1.383515
 20
56.995363
 11
-9.44277
 21
48.936105
  0
LINE
  8
別途部材
  6
CONTINUOUS
 10
0.283152
 20
58.66203
 11
0.283152
 21
46.995363
  0
LINE
  8
別途部材
  6
CONTINUOUS
 10
0.683152
 20
59.06203
 11
0.683152
 21
46.995363
  0
LINE
  8
別途部材
  6
CONTINUOUS
 10
0.283152
 20
58.66203
 11
-43.050183
 21
58.66203
  0
LINE
  8
別途部材
  6
CONTINUOUS
 10
0.683152
 20
59.06203
 11
-43.050183
 21
59.06203
  0
LINE
  8
別途部材
  6
CONTINUOUS
 10
0.283152
 20
35.328695
 11
-43.050183
 21
35.328695
  0
LINE
  8
別途部材
  6
CONTINUOUS
 10
0.683152
 20
34.928695
 11
-43.050183
 21
34.928695
  0
LINE
  8
別途部材
  6
CONTINUOUS
 10
-86.783518
 20
34.928695
 11
-86.383518
 21
35.328695
  0
LINE
  8
別途部材
  6
CONTINUOUS
 10
-84.71685
 20
36.995363
 11
-76.657595
 21
45.05462
  0
LINE
  8
別途部材
  6
CONTINUOUS
 10
-86.383518
 20
35.328695
 11
-86.383518
 21
46.995363
  0
LINE
  8
別途部材
  6
CONTINUOUS
 10
-86.783518
 20
34.928695
 11
-86.783518
 21
46.995363
  0
LINE
  8
別途部材
  6
CONTINUOUS
 10
-86.783518
 20
59.06203
 11
-86.383518
 21
58.66203
  0
LINE
  8
別途部材
  6
CONTINUOUS
 10
-84.71685
 20
56.995363
 11
-76.657595
 21
48.936105
  0
LINE
  8
別途部材
  6
CONTINUOUS
 10
-86.383518
 20
58.66203
 11
-86.383518
 21
46.995363
  0
LINE
  8
別途部材
  6
CONTINUOUS
 10
-86.783518
 20
59.06203
 11
-86.783518
 21
46.995363
  0
LINE
  8
別途部材
  6
CONTINUOUS
 10
-86.383518
 20
58.66203
 11
-43.050183
 21
58.66203
  0
LINE
  8
別途部材
  6
CONTINUOUS
 10
-86.783518
 20
59.06203
 11
-43.050183
 21
59.06203
  0
LINE
  8
別途部材
  6
CONTINUOUS
 10
-86.383518
 20
35.328695
 11
-43.050183
 21
35.328695
  0
LINE
  8
別途部材
  6
CONTINUOUS
 10
-86.783518
 20
34.928695
 11
-43.050183
 21
34.928695
  0
INSERT
  2
*GRP_0011
  8
別途部材
  6
CONTINUOUS
 10
0.0
 20
0.0
  0
INSERT
  2
*GRP_0020
  8
別途部材
  6
CONTINUOUS
 10
0.0
 20
0.0
  0
LINE
  8
別途部材
  6
DOT
 62
    96
 10
104.423788
 20
61.72143
 11
105.413738
 21
61.297165
  0
LINE
  8
別途部材
  6
DOT
 62
    96
 10
104.423788
 20
61.72143
 11
96.174208
 21
53.47185
  0
LINE
  8
別途部材
  6
DOT
 10
105.413738
 20
61.297165
 11
96.881315
 21
52.764745
  0
LINE
  8
別途部材
  6
DOT
 62
    96
 10
87.92463
 20
45.222272
 11
88.348892
 21
44.232323
  0
LINE
  8
別途部材
  6
DOT
 62
    96
 10
87.92463
 20
45.222272
 11
96.174208
 21
53.47185
  0
LINE
  8
別途部材
  6
DOT
 10
88.348892
 20
44.232323
 11
96.881315
 21
52.764745
  0
ARC
  8
別途部材
  6
DOT
 10
100.917712
 20
48.728346
 40
12.041667
 50
78.855026
 51
191.144974
  0
LINE
  8
別途部材
  6
CONTINUOUS
 62
    96
 10
104.692952
 20
58.662027
 11
105.692952
 21
59.062027
  0
LINE
  8
別途部材
  6
CONTINUOUS
 62
    96
 10
104.692952
 20
58.662027
 11
104.692952
 21
46.99536
  0
LINE
  8
別途部材
  6
CONTINUOUS
 10
105.692952
 20
59.062027
 11
105.692952
 21
46.99536
  0
LINE
  8
別途部材
  6
CONTINUOUS
 62
    96
 10
104.692952
 20
35.328695
 11
105.692952
 21
34.928695
  0
LINE
  8
別途部材
  6
CONTINUOUS
 62
    96
 10
104.692952
 20
35.328695
 11
104.692952
 21
46.99536
  0
LINE
  8
別途部材
  6
CONTINUOUS
 10
105.692952
 20
34.928695
 11
105.692952
 21
46.99536
  0
ARC
  8
別途部材
  6
CONTINUOUS
 10
111.401281
 20
46.995363
 40
12.041667
 50
123.855026
 51
236.144974
  0
INSERT
  2
*GRP_0023
  8
別途部材
  6
DOT
 10
0.0
 20
0.0
  0
INSERT
  2
*GRP_0024
  8
別途部材
  6
DOT
 10
0.0
 20
0.0
  0
INSERT
  2
*GRP_0025
  8
別途部材
  6
DOT
 10
0.0
 20
0.0
  0
INSERT
  2
*GRP_0026
  8
別途部材
  6
DOT
 10
0.0
 20
0.0
  0
INSERT
  2
*GRP_0027
  8
別途部材
  6
DOT
 10
0.0
 20
0.0
  0
INSERT
  2
*GRP_0028
  8
別途部材
  6
DOT
 10
0.0
 20
0.0
  0
ENDSEC
  0
EOF
